  0
SECTION
  2
HEADER
  9
$ACADVER
  1
AC1014
  9
$ACADMAINTVER
 70
     9
  9
$DWGCODEPAGE
  3
ANSI_1250
  9
$INSBASE
 10
0.0
 20
0.0
 30
0.0
  9
$EXTMIN
 10
-18.5804
 20
-18.9807
 30
0.0
  9
$EXTMAX
 10
18.7218
 20
22.432
 30
0.0
  9
$LIMMIN
 10
0.0
 20
0.0
  9
$LIMMAX
 10
12.0
 20
9.0
  9
$ORTHOMODE
 70
     0
  9
$REGENMODE
 70
     1
  9
$FILLMODE
 70
     1
  9
$QTEXTMODE
 70
     0
  9
$MIRRTEXT
 70
     1
  9
$DRAGMODE
 70
     2
  9
$LTSCALE
 40
1.0
  9
$OSMODE
 70
    37
  9
$ATTMODE
 70
     1
  9
$TEXTSIZE
 40
0.2
  9
$TRACEWID
 40
0.05
  9
$TEXTSTYLE
  7
STANDARD
  9
$CLAYER
  8
0
  9
$CELTYPE
  6
BYLAYER
  9
$CECOLOR
 62
   256
  9
$CELTSCALE
 40
1.0
  9
$DELOBJ
 70
     1
  9
$DISPSILH
 70
     0
  9
$DIMSCALE
 40
1.0
  9
$DIMASZ
 40
0.18
  9
$DIMEXO
 40
0.0625
  9
$DIMDLI
 40
0.38
  9
$DIMRND
 40
0.0
  9
$DIMDLE
 40
0.0
  9
$DIMEXE
 40
0.18
  9
$DIMTP
 40
0.0
  9
$DIMTM
 40
0.0
  9
$DIMTXT
 40
0.18
  9
$DIMCEN
 40
0.09
  9
$DIMTSZ
 40
0.0
  9
$DIMTOL
 70
     0
  9
$DIMLIM
 70
     0
  9
$DIMTIH
 70
     1
  9
$DIMTOH
 70
     1
  9
$DIMSE1
 70
     0
  9
$DIMSE2
 70
     0
  9
$DIMTAD
 70
     0
  9
$DIMZIN
 70
     0
  9
$DIMBLK
  1

  9
$DIMASO
 70
     1
  9
$DIMSHO
 70
     1
  9
$DIMPOST
  1

  9
$DIMAPOST
  1

  9
$DIMALT
 70
     0
  9
$DIMALTD
 70
     2
  9
$DIMALTF
 40
25.4
  9
$DIMLFAC
 40
1.0
  9
$DIMTOFL
 70
     0
  9
$DIMTVP
 40
0.0
  9
$DIMTIX
 70
     0
  9
$DIMSOXD
 70
     0
  9
$DIMSAH
 70
     0
  9
$DIMBLK1
  1

  9
$DIMBLK2
  1

  9
$DIMSTYLE
  2
STANDARD
  9
$DIMCLRD
 70
     0
  9
$DIMCLRE
 70
     0
  9
$DIMCLRT
 70
     0
  9
$DIMTFAC
 40
1.0
  9
$DIMGAP
 40
0.09
  9
$DIMJUST
 70
     0
  9
$DIMSD1
 70
     0
  9
$DIMSD2
 70
     0
  9
$DIMTOLJ
 70
     1
  9
$DIMTZIN
 70
     0
  9
$DIMALTZ
 70
     0
  9
$DIMALTTZ
 70
     0
  9
$DIMFIT
 70
     3
  9
$DIMUPT
 70
     0
  9
$DIMUNIT
 70
     2
  9
$DIMDEC
 70
     4
  9
$DIMTDEC
 70
     4
  9
$DIMALTU
 70
     2
  9
$DIMALTTD
 70
     2
  9
$DIMTXSTY
  7
STANDARD
  9
$DIMAUNIT
 70
     0
  9
$LUNITS
 70
     2
  9
$LUPREC
 70
     4
  9
$SKETCHINC
 40
0.1
  9
$FILLETRAD
 40
0.5
  9
$AUNITS
 70
     0
  9
$AUPREC
 70
     0
  9
$MENU
  1
.
  9
$ELEVATION
 40
0.0
  9
$PELEVATION
 40
0.0
  9
$THICKNESS
 40
0.0
  9
$LIMCHECK
 70
     0
  9
$CHAMFERA
 40
0.5
  9
$CHAMFERB
 40
0.5
  9
$CHAMFERC
 40
1.0
  9
$CHAMFERD
 40
0.0
  9
$SKPOLY
 70
     0
  9
$TDCREATE
 40
2456266.383835324
  9
$TDUPDATE
 40
2456266.383835336
  9
$TDINDWG
 40
0.0000000116
  9
$TDUSRTIMER
 40
0.0000000116
  9
$USRTIMER
 70
     1
  9
$ANGBASE
 50
0.0
  9
$ANGDIR
 70
     0
  9
$PDMODE
 70
     0
  9
$PDSIZE
 40
0.0
  9
$PLINEWID
 40
0.0
  9
$COORDS
 70
     1
  9
$SPLFRAME
 70
     0
  9
$SPLINETYPE
 70
     6
  9
$SPLINESEGS
 70
     8
  9
$ATTDIA
 70
     0
  9
$ATTREQ
 70
     1
  9
$HANDLING
 70
     1
  9
$HANDSEED
  5
C0
  9
$SURFTAB1
 70
     6
  9
$SURFTAB2
 70
     6
  9
$SURFTYPE
 70
     6
  9
$SURFU
 70
     6
  9
$SURFV
 70
     6
  9
$UCSNAME
  2

  9
$UCSORG
 10
0.0
 20
0.0
 30
0.0
  9
$UCSXDIR
 10
1.0
 20
0.0
 30
0.0
  9
$UCSYDIR
 10
0.0
 20
1.0
 30
0.0
  9
$PUCSNAME
  2

  9
$PUCSORG
 10
0.0
 20
0.0
 30
0.0
  9
$PUCSXDIR
 10
1.0
 20
0.0
 30
0.0
  9
$PUCSYDIR
 10
0.0
 20
1.0
 30
0.0
  9
$USERI1
 70
     0
  9
$USERI2
 70
     0
  9
$USERI3
 70
     0
  9
$USERI4
 70
     0
  9
$USERI5
 70
     0
  9
$USERR1
 40
0.0
  9
$USERR2
 40
0.0
  9
$USERR3
 40
0.0
  9
$USERR4
 40
0.0
  9
$USERR5
 40
0.0
  9
$WORLDVIEW
 70
     1
  9
$SHADEDGE
 70
     3
  9
$SHADEDIF
 70
    70
  9
$TILEMODE
 70
     1
  9
$MAXACTVP
 70
    64
  9
$PINSBASE
 10
0.0
 20
0.0
 30
0.0
  9
$PLIMCHECK
 70
     0
  9
$PEXTMIN
 10
1.000000000000000E+20
 20
1.000000000000000E+20
 30
1.000000000000000E+20
  9
$PEXTMAX
 10
-1.000000000000000E+20
 20
-1.000000000000000E+20
 30
-1.000000000000000E+20
  9
$PLIMMIN
 10
0.0
 20
0.0
  9
$PLIMMAX
 10
12.0
 20
9.0
  9
$UNITMODE
 70
     0
  9
$VISRETAIN
 70
     1
  9
$PLINEGEN
 70
     0
  9
$PSLTSCALE
 70
     1
  9
$TREEDEPTH
 70
  3020
  9
$PICKSTYLE
 70
     1
  9
$CMLSTYLE
  2
STANDARD
  9
$CMLJUST
 70
     0
  9
$CMLSCALE
 40
1.0
  9
$PROXYGRAPHICS
 70
     1
  9
$MEASUREMENT
 70
     0
  0
ENDSEC
  0
SECTION
  2
CLASSES
  0
CLASS
  1
ACDBDICTIONARYWDFLT
  2
AcDbDictionaryWithDefault
  3
ObjectDBX Classes
 90
        0
280
     0
281
     0
  0
CLASS
  1
VISUALSTYLE
  2
AcDbVisualStyle
  3
ObjectDBX Classes
 90
     4095
280
     0
281
     0
  0
CLASS
  1
MATERIAL
  2
AcDbMaterial
  3
ObjectDBX Classes
 90
     1153
280
     0
281
     0
  0
CLASS
  1
DICTIONARYVAR
  2
AcDbDictionaryVar
  3
ObjectDBX Classes
 90
        0
280
     0
281
     0
  0
CLASS
  1
XRECORD
  2
AcDbXrecord
  3
AutoCAD 2000
 90
        0
280
     0
281
     0
  0
CLASS
  1
LWPOLYLINE
  2
AcDbPolyline
  3
AutoCAD 2000
 90
        0
280
     0
281
     1
  0
CLASS
  1
HATCH
  2
AcDbHatch
  3
AutoCAD 2000
 90
        0
280
     0
281
     1
  0
CLASS
  1
ACDBPLACEHOLDER
  2
AcDbPlaceHolder
  3
ObjectDBX Classes
 90
        0
280
     0
281
     0
  0
CLASS
  1
LAYOUT
  2
AcDbLayout
  3
ObjectDBX Classes
 90
        0
280
     0
281
     0
  0
ENDSEC
  0
SECTION
  2
TABLES
  0
TABLE
  2
VPORT
  5
8
330
0
100
AcDbSymbolTable
 70
     1
  0
VPORT
  5
29
330
8
100
AcDbSymbolTableRecord
100
AcDbViewportTableRecord
  2
*ACTIVE
 70
     0
 10
0.0
 20
0.0
 11
1.0
 21
1.0
 12
10.42990654205607
 22
4.5
 13
0.0
 23
0.0
 14
0.5
 24
0.5
 15
0.5
 25
0.5
 16
0.0
 26
0.0
 36
1.0
 17
0.0
 27
0.0
 37
0.0
 40
9.0
 41
1.972972972850329
 42
50.0
 43
0.0
 44
0.0
 50
0.0
 51
0.0
 71
     0
 72
   100
 73
     1
 74
     3
 75
     0
 76
     0
 77
     0
 78
     0
  0
ENDTAB
  0
TABLE
  2
LTYPE
  5
5
330
0
100
AcDbSymbolTable
 70
     2
  0
LTYPE
  5
14
330
5
100
AcDbSymbolTableRecord
100
AcDbLinetypeTableRecord
  2
BYBLOCK
 70
     0
  3

 72
    65
 73
     0
 40
0.0
  0
LTYPE
  5
15
330
5
100
AcDbSymbolTableRecord
100
AcDbLinetypeTableRecord
  2
BYLAYER
 70
     0
  3

 72
    65
 73
     0
 40
0.0
  0
LTYPE
  5
16
330
5
100
AcDbSymbolTableRecord
100
AcDbLinetypeTableRecord
  2
CONTINUOUS
 70
     0
  3
Solid line
 72
    65
 73
     0
 40
0.0
  0
LTYPE
  5
52
330
5
100
AcDbSymbolTableRecord
100
AcDbLinetypeTableRecord
  2
NEW_LINE1
 70
     0
  3

 72
    65
 73
     4
 40
1.2
 49
0.5
 74
     4
 75
     0
340
0
 46
1.0
 50
0.0
 44
0.0
 45
0.0
 49
-0.3
 74
     4
 75
     0
340
0
 46
1.0
 50
0.0
 44
0.0
 45
0.0
 49
0.1
 74
     4
 75
     0
340
0
 46
1.0
 50
0.0
 44
0.0
 45
0.0
 49
-0.3
 74
     4
 75
     0
340
0
 46
1.0
 50
0.0
 44
0.0
 45
0.0
  0
ENDTAB
  0
TABLE
  2
LAYER
  5
2
330
0
100
AcDbSymbolTable
 70
     2
  0
LAYER
  5
10
330
2
100
AcDbSymbolTableRecord
100
AcDbLayerTableRecord
  2
0
 70
     0
 62
     7
  6
CONTINUOUS
  0
LAYER
  5
40
330
2
100
AcDbSymbolTableRecord
100
AcDbLayerTableRecord
  2
DEFAULT_1
 70
     0
 62
     7
  6
CONTINUOUS
  0
ENDTAB
  0
TABLE
  2
STYLE
  5
3
330
0
100
AcDbSymbolTable
 70
     1
  0
STYLE
  5
11
330
3
100
AcDbSymbolTableRecord
100
AcDbTextStyleTableRecord
  2
STANDARD
 70
     0
 40
0.0
 41
1.0
 50
0.0
 71
     0
 42
0.2
  3
txt
  4

  0
ENDTAB
  0
TABLE
  2
VIEW
  5
6
330
0
100
AcDbSymbolTable
 70
     0
  0
ENDTAB
  0
TABLE
  2
UCS
  5
7
330
0
100
AcDbSymbolTable
 70
     0
  0
ENDTAB
  0
TABLE
  2
APPID
  5
9
330
0
100
AcDbSymbolTable
 70
     2
  0
APPID
  5
12
330
9
100
AcDbSymbolTableRecord
100
AcDbRegAppTableRecord
  2
ACAD
 70
     0
  0
APPID
  5
3F
330
9
100
AcDbSymbolTableRecord
100
AcDbRegAppTableRecord
  2
ODA
 70
     0
  0
ENDTAB
  0
TABLE
  2
DIMSTYLE
  5
A
330
0
100
AcDbSymbolTable
 70
     1
  0
DIMSTYLE
105
27
330
A
100
AcDbSymbolTableRecord
100
AcDbDimStyleTableRecord
  2
STANDARD
 70
     0
  3

  4

  5

  6

  7

 40
1.0
 41
0.18
 42
0.0625
 43
0.38
 44
0.18
 45
0.0
 46
0.0
 47
0.0
 48
0.0
140
0.18
141
0.09
142
0.0
143
25.4
144
1.0
145
0.0
146
1.0
147
0.09
 71
     0
 72
     0
 73
     1
 74
     1
 75
     0
 76
     0
 77
     0
 78
     0
170
     0
171
     2
172
     0
173
     0
174
     0
175
     0
176
     0
177
     0
178
     0
270
     2
271
     4
272
     4
273
     2
274
     2
340
11
275
     0
280
     0
281
     0
282
     0
283
     1
284
     0
285
     0
286
     0
287
     3
288
     0
  0
ENDTAB
  0
TABLE
  2
BLOCK_RECORD
  5
1
330
0
100
AcDbSymbolTable
 70
     1
  0
BLOCK_RECORD
  5
1F
330
1
100
AcDbSymbolTableRecord
100
AcDbBlockTableRecord
  2
*MODEL_SPACE
  0
BLOCK_RECORD
  5
1B
330
1
100
AcDbSymbolTableRecord
100
AcDbBlockTableRecord
  2
*PAPER_SPACE
  0
ENDTAB
  0
ENDSEC
  0
SECTION
  2
BLOCKS
  0
BLOCK
  5
20
330
1F
100
AcDbEntity
  8
0
100
AcDbBlockBegin
  2
*MODEL_SPACE
 70
     0
 10
0.0
 20
0.0
 30
0.0
  3
*MODEL_SPACE
  1

  0
ENDBLK
  5
21
330
1F
100
AcDbEntity
  8
0
100
AcDbBlockEnd
  0
BLOCK
  5
1C
330
1B
100
AcDbEntity
 67
     1
  8
0
100
AcDbBlockBegin
  2
*PAPER_SPACE
 70
     0
 10
0.0
 20
0.0
 30
0.0
  3
*PAPER_SPACE
  1

  0
ENDBLK
  5
1D
330
1B
100
AcDbEntity
 67
     1
  8
0
100
AcDbBlockEnd
  0
ENDSEC
  0
SECTION
  2
ENTITIES
  0
SPLINE
  5
41
330
1F
100
AcDbEntity
  8
DEFAULT_1
 62
   250
100
AcDbSpline
210
0.0
220
0.0
230
1.0
 70
    24
 71
     3
 72
     8
 73
     4
 74
     0
 42
0.0000000001
 43
0.0000000001
 40
0.0
 40
0.0
 40
0.0
 40
0.0
 40
1.0
 40
1.0
 40
1.0
 40
1.0
 10
-0.6366
 20
-14.0049
 30
0.0
 10
-0.6366
 20
-14.0049
 30
0.0
 10
-0.6366
 20
-18.7563
 30
0.0
 10
-0.6366
 20
-18.7563
 30
0.0
  0
SPLINE
  5
42
330
1F
100
AcDbEntity
  8
DEFAULT_1
 62
   250
100
AcDbSpline
210
0.0
220
0.0
230
1.0
 70
    24
 71
     3
 72
     8
 73
     4
 74
     0
 42
0.0000000001
 43
0.0000000001
 40
0.0
 40
0.0
 40
0.0
 40
0.0
 40
1.0
 40
1.0
 40
1.0
 40
1.0
 10
10.5366
 20
-14.2959
 30
0.0
 10
10.5366
 20
-14.2959
 30
0.0
 10
10.5366
 20
-18.9807
 30
0.0
 10
10.5366
 20
-18.9807
 30
0.0
  0
SPLINE
  5
43
330
1F
100
AcDbEntity
  8
DEFAULT_1
 62
   250
100
AcDbSpline
210
0.0
220
0.0
230
1.0
 70
    24
 71
     3
 72
     8
 73
     4
 74
     0
 42
0.0000000001
 43
0.0000000001
 40
0.0
 40
0.0
 40
0.0
 40
0.0
 40
1.0
 40
1.0
 40
1.0
 40
1.0
 10
14.1359
 20
-18.1187
 30
0.0
 10
14.1359
 20
-18.1187
 30
0.0
 10
-4.4013
 20
-18.1187
 30
0.0
 10
-4.4013
 20
-18.1187
 30
0.0
  0
SPLINE
  5
44
330
1F
100
AcDbEntity
  8
DEFAULT_1
 62
   250
100
AcDbSpline
210
0.0
220
0.0
230
1.0
 70
    24
 71
     3
 72
     8
 73
     4
 74
     0
 42
0.0000000001
 43
0.0000000001
 40
0.0
 40
0.0
 40
0.0
 40
0.0
 40
1.0
 40
1.0
 40
1.0
 40
1.0
 10
-1.1753
 20
-13.4536
 30
0.0
 10
-1.1753
 20
-13.4536
 30
0.0
 10
-16.2821
 20
-13.4536
 30
0.0
 10
-16.2821
 20
-13.4536
 30
0.0
  0
SPLINE
  5
45
330
1F
100
AcDbEntity
  8
DEFAULT_1
 62
   250
100
AcDbSpline
210
0.0
220
0.0
230
1.0
 70
    24
 71
     3
 72
     8
 73
     4
 74
     0
 42
0.0000000001
 43
0.0000000001
 40
0.0
 40
0.0
 40
0.0
 40
0.0
 40
1.0
 40
1.0
 40
1.0
 40
1.0
 10
-9.3053
 20
0.8187
 30
0.0
 10
-9.3053
 20
0.8187
 30
0.0
 10
-16.0612
 20
0.8187
 30
0.0
 10
-16.0612
 20
0.8187
 30
0.0
  0
SPLINE
  5
46
330
1F
100
AcDbEntity
  8
DEFAULT_1
 62
   250
100
AcDbSpline
210
0.0
220
0.0
230
1.0
 70
    24
 71
     3
 72
     8
 73
     4
 74
     0
 42
0.0000000001
 43
0.0000000001
 40
0.0
 40
0.0
 40
0.0
 40
0.0
 40
1.0
 40
1.0
 40
1.0
 40
1.0
 10
-15.3496
 20
11.7
 30
0.0
 10
-15.3496
 20
11.7
 30
0.0
 10
-15.3496
 20
-10.1275
 30
0.0
 10
-15.3496
 20
-10.1275
 30
0.0
  0
SPLINE
  5
47
330
1F
100
AcDbEntity
  8
DEFAULT_1
 62
   250
100
AcDbSpline
210
0.0
220
0.0
230
1.0
 70
    24
 71
     3
 72
     8
 73
     4
 74
     0
 42
0.0000000001
 43
0.0000000001
 40
0.0
 40
0.0
 40
0.0
 40
0.0
 40
1.0
 40
1.0
 40
1.0
 40
1.0
 10
-15.3829
 20
-13.3087
 30
0.0
 10
-15.3829
 20
-13.3087
 30
0.0
 10
-15.9592
 20
-9.4043
 30
0.0
 10
-15.9592
 20
-9.4043
 30
0.0
  0
SPLINE
  5
48
330
1F
100
AcDbEntity
  8
DEFAULT_1
 62
   250
100
AcDbSpline
210
0.0
220
0.0
230
1.0
 70
     8
 71
     3
 72
    12
 73
     8
 74
     0
 42
0.0000000001
 43
0.0000000001
 40
0.0
 40
0.0
 40
0.0
 40
0.0
 40
0.3333333333333333
 40
0.3333333333333333
 40
0.3333333333333333
 40
0.3333333333333333
 40
1.0
 40
1.0
 40
1.0
 40
1.0
 10
-15.9592
 20
-9.4043
 30
0.0
 10
-15.9592
 20
-9.4043
 30
0.0
 10
-14.8067
 20
-9.4043
 30
0.0
 10
-14.8067
 20
-9.4043
 30
0.0
 10
-14.8067
 20
-9.4043
 30
0.0
 10
-14.8067
 20
-9.4043
 30
0.0
 10
-15.3829
 20
-13.3087
 30
0.0
 10
-15.3829
 20
-13.3087
 30
0.0
  0
SPLINE
  5
49
330
1F
100
AcDbEntity
  8
DEFAULT_1
 62
   250
100
AcDbSpline
210
0.0
220
0.0
230
1.0
 70
    24
 71
     3
 72
     8
 73
     4
 74
     0
 42
0.0000000001
 43
0.0000000001
 40
0.0
 40
0.0
 40
0.0
 40
0.0
 40
1.0
 40
1.0
 40
1.0
 40
1.0
 10
-9.3644
 20
7.3142
 30
0.0
 10
-9.3644
 20
7.3142
 30
0.0
 10
-16.0841
 20
7.3142
 30
0.0
 10
-16.0841
 20
7.3142
 30
0.0
  0
SPLINE
  5
4A
330
1F
100
AcDbEntity
  8
DEFAULT_1
 62
   250
100
AcDbSpline
210
0.0
220
0.0
230
1.0
 70
    24
 71
     3
 72
     8
 73
     4
 74
     0
 42
0.0000000001
 43
0.0000000001
 40
0.0
 40
0.0
 40
0.0
 40
0.0
 40
1.0
 40
1.0
 40
1.0
 40
1.0
 10
-8.6612
 20
8.513
 30
0.0
 10
-8.6612
 20
8.513
 30
0.0
 10
-8.6612
 20
20.7298
 30
0.0
 10
-8.6612
 20
20.7298
 30
0.0
  0
SPLINE
  5
4B
330
1F
100
AcDbEntity
  8
DEFAULT_1
 62
   250
100
AcDbSpline
210
0.0
220
0.0
230
1.0
 70
    24
 71
     3
 72
     8
 73
     4
 74
     0
 42
0.0000000001
 43
0.0000000001
 40
0.0
 40
0.0
 40
0.0
 40
0.0
 40
1.0
 40
1.0
 40
1.0
 40
1.0
 10
18.5613
 20
8.247
 30
0.0
 10
18.5613
 20
8.247
 30
0.0
 10
18.5613
 20
20.889
 30
0.0
 10
18.5613
 20
20.889
 30
0.0
  0
SPLINE
  5
4C
330
1F
100
AcDbEntity
  8
DEFAULT_1
 62
   250
100
AcDbSpline
210
0.0
220
0.0
230
1.0
 70
    24
 71
     3
 72
     8
 73
     4
 74
     0
 42
0.0000000001
 43
0.0000000001
 40
0.0
 40
0.0
 40
0.0
 40
0.0
 40
1.0
 40
1.0
 40
1.0
 40
1.0
 10
17.8763
 20
19.8662
 30
0.0
 10
17.8763
 20
19.8662
 30
0.0
 10
-8.175
 20
19.8662
 30
0.0
 10
-8.175
 20
19.8662
 30
0.0
  0
SPLINE
  5
4D
330
1F
100
AcDbEntity
  8
DEFAULT_1
 62
   250
100
AcDbSpline
210
0.0
220
0.0
230
1.0
 70
    24
 71
     3
 72
     8
 73
     4
 74
     0
 42
0.0000000001
 43
0.0000000001
 40
0.0
 40
0.0
 40
0.0
 40
0.0
 40
1.0
 40
1.0
 40
1.0
 40
1.0
 10
14.8923
 20
10.3975
 30
0.0
 10
14.8923
 20
10.3975
 30
0.0
 10
14.8923
 20
13.9256
 30
0.0
 10
14.8923
 20
13.9256
 30
0.0
  0
SPLINE
  5
4E
330
1F
100
AcDbEntity
  8
DEFAULT_1
 62
   250
100
AcDbSpline
210
0.0
220
0.0
230
1.0
 70
    24
 71
     3
 72
     8
 73
     4
 74
     0
 42
0.0000000001
 43
0.0000000001
 40
0.0
 40
0.0
 40
0.0
 40
0.0
 40
1.0
 40
1.0
 40
1.0
 40
1.0
 10
-4.9921
 20
10.5824
 30
0.0
 10
-4.9921
 20
10.5824
 30
0.0
 10
-4.9921
 20
13.653
 30
0.0
 10
-4.9921
 20
13.653
 30
0.0
  0
SPLINE
  5
4F
330
1F
100
AcDbEntity
  8
DEFAULT_1
 62
   250
100
AcDbSpline
210
0.0
220
0.0
230
1.0
 70
    24
 71
     3
 72
     8
 73
     4
 74
     0
 42
0.0000000001
 43
0.0000000001
 40
0.0
 40
0.0
 40
0.0
 40
0.0
 40
1.0
 40
1.0
 40
1.0
 40
1.0
 10
14.7566
 20
12.954
 30
0.0
 10
14.7566
 20
12.954
 30
0.0
 10
-4.4487
 20
12.954
 30
0.0
 10
-4.4487
 20
12.954
 30
0.0
  0
SPLINE
  5
50
330
1F
100
AcDbEntity
  8
DEFAULT_1
 62
   250
100
AcDbSpline
210
0.0
220
0.0
230
1.0
 70
    11
 71
     3
 72
    36
 73
    32
 74
     0
 42
0.0000000001
 43
0.0000000001
 40
0.0
 40
0.0
 40
0.0
 40
0.0
 40
0.1111111111111111
 40
0.1111111111111111
 40
0.1111111111111111
 40
0.1111111111111111
 40
0.2222222222222222
 40
0.2222222222222222
 40
0.2222222222222222
 40
0.2222222222222222
 40
0.3333333333333333
 40
0.3333333333333333
 40
0.3333333333333333
 40
0.3333333333333333
 40
0.4444444444444444
 40
0.4444444444444444
 40
0.4444444444444444
 40
0.4444444444444444
 40
0.5555555555555556
 40
0.5555555555555556
 40
0.5555555555555556
 40
0.5555555555555556
 40
0.6666666666666666
 40
0.6666666666666666
 40
0.6666666666666666
 40
0.6666666666666666
 40
0.7777777777777778
 40
0.7777777777777778
 40
0.7777777777777778
 40
0.7777777777777778
 40
1.0
 40
1.0
 40
1.0
 40
1.0
 10
6.6071
 20
10.8168
 30
0.0
 10
6.6071
 20
10.8168
 30
0.0
 10
3.293
 20
10.8168
 30
0.0
 10
3.293
 20
10.8168
 30
0.0
 10
3.293
 20
10.8168
 30
0.0
 10
3.293
 20
10.8168
 30
0.0
 10
3.1387
 20
10.6419
 30
0.0
 10
3.1387
 20
10.6419
 30
0.0
 10
3.1387
 20
10.6419
 30
0.0
 10
3.1387
 20
10.6419
 30
0.0
 10
3.1387
 20
10.3921
 30
0.0
 10
3.1387
 20
10.3921
 30
0.0
 10
3.1387
 20
10.3921
 30
0.0
 10
3.1387
 20
10.3921
 30
0.0
 10
3.354
 20
10.2331
 30
0.0
 10
3.354
 20
10.2331
 30
0.0
 10
3.354
 20
10.2331
 30
0.0
 10
3.354
 20
10.2331
 30
0.0
 10
6.5493
 20
10.2331
 30
0.0
 10
6.5493
 20
10.2331
 30
0.0
 10
6.5493
 20
10.2331
 30
0.0
 10
6.5493
 20
10.2331
 30
0.0
 10
6.6626
 20
10.3694
 30
0.0
 10
6.6626
 20
10.3694
 30
0.0
 10
6.6626
 20
10.3694
 30
0.0
 10
6.6626
 20
10.3694
 30
0.0
 10
6.6626
 20
10.6646
 30
0.0
 10
6.6626
 20
10.6646
 30
0.0
 10
6.6626
 20
10.6646
 30
0.0
 10
6.6626
 20
10.6646
 30
0.0
 10
6.6071
 20
10.8168
 30
0.0
 10
6.6071
 20
10.8168
 30
0.0
  0
SPLINE
  5
51
330
1F
100
AcDbEntity
  8
DEFAULT_1
  6
NEW_LINE1
 62
   250
100
AcDbSpline
210
0.0
220
0.0
230
1.0
 70
    24
 71
     3
 72
     8
 73
     4
 74
     0
 42
0.0000000001
 43
0.0000000001
 40
0.0
 40
0.0
 40
0.0
 40
0.0
 40
1.0
 40
1.0
 40
1.0
 40
1.0
 10
4.9493
 20
11.8996
 30
0.0
 10
4.9493
 20
11.8996
 30
0.0
 10
4.9493
 20
-14.45
 30
0.0
 10
4.9493
 20
-14.45
 30
0.0
  0
SPLINE
  5
53
330
1F
100
AcDbEntity
  8
DEFAULT_1
 62
   250
100
AcDbSpline
210
0.0
220
0.0
230
1.0
 70
    11
 71
     3
 72
    84
 73
    80
 74
     0
 42
0.0000000001
 43
0.0000000001
 40
0.0
 40
0.0
 40
0.0
 40
0.0
 40
0.0476190476190476
 40
0.0476190476190476
 40
0.0476190476190476
 40
0.0476190476190476
 40
0.0952380952380952
 40
0.0952380952380952
 40
0.0952380952380952
 40
0.0952380952380952
 40
0.1428571428571428
 40
0.1428571428571428
 40
0.1428571428571428
 40
0.1428571428571428
 40
0.1904761904761905
 40
0.1904761904761905
 40
0.1904761904761905
 40
0.1904761904761905
 40
0.2380952380952381
 40
0.2380952380952381
 40
0.2380952380952381
 40
0.2380952380952381
 40
0.2857142857142857
 40
0.2857142857142857
 40
0.2857142857142857
 40
0.2857142857142857
 40
0.3333333333333333
 40
0.3333333333333333
 40
0.3333333333333333
 40
0.3333333333333333
 40
0.3809523809523809
 40
0.3809523809523809
 40
0.3809523809523809
 40
0.3809523809523809
 40
0.4285714285714285
 40
0.4285714285714285
 40
0.4285714285714285
 40
0.4285714285714285
 40
0.4761904761904762
 40
0.4761904761904762
 40
0.4761904761904762
 40
0.4761904761904762
 40
0.5238095238095238
 40
0.5238095238095238
 40
0.5238095238095238
 40
0.5238095238095238
 40
0.5714285714285714
 40
0.5714285714285714
 40
0.5714285714285714
 40
0.5714285714285714
 40
0.6190476190476191
 40
0.6190476190476191
 40
0.6190476190476191
 40
0.6190476190476191
 40
0.6666666666666666
 40
0.6666666666666666
 40
0.6666666666666666
 40
0.6666666666666666
 40
0.7142857142857143
 40
0.7142857142857143
 40
0.7142857142857143
 40
0.7142857142857143
 40
0.7619047619047619
 40
0.7619047619047619
 40
0.7619047619047619
 40
0.7619047619047619
 40
0.8095238095238095
 40
0.8095238095238095
 40
0.8095238095238095
 40
0.8095238095238095
 40
0.8571428571428571
 40
0.8571428571428571
 40
0.8571428571428571
 40
0.8571428571428571
 40
0.9047619047619048
 40
0.9047619047619048
 40
0.9047619047619048
 40
0.9047619047619048
 40
1.0
 40
1.0
 40
1.0
 40
1.0
 10
3.4362
 20
22.1729
 30
0.0
 10
3.4362
 20
22.1729
 30
0.0
 10
3.6676
 20
22.432
 30
0.0
 10
3.6676
 20
22.432
 30
0.0
 10
3.6676
 20
22.432
 30
0.0
 10
3.6676
 20
22.432
 30
0.0
 10
3.804
 20
22.3163
 30
0.0
 10
3.804
 20
22.3163
 30
0.0
 10
3.804
 20
22.3163
 30
0.0
 10
3.804
 20
22.3163
 30
0.0
 10
3.5618
 20
22.0435
 30
0.0
 10
3.5618
 20
22.0435
 30
0.0
 10
3.5618
 20
22.0435
 30
0.0
 10
3.6408
 20
21.9259
 30
0.0
 10
3.6939
 20
21.8229
 30
0.0
 10
3.7217
 20
21.735
 30
0.0
 10
3.7217
 20
21.735
 30
0.0
 10
3.7584
 20
21.6192
 30
0.0
 10
3.7767
 20
21.4894
 30
0.0
 10
3.7767
 20
21.3464
 30
0.0
 10
3.7767
 20
21.3464
 30
0.0
 10
3.7767
 20
21.1395
 30
0.0
 10
3.7349
 20
20.9551
 30
0.0
 10
3.6511
 20
20.7938
 30
0.0
 10
3.6511
 20
20.7938
 30
0.0
 10
3.5674
 20
20.6319
 30
0.0
 10
3.4503
 20
20.5097
 30
0.0
 10
3.2993
 20
20.4269
 30
0.0
 10
3.2993
 20
20.4269
 30
0.0
 10
3.1478
 20
20.3446
 30
0.0
 10
2.9875
 20
20.3032
 30
0.0
 10
2.8177
 20
20.3032
 30
0.0
 10
2.8177
 20
20.3032
 30
0.0
 10
2.6907
 20
20.3032
 30
0.0
 10
2.5759
 20
20.321
 30
0.0
 10
2.4729
 20
20.3568
 30
0.0
 10
2.4729
 20
20.3568
 30
0.0
 10
2.3939
 20
20.3845
 30
0.0
 10
2.3017
 20
20.4372
 30
0.0
 10
2.1958
 20
20.5153
 30
0.0
 10
2.1958
 20
20.5153
 30
0.0
 10
2.1958
 20
20.5153
 30
0.0
 10
1.9644
 20
20.2561
 30
0.0
 10
1.9644
 20
20.2561
 30
0.0
 10
1.9644
 20
20.2561
 30
0.0
 10
1.9644
 20
20.2561
 30
0.0
 10
1.828
 20
20.3718
 30
0.0
 10
1.828
 20
20.3718
 30
0.0
 10
1.828
 20
20.3718
 30
0.0
 10
1.828
 20
20.3718
 30
0.0
 10
2.0707
 20
20.6432
 30
0.0
 10
2.0707
 20
20.6432
 30
0.0
 10
2.0707
 20
20.6432
 30
0.0
 10
1.9804
 20
20.7801
 30
0.0
 10
1.9202
 20
20.8972
 30
0.0
 10
1.8901
 20
20.9941
 30
0.0
 10
1.8901
 20
20.9941
 30
0.0
 10
1.86
 20
21.091
 30
0.0
 10
1.8445
 20
21.2077
 30
0.0
 10
1.8445
 20
21.3436
 30
0.0
 10
1.8445
 20
21.3436
 30
0.0
 10
1.8445
 20
21.551
 30
0.0
 10
1.8859
 20
21.7359
 30
0.0
 10
1.9686
 20
21.8982
 30
0.0
 10
1.9686
 20
21.8982
 30
0.0
 10
2.0514
 20
22.0605
 30
0.0
 10
2.1671
 20
22.1832
 30
0.0
 10
2.3167
 20
22.2669
 30
0.0
 10
2.3167
 20
22.2669
 30
0.0
 10
2.4658
 20
22.3502
 30
0.0
 10
2.6319
 20
22.3921
 30
0.0
 10
2.8148
 20
22.3921
 30
0.0
 10
2.8148
 20
22.3921
 30
0.0
 10
2.9381
 20
22.3921
 30
0.0
 10
3.0458
 20
22.3761
 30
0.0
 10
3.138
 20
22.3431
 30
0.0
 10
3.138
 20
22.3431
 30
0.0
 10
3.2302
 20
22.3107
 30
0.0
 10
3.3299
 20
22.2538
 30
0.0
 10
3.4362
 20
22.1729
 30
0.0
  0
SPLINE
  5
54
330
1F
100
AcDbEntity
  8
DEFAULT_1
 62
   250
100
AcDbSpline
210
0.0
220
0.0
230
1.0
 70
    11
 71
     3
 72
    32
 73
    28
 74
     0
 42
0.0000000001
 43
0.0000000001
 40
0.0
 40
0.0
 40
0.0
 40
0.0
 40
0.125
 40
0.125
 40
0.125
 40
0.125
 40
0.25
 40
0.25
 40
0.25
 40
0.25
 40
0.375
 40
0.375
 40
0.375
 40
0.375
 40
0.5
 40
0.5
 40
0.5
 40
0.5
 40
0.625
 40
0.625
 40
0.625
 40
0.625
 40
0.75
 40
0.75
 40
0.75
 40
0.75
 40
1.0
 40
1.0
 40
1.0
 40
1.0
 10
3.2711
 20
21.9871
 30
0.0
 10
3.1845
 20
22.0548
 30
0.0
 10
3.1088
 20
22.1014
 30
0.0
 10
3.0444
 20
22.1263
 30
0.0
 10
3.0444
 20
22.1263
 30
0.0
 10
2.9795
 20
22.1508
 30
0.0
 10
2.9033
 20
22.1635
 30
0.0
 10
2.8162
 20
22.1635
 30
0.0
 10
2.8162
 20
22.1635
 30
0.0
 10
2.6149
 20
22.1635
 30
0.0
 10
2.4489
 20
22.0953
 30
0.0
 10
2.3172
 20
21.9589
 30
0.0
 10
2.3172
 20
21.9589
 30
0.0
 10
2.1859
 20
21.8224
 30
0.0
 10
2.1201
 20
21.6188
 30
0.0
 10
2.1201
 20
21.3474
 30
0.0
 10
2.1201
 20
21.3474
 30
0.0
 10
2.1201
 20
21.2411
 30
0.0
 10
2.1304
 20
21.1465
 30
0.0
 10
2.1507
 20
21.0637
 30
0.0
 10
2.1507
 20
21.0637
 30
0.0
 10
2.1653
 20
21.0021
 30
0.0
 10
2.1958
 20
20.9264
 30
0.0
 10
2.2429
 20
20.8366
 30
0.0
 10
2.2429
 20
20.8366
 30
0.0
 10
2.2429
 20
20.8366
 30
0.0
 10
3.2711
 20
21.9871
 30
0.0
 10
3.2711
 20
21.9871
 30
0.0
  0
SPLINE
  5
55
330
1F
100
AcDbEntity
  8
DEFAULT_1
 62
   250
100
AcDbSpline
210
0.0
220
0.0
230
1.0
 70
    11
 71
     3
 72
    28
 73
    24
 74
     0
 42
0.0000000001
 43
0.0000000001
 40
0.0
 40
0.0
 40
0.0
 40
0.0
 40
0.1428571428571428
 40
0.1428571428571428
 40
0.1428571428571428
 40
0.1428571428571428
 40
0.2857142857142857
 40
0.2857142857142857
 40
0.2857142857142857
 40
0.2857142857142857
 40
0.4285714285714285
 40
0.4285714285714285
 40
0.4285714285714285
 40
0.4285714285714285
 40
0.5714285714285714
 40
0.5714285714285714
 40
0.5714285714285714
 40
0.5714285714285714
 40
0.7142857142857143
 40
0.7142857142857143
 40
0.7142857142857143
 40
0.7142857142857143
 40
1.0
 40
1.0
 40
1.0
 40
1.0
 10
3.384
 20
21.845
 30
0.0
 10
3.384
 20
21.845
 30
0.0
 10
2.36
 20
20.6987
 30
0.0
 10
2.36
 20
20.6987
 30
0.0
 10
2.36
 20
20.6987
 30
0.0
 10
2.4305
 20
20.6409
 30
0.0
 10
2.4959
 20
20.6004
 30
0.0
 10
2.5557
 20
20.5774
 30
0.0
 10
2.5557
 20
20.5774
 30
0.0
 10
2.6337
 20
20.5468
 30
0.0
 10
2.7184
 20
20.5318
 30
0.0
 10
2.8092
 20
20.5318
 30
0.0
 10
2.8092
 20
20.5318
 30
0.0
 10
3.0096
 20
20.5318
 30
0.0
 10
3.1747
 20
20.6023
 30
0.0
 10
3.3054
 20
20.7439
 30
0.0
 10
3.3054
 20
20.7439
 30
0.0
 10
3.4357
 20
20.8855
 30
0.0
 10
3.5011
 20
21.084
 30
0.0
 10
3.5011
 20
21.3394
 30
0.0
 10
3.5011
 20
21.3394
 30
0.0
 10
3.5011
 20
21.5303
 30
0.0
 10
3.4621
 20
21.6992
 30
0.0
 10
3.384
 20
21.845
 30
0.0
  0
SPLINE
  5
56
330
1F
100
AcDbEntity
  8
DEFAULT_1
 62
   250
100
AcDbSpline
210
0.0
220
0.0
230
1.0
 70
    11
 71
     3
 72
    40
 73
    36
 74
     0
 42
0.0000000001
 43
0.0000000001
 40
0.0
 40
0.0
 40
0.0
 40
0.0
 40
0.1
 40
0.1
 40
0.1
 40
0.1
 40
0.2
 40
0.2
 40
0.2
 40
0.2
 40
0.3
 40
0.3
 40
0.3
 40
0.3
 40
0.4
 40
0.4
 40
0.4
 40
0.4
 40
0.5
 40
0.5
 40
0.5
 40
0.5
 40
0.6
 40
0.6
 40
0.6
 40
0.6
 40
0.7
 40
0.7
 40
0.7
 40
0.7
 40
0.8
 40
0.8
 40
0.8
 40
0.8
 40
1.0
 40
1.0
 40
1.0
 40
1.0
 10
4.9602
 20
20.3375
 30
0.0
 10
4.9602
 20
20.3375
 30
0.0
 10
4.7123
 20
20.3375
 30
0.0
 10
4.7123
 20
20.3375
 30
0.0
 10
4.7123
 20
20.3375
 30
0.0
 10
4.7123
 20
20.3375
 30
0.0
 10
4.7123
 20
21.9179
 30
0.0
 10
4.7123
 20
21.9179
 30
0.0
 10
4.7123
 20
21.9179
 30
0.0
 10
4.6525
 20
21.861
 30
0.0
 10
4.5745
 20
21.8041
 30
0.0
 10
4.4776
 20
21.7472
 30
0.0
 10
4.4776
 20
21.7472
 30
0.0
 10
4.3802
 20
21.6903
 30
0.0
 10
4.2932
 20
21.6475
 30
0.0
 10
4.216
 20
21.6192
 30
0.0
 10
4.216
 20
21.6192
 30
0.0
 10
4.216
 20
21.6192
 30
0.0
 10
4.216
 20
21.8587
 30
0.0
 10
4.216
 20
21.8587
 30
0.0
 10
4.216
 20
21.8587
 30
0.0
 10
4.3548
 20
21.924
 30
0.0
 10
4.4762
 20
22.0031
 30
0.0
 10
4.5801
 20
22.0957
 30
0.0
 10
4.5801
 20
22.0957
 30
0.0
 10
4.6836
 20
22.1889
 30
0.0
 10
4.7574
 20
22.2787
 30
0.0
 10
4.8007
 20
22.3662
 30
0.0
 10
4.8007
 20
22.3662
 30
0.0
 10
4.8007
 20
22.3662
 30
0.0
 10
4.9602
 20
22.3662
 30
0.0
 10
4.9602
 20
22.3662
 30
0.0
 10
4.9602
 20
22.3662
 30
0.0
 10
4.9602
 20
22.3662
 30
0.0
 10
4.9602
 20
20.3375
 30
0.0
 10
4.9602
 20
20.3375
 30
0.0
  0
SPLINE
  5
57
330
1F
100
AcDbEntity
  8
DEFAULT_1
 62
   250
100
AcDbSpline
210
0.0
220
0.0
230
1.0
 70
    11
 71
     3
 72
    40
 73
    36
 74
     0
 42
0.0000000001
 43
0.0000000001
 40
0.0
 40
0.0
 40
0.0
 40
0.0
 40
0.1
 40
0.1
 40
0.1
 40
0.1
 40
0.2
 40
0.2
 40
0.2
 40
0.2
 40
0.3
 40
0.3
 40
0.3
 40
0.3
 40
0.4
 40
0.4
 40
0.4
 40
0.4
 40
0.5
 40
0.5
 40
0.5
 40
0.5
 40
0.6
 40
0.6
 40
0.6
 40
0.6
 40
0.7
 40
0.7
 40
0.7
 40
0.7
 40
0.8
 40
0.8
 40
0.8
 40
0.8
 40
1.0
 40
1.0
 40
1.0
 40
1.0
 10
6.3205
 20
20.3375
 30
0.0
 10
6.3205
 20
20.3375
 30
0.0
 10
6.0726
 20
20.3375
 30
0.0
 10
6.0726
 20
20.3375
 30
0.0
 10
6.0726
 20
20.3375
 30
0.0
 10
6.0726
 20
20.3375
 30
0.0
 10
6.0726
 20
21.9179
 30
0.0
 10
6.0726
 20
21.9179
 30
0.0
 10
6.0726
 20
21.9179
 30
0.0
 10
6.0128
 20
21.861
 30
0.0
 10
5.9348
 20
21.8041
 30
0.0
 10
5.8379
 20
21.7472
 30
0.0
 10
5.8379
 20
21.7472
 30
0.0
 10
5.7405
 20
21.6903
 30
0.0
 10
5.6535
 20
21.6475
 30
0.0
 10
5.5763
 20
21.6192
 30
0.0
 10
5.5763
 20
21.6192
 30
0.0
 10
5.5763
 20
21.6192
 30
0.0
 10
5.5763
 20
21.8587
 30
0.0
 10
5.5763
 20
21.8587
 30
0.0
 10
5.5763
 20
21.8587
 30
0.0
 10
5.7151
 20
21.924
 30
0.0
 10
5.8365
 20
22.0031
 30
0.0
 10
5.9404
 20
22.0957
 30
0.0
 10
5.9404
 20
22.0957
 30
0.0
 10
6.0439
 20
22.1889
 30
0.0
 10
6.1177
 20
22.2787
 30
0.0
 10
6.161
 20
22.3662
 30
0.0
 10
6.161
 20
22.3662
 30
0.0
 10
6.161
 20
22.3662
 30
0.0
 10
6.3205
 20
22.3662
 30
0.0
 10
6.3205
 20
22.3662
 30
0.0
 10
6.3205
 20
22.3662
 30
0.0
 10
6.3205
 20
22.3662
 30
0.0
 10
6.3205
 20
20.3375
 30
0.0
 10
6.3205
 20
20.3375
 30
0.0
  0
SPLINE
  5
58
330
1F
100
AcDbEntity
  8
DEFAULT_1
 62
   250
100
AcDbSpline
210
0.0
220
0.0
230
1.0
 70
    11
 71
     3
 72
    92
 73
    88
 74
     0
 42
0.0000000001
 43
0.0000000001
 40
0.0
 40
0.0
 40
0.0
 40
0.0
 40
0.0434782608695652
 40
0.0434782608695652
 40
0.0434782608695652
 40
0.0434782608695652
 40
0.0869565217391304
 40
0.0869565217391304
 40
0.0869565217391304
 40
0.0869565217391304
 40
0.1304347826086956
 40
0.1304347826086956
 40
0.1304347826086956
 40
0.1304347826086956
 40
0.1739130434782609
 40
0.1739130434782609
 40
0.1739130434782609
 40
0.1739130434782609
 40
0.2173913043478261
 40
0.2173913043478261
 40
0.2173913043478261
 40
0.2173913043478261
 40
0.2608695652173913
 40
0.2608695652173913
 40
0.2608695652173913
 40
0.2608695652173913
 40
0.3043478260869565
 40
0.3043478260869565
 40
0.3043478260869565
 40
0.3043478260869565
 40
0.3478260869565217
 40
0.3478260869565217
 40
0.3478260869565217
 40
0.3478260869565217
 40
0.391304347826087
 40
0.391304347826087
 40
0.391304347826087
 40
0.391304347826087
 40
0.4347826086956522
 40
0.4347826086956522
 40
0.4347826086956522
 40
0.4347826086956522
 40
0.4782608695652174
 40
0.4782608695652174
 40
0.4782608695652174
 40
0.4782608695652174
 40
0.5217391304347826
 40
0.5217391304347826
 40
0.5217391304347826
 40
0.5217391304347826
 40
0.5652173913043478
 40
0.5652173913043478
 40
0.5652173913043478
 40
0.5652173913043478
 40
0.6086956521739131
 40
0.6086956521739131
 40
0.6086956521739131
 40
0.6086956521739131
 40
0.6521739130434783
 40
0.6521739130434783
 40
0.6521739130434783
 40
0.6521739130434783
 40
0.6956521739130435
 40
0.6956521739130435
 40
0.6956521739130435
 40
0.6956521739130435
 40
0.7391304347826086
 40
0.7391304347826086
 40
0.7391304347826086
 40
0.7391304347826086
 40
0.782608695652174
 40
0.782608695652174
 40
0.782608695652174
 40
0.782608695652174
 40
0.8260869565217391
 40
0.8260869565217391
 40
0.8260869565217391
 40
0.8260869565217391
 40
0.8695652173913043
 40
0.8695652173913043
 40
0.8695652173913043
 40
0.8695652173913043
 40
0.9130434782608695
 40
0.9130434782608695
 40
0.9130434782608695
 40
0.9130434782608695
 40
1.0
 40
1.0
 40
1.0
 40
1.0
 10
6.9559
 20
20.8667
 30
0.0
 10
6.9559
 20
20.8667
 30
0.0
 10
7.2165
 20
20.8888
 30
0.0
 10
7.2165
 20
20.8888
 30
0.0
 10
7.2165
 20
20.8888
 30
0.0
 10
7.2358
 20
20.7618
 30
0.0
 10
7.2805
 20
20.6668
 30
0.0
 10
7.3506
 20
20.6028
 30
0.0
 10
7.3506
 20
20.6028
 30
0.0
 10
7.4211
 20
20.5388
 30
0.0
 10
7.5058
 20
20.5068
 30
0.0
 10
7.605
 20
20.5068
 30
0.0
 10
7.605
 20
20.5068
 30
0.0
 10
7.7245
 20
20.5068
 30
0.0
 10
7.8256
 20
20.552
 30
0.0
 10
7.9079
 20
20.6418
 30
0.0
 10
7.9079
 20
20.6418
 30
0.0
 10
7.9907
 20
20.7321
 30
0.0
 10
8.0321
 20
20.8516
 30
0.0
 10
8.0321
 20
21.0002
 30
0.0
 10
8.0321
 20
21.0002
 30
0.0
 10
8.0321
 20
21.1418
 30
0.0
 10
7.9926
 20
21.2533
 30
0.0
 10
7.9131
 20
21.3351
 30
0.0
 10
7.9131
 20
21.3351
 30
0.0
 10
7.8336
 20
21.417
 30
0.0
 10
7.7297
 20
21.4579
 30
0.0
 10
7.6008
 20
21.4579
 30
0.0
 10
7.6008
 20
21.4579
 30
0.0
 10
7.5208
 20
21.4579
 30
0.0
 10
7.4489
 20
21.4396
 30
0.0
 10
7.3844
 20
21.4034
 30
0.0
 10
7.3844
 20
21.4034
 30
0.0
 10
7.32
 20
21.3671
 30
0.0
 10
7.2697
 20
21.3201
 30
0.0
 10
7.233
 20
21.2622
 30
0.0
 10
7.233
 20
21.2622
 30
0.0
 10
7.233
 20
21.2622
 30
0.0
 10
7.0001
 20
21.2923
 30
0.0
 10
7.0001
 20
21.2923
 30
0.0
 10
7.0001
 20
21.2923
 30
0.0
 10
7.0001
 20
21.2923
 30
0.0
 10
7.1958
 20
22.33
 30
0.0
 10
7.1958
 20
22.33
 30
0.0
 10
7.1958
 20
22.33
 30
0.0
 10
7.1958
 20
22.33
 30
0.0
 10
8.2005
 20
22.33
 30
0.0
 10
8.2005
 20
22.33
 30
0.0
 10
8.2005
 20
22.33
 30
0.0
 10
8.2005
 20
22.33
 30
0.0
 10
8.2005
 20
22.0929
 30
0.0
 10
8.2005
 20
22.0929
 30
0.0
 10
8.2005
 20
22.0929
 30
0.0
 10
8.2005
 20
22.0929
 30
0.0
 10
7.3943
 20
22.0929
 30
0.0
 10
7.3943
 20
22.0929
 30
0.0
 10
7.3943
 20
22.0929
 30
0.0
 10
7.3943
 20
22.0929
 30
0.0
 10
7.2852
 20
21.5501
 30
0.0
 10
7.2852
 20
21.5501
 30
0.0
 10
7.2852
 20
21.5501
 30
0.0
 10
7.4065
 20
21.6348
 30
0.0
 10
7.534
 20
21.6771
 30
0.0
 10
7.6671
 20
21.6771
 30
0.0
 10
7.6671
 20
21.6771
 30
0.0
 10
7.8435
 20
21.6771
 30
0.0
 10
7.9921
 20
21.616
 30
0.0
 10
8.1135
 20
21.4937
 30
0.0
 10
8.1135
 20
21.4937
 30
0.0
 10
8.2348
 20
21.3714
 30
0.0
 10
8.2955
 20
21.2143
 30
0.0
 10
8.2955
 20
21.0224
 30
0.0
 10
8.2955
 20
21.0224
 30
0.0
 10
8.2955
 20
20.8394
 30
0.0
 10
8.2419
 20
20.6813
 30
0.0
 10
8.1356
 20
20.5482
 30
0.0
 10
8.1356
 20
20.5482
 30
0.0
 10
8.0058
 20
20.385
 30
0.0
 10
7.8289
 20
20.3032
 30
0.0
 10
7.605
 20
20.3032
 30
0.0
 10
7.605
 20
20.3032
 30
0.0
 10
7.4211
 20
20.3032
 30
0.0
 10
7.2711
 20
20.3544
 30
0.0
 10
7.1549
 20
20.4574
 30
0.0
 10
7.1549
 20
20.4574
 30
0.0
 10
7.0387
 20
20.5605
 30
0.0
 10
6.9724
 20
20.6969
 30
0.0
 10
6.9559
 20
20.8667
 30
0.0
  0
SPLINE
  5
59
330
1F
100
AcDbEntity
  8
DEFAULT_1
 62
   250
100
AcDbSpline
210
0.0
220
0.0
230
1.0
 70
    11
 71
     3
 72
    20
 73
    16
 74
     0
 42
0.0000000001
 43
0.0000000001
 40
0.0
 40
0.0
 40
0.0
 40
0.0
 40
0.2
 40
0.2
 40
0.2
 40
0.2
 40
0.4
 40
0.4
 40
0.4
 40
0.4
 40
0.6
 40
0.6
 40
0.6
 40
0.6
 40
1.0
 40
1.0
 40
1.0
 40
1.0
 10
15.339
 20
20.3876
 30
0.0
 10
15.339
 20
20.3876
 30
0.0
 10
18.464
 20
19.9466
 30
0.0
 10
18.464
 20
19.9466
 30
0.0
 10
18.464
 20
19.9466
 30
0.0
 10
18.464
 20
19.9466
 30
0.0
 10
18.464
 20
19.8486
 30
0.0
 10
18.464
 20
19.8486
 30
0.0
 10
18.464
 20
19.8486
 30
0.0
 10
18.464
 20
19.8486
 30
0.0
 10
15.339
 20
19.3783
 30
0.0
 10
15.339
 20
19.3783
 30
0.0
 10
15.339
 20
19.3783
 30
0.0
 10
15.339
 20
19.3783
 30
0.0
 10
15.339
 20
20.3876
 30
0.0
 10
15.339
 20
20.3876
 30
0.0
  0
SPLINE
  5
5A
330
1F
100
AcDbEntity
  8
DEFAULT_1
 62
   250
100
AcDbSpline
210
0.0
220
0.0
230
1.0
 70
    11
 71
     3
 72
    20
 73
    16
 74
     0
 42
0.0000000001
 43
0.0000000001
 40
0.0
 40
0.0
 40
0.0
 40
0.0
 40
0.2
 40
0.2
 40
0.2
 40
0.2
 40
0.4
 40
0.4
 40
0.4
 40
0.4
 40
0.6
 40
0.6
 40
0.6
 40
0.6
 40
1.0
 40
1.0
 40
1.0
 40
1.0
 10
-5.4507
 20
19.3982
 30
0.0
 10
-5.4507
 20
19.3982
 30
0.0
 10
-8.5758
 20
19.8392
 30
0.0
 10
-8.5758
 20
19.8392
 30
0.0
 10
-8.5758
 20
19.8392
 30
0.0
 10
-8.5758
 20
19.8392
 30
0.0
 10
-8.5758
 20
19.9372
 30
0.0
 10
-8.5758
 20
19.9372
 30
0.0
 10
-8.5758
 20
19.9372
 30
0.0
 10
-8.5758
 20
19.9372
 30
0.0
 10
-5.4507
 20
20.4075
 30
0.0
 10
-5.4507
 20
20.4075
 30
0.0
 10
-5.4507
 20
20.4075
 30
0.0
 10
-5.4507
 20
20.4075
 30
0.0
 10
-5.4507
 20
19.3982
 30
0.0
 10
-5.4507
 20
19.3982
 30
0.0
  0
SPLINE
  5
5B
330
1F
100
AcDbEntity
  8
DEFAULT_1
 62
   250
100
AcDbSpline
210
0.0
220
0.0
230
1.0
 70
    11
 71
     3
 72
   116
 73
   112
 74
     0
 42
0.0000000001
 43
0.0000000001
 40
0.0
 40
0.0
 40
0.0
 40
0.0
 40
0.0344827586206897
 40
0.0344827586206897
 40
0.0344827586206897
 40
0.0344827586206897
 40
0.0689655172413793
 40
0.0689655172413793
 40
0.0689655172413793
 40
0.0689655172413793
 40
0.103448275862069
 40
0.103448275862069
 40
0.103448275862069
 40
0.103448275862069
 40
0.1379310344827586
 40
0.1379310344827586
 40
0.1379310344827586
 40
0.1379310344827586
 40
0.1724137931034483
 40
0.1724137931034483
 40
0.1724137931034483
 40
0.1724137931034483
 40
0.2068965517241379
 40
0.2068965517241379
 40
0.2068965517241379
 40
0.2068965517241379
 40
0.2413793103448276
 40
0.2413793103448276
 40
0.2413793103448276
 40
0.2413793103448276
 40
0.2758620689655172
 40
0.2758620689655172
 40
0.2758620689655172
 40
0.2758620689655172
 40
0.3103448275862069
 40
0.3103448275862069
 40
0.3103448275862069
 40
0.3103448275862069
 40
0.3448275862068966
 40
0.3448275862068966
 40
0.3448275862068966
 40
0.3448275862068966
 40
0.3793103448275862
 40
0.3793103448275862
 40
0.3793103448275862
 40
0.3793103448275862
 40
0.4137931034482759
 40
0.4137931034482759
 40
0.4137931034482759
 40
0.4137931034482759
 40
0.4482758620689655
 40
0.4482758620689655
 40
0.4482758620689655
 40
0.4482758620689655
 40
0.4827586206896552
 40
0.4827586206896552
 40
0.4827586206896552
 40
0.4827586206896552
 40
0.5172413793103449
 40
0.5172413793103449
 40
0.5172413793103449
 40
0.5172413793103449
 40
0.5517241379310345
 40
0.5517241379310345
 40
0.5517241379310345
 40
0.5517241379310345
 40
0.5862068965517241
 40
0.5862068965517241
 40
0.5862068965517241
 40
0.5862068965517241
 40
0.6206896551724138
 40
0.6206896551724138
 40
0.6206896551724138
 40
0.6206896551724138
 40
0.6551724137931034
 40
0.6551724137931034
 40
0.6551724137931034
 40
0.6551724137931034
 40
0.6896551724137931
 40
0.6896551724137931
 40
0.6896551724137931
 40
0.6896551724137931
 40
0.7241379310344828
 40
0.7241379310344828
 40
0.7241379310344828
 40
0.7241379310344828
 40
0.7586206896551724
 40
0.7586206896551724
 40
0.7586206896551724
 40
0.7586206896551724
 40
0.7931034482758621
 40
0.7931034482758621
 40
0.7931034482758621
 40
0.7931034482758621
 40
0.8275862068965517
 40
0.8275862068965517
 40
0.8275862068965517
 40
0.8275862068965517
 40
0.8620689655172413
 40
0.8620689655172413
 40
0.8620689655172413
 40
0.8620689655172413
 40
0.896551724137931
 40
0.896551724137931
 40
0.896551724137931
 40
0.896551724137931
 40
0.9310344827586207
 40
0.9310344827586207
 40
0.9310344827586207
 40
0.9310344827586207
 40
1.0
 40
1.0
 40
1.0
 40
1.0
 10
-16.5517
 20
1.508
 30
0.0
 10
-16.5517
 20
1.508
 30
0.0
 10
-18.015
 20
1.508
 30
0.0
 10
-18.015
 20
1.508
 30
0.0
 10
-18.015
 20
1.508
 30
0.0
 10
-18.015
 20
1.508
 30
0.0
 10
-18.015
 20
1.7295
 30
0.0
 10
-18.015
 20
1.7295
 30
0.0
 10
-18.015
 20
1.7295
 30
0.0
 10
-18.015
 20
1.7295
 30
0.0
 10
-17.8099
 20
1.7295
 30
0.0
 10
-17.8099
 20
1.7295
 30
0.0
 10
-17.8099
 20
1.7295
 30
0.0
 10
-17.8814
 20
1.7756
 30
0.0
 10
-17.9393
 20
1.8368
 30
0.0
 10
-17.9826
 20
1.913
 30
0.0
 10
-17.9826
 20
1.913
 30
0.0
 10
-18.0263
 20
1.9892
 30
0.0
 10
-18.0484
 20
2.0762
 30
0.0
 10
-18.0484
 20
2.1735
 30
0.0
 10
-18.0484
 20
2.1735
 30
0.0
 10
-18.0484
 20
2.2817
 30
0.0
 10
-18.0258
 20
2.3706
 30
0.0
 10
-17.9807
 20
2.4398
 30
0.0
 10
-17.9807
 20
2.4398
 30
0.0
 10
-17.9355
 20
2.5094
 30
0.0
 10
-17.873
 20
2.5583
 30
0.0
 10
-17.7921
 20
2.5865
 30
0.0
 10
-17.7921
 20
2.5865
 30
0.0
 10
-17.9628
 20
2.7027
 30
0.0
 10
-18.0484
 20
2.8532
 30
0.0
 10
-18.0484
 20
3.0385
 30
0.0
 10
-18.0484
 20
3.0385
 30
0.0
 10
-18.0484
 20
3.1839
 30
0.0
 10
-18.008
 20
3.2954
 30
0.0
 10
-17.9275
 20
3.3734
 30
0.0
 10
-17.9275
 20
3.3734
 30
0.0
 10
-17.8471
 20
3.4515
 30
0.0
 10
-17.7234
 20
3.4906
 30
0.0
 10
-17.5564
 20
3.4906
 30
0.0
 10
-17.5564
 20
3.4906
 30
0.0
 10
-17.5564
 20
3.4906
 30
0.0
 10
-16.5517
 20
3.4906
 30
0.0
 10
-16.5517
 20
3.4906
 30
0.0
 10
-16.5517
 20
3.4906
 30
0.0
 10
-16.5517
 20
3.4906
 30
0.0
 10
-16.5517
 20
3.2441
 30
0.0
 10
-16.5517
 20
3.2441
 30
0.0
 10
-16.5517
 20
3.2441
 30
0.0
 10
-16.5517
 20
3.2441
 30
0.0
 10
-17.4736
 20
3.2441
 30
0.0
 10
-17.4736
 20
3.2441
 30
0.0
 10
-17.4736
 20
3.2441
 30
0.0
 10
-17.5729
 20
3.2441
 30
0.0
 10
-17.6444
 20
3.2361
 30
0.0
 10
-17.6881
 20
3.2201
 30
0.0
 10
-17.6881
 20
3.2201
 30
0.0
 10
-17.7314
 20
3.2036
 30
0.0
 10
-17.7667
 20
3.1745
 30
0.0
 10
-17.7935
 20
3.1326
 30
0.0
 10
-17.7935
 20
3.1326
 30
0.0
 10
-17.8198
 20
3.0903
 30
0.0
 10
-17.8334
 20
3.0404
 30
0.0
 10
-17.8334
 20
2.9835
 30
0.0
 10
-17.8334
 20
2.9835
 30
0.0
 10
-17.8334
 20
2.8805
 30
0.0
 10
-17.7991
 20
2.7954
 30
0.0
 10
-17.7304
 20
2.7272
 30
0.0
 10
-17.7304
 20
2.7272
 30
0.0
 10
-17.6622
 20
2.6594
 30
0.0
 10
-17.5526
 20
2.6251
 30
0.0
 10
-17.4021
 20
2.6251
 30
0.0
 10
-17.4021
 20
2.6251
 30
0.0
 10
-17.4021
 20
2.6251
 30
0.0
 10
-16.5517
 20
2.6251
 30
0.0
 10
-16.5517
 20
2.6251
 30
0.0
 10
-16.5517
 20
2.6251
 30
0.0
 10
-16.5517
 20
2.6251
 30
0.0
 10
-16.5517
 20
2.3772
 30
0.0
 10
-16.5517
 20
2.3772
 30
0.0
 10
-16.5517
 20
2.3772
 30
0.0
 10
-16.5517
 20
2.3772
 30
0.0
 10
-17.5023
 20
2.3772
 30
0.0
 10
-17.5023
 20
2.3772
 30
0.0
 10
-17.5023
 20
2.3772
 30
0.0
 10
-17.6128
 20
2.3772
 30
0.0
 10
-17.6956
 20
2.357
 30
0.0
 10
-17.7507
 20
2.3165
 30
0.0
 10
-17.7507
 20
2.3165
 30
0.0
 10
-17.8057
 20
2.2761
 30
0.0
 10
-17.8334
 20
2.2102
 30
0.0
 10
-17.8334
 20
2.118
 30
0.0
 10
-17.8334
 20
2.118
 30
0.0
 10
-17.8334
 20
2.0484
 30
0.0
 10
-17.8151
 20
1.984
 30
0.0
 10
-17.7779
 20
1.9247
 30
0.0
 10
-17.7779
 20
1.9247
 30
0.0
 10
-17.7413
 20
1.8654
 30
0.0
 10
-17.6876
 20
1.8222
 30
0.0
 10
-17.6171
 20
1.7958
 30
0.0
 10
-17.6171
 20
1.7958
 30
0.0
 10
-17.5461
 20
1.769
 30
0.0
 10
-17.444
 20
1.7558
 30
0.0
 10
-17.3109
 20
1.7558
 30
0.0
 10
-17.3109
 20
1.7558
 30
0.0
 10
-17.3109
 20
1.7558
 30
0.0
 10
-16.5517
 20
1.7558
 30
0.0
 10
-16.5517
 20
1.7558
 30
0.0
 10
-16.5517
 20
1.7558
 30
0.0
 10
-16.5517
 20
1.7558
 30
0.0
 10
-16.5517
 20
1.508
 30
0.0
 10
-16.5517
 20
1.508
 30
0.0
  0
SPLINE
  5
5C
330
1F
100
AcDbEntity
  8
DEFAULT_1
 62
   250
100
AcDbSpline
210
0.0
220
0.0
230
1.0
 70
    11
 71
     3
 72
   112
 73
   108
 74
     0
 42
0.0000000001
 43
0.0000000001
 40
0.0
 40
0.0
 40
0.0
 40
0.0
 40
0.0357142857142857
 40
0.0357142857142857
 40
0.0357142857142857
 40
0.0357142857142857
 40
0.0714285714285714
 40
0.0714285714285714
 40
0.0714285714285714
 40
0.0714285714285714
 40
0.1071428571428571
 40
0.1071428571428571
 40
0.1071428571428571
 40
0.1071428571428571
 40
0.1428571428571428
 40
0.1428571428571428
 40
0.1428571428571428
 40
0.1428571428571428
 40
0.1785714285714286
 40
0.1785714285714286
 40
0.1785714285714286
 40
0.1785714285714286
 40
0.2142857142857143
 40
0.2142857142857143
 40
0.2142857142857143
 40
0.2142857142857143
 40
0.25
 40
0.25
 40
0.25
 40
0.25
 40
0.2857142857142857
 40
0.2857142857142857
 40
0.2857142857142857
 40
0.2857142857142857
 40
0.3214285714285715
 40
0.3214285714285715
 40
0.3214285714285715
 40
0.3214285714285715
 40
0.3571428571428572
 40
0.3571428571428572
 40
0.3571428571428572
 40
0.3571428571428572
 40
0.3928571428571428
 40
0.3928571428571428
 40
0.3928571428571428
 40
0.3928571428571428
 40
0.4285714285714285
 40
0.4285714285714285
 40
0.4285714285714285
 40
0.4285714285714285
 40
0.4642857142857143
 40
0.4642857142857143
 40
0.4642857142857143
 40
0.4642857142857143
 40
0.5
 40
0.5
 40
0.5
 40
0.5
 40
0.5357142857142857
 40
0.5357142857142857
 40
0.5357142857142857
 40
0.5357142857142857
 40
0.5714285714285714
 40
0.5714285714285714
 40
0.5714285714285714
 40
0.5714285714285714
 40
0.6071428571428571
 40
0.6071428571428571
 40
0.6071428571428571
 40
0.6071428571428571
 40
0.6428571428571429
 40
0.6428571428571429
 40
0.6428571428571429
 40
0.6428571428571429
 40
0.6785714285714286
 40
0.6785714285714286
 40
0.6785714285714286
 40
0.6785714285714286
 40
0.7142857142857143
 40
0.7142857142857143
 40
0.7142857142857143
 40
0.7142857142857143
 40
0.75
 40
0.75
 40
0.75
 40
0.75
 40
0.7857142857142857
 40
0.7857142857142857
 40
0.7857142857142857
 40
0.7857142857142857
 40
0.8214285714285714
 40
0.8214285714285714
 40
0.8214285714285714
 40
0.8214285714285714
 40
0.8571428571428571
 40
0.8571428571428571
 40
0.8571428571428571
 40
0.8571428571428571
 40
0.8928571428571429
 40
0.8928571428571429
 40
0.8928571428571429
 40
0.8928571428571429
 40
0.9285714285714286
 40
0.9285714285714286
 40
0.9285714285714286
 40
0.9285714285714286
 40
1.0
 40
1.0
 40
1.0
 40
1.0
 10
-16.7323
 20
4.8137
 30
0.0
 10
-16.6542
 20
4.7215
 30
0.0
 10
-16.5992
 20
4.6331
 30
0.0
 10
-16.5668
 20
4.5484
 30
0.0
 10
-16.5668
 20
4.5484
 30
0.0
 10
-16.5348
 20
4.4633
 30
0.0
 10
-16.5188
 20
4.372
 30
0.0
 10
-16.5188
 20
4.2747
 30
0.0
 10
-16.5188
 20
4.2747
 30
0.0
 10
-16.5188
 20
4.1138
 30
0.0
 10
-16.5578
 20
3.9906
 30
0.0
 10
-16.6364
 20
3.904
 30
0.0
 10
-16.6364
 20
3.904
 30
0.0
 10
-16.7149
 20
3.8179
 30
0.0
 10
-16.8156
 20
3.7747
 30
0.0
 10
-16.9374
 20
3.7747
 30
0.0
 10
-16.9374
 20
3.7747
 30
0.0
 10
-17.0094
 20
3.7747
 30
0.0
 10
-17.0747
 20
3.7907
 30
0.0
 10
-17.134
 20
3.8236
 30
0.0
 10
-17.134
 20
3.8236
 30
0.0
 10
-17.1933
 20
3.856
 30
0.0
 10
-17.2408
 20
3.8988
 30
0.0
 10
-17.2765
 20
3.9515
 30
0.0
 10
-17.2765
 20
3.9515
 30
0.0
 10
-17.3123
 20
4.0047
 30
0.0
 10
-17.3396
 20
4.0639
 30
0.0
 10
-17.3579
 20
4.1303
 30
0.0
 10
-17.3579
 20
4.1303
 30
0.0
 10
-17.3706
 20
4.1787
 30
0.0
 10
-17.3833
 20
4.2521
 30
0.0
 10
-17.3951
 20
4.3504
 30
0.0
 10
-17.3951
 20
4.3504
 30
0.0
 10
-17.4191
 20
4.5508
 30
0.0
 10
-17.4473
 20
4.6985
 30
0.0
 10
-17.4807
 20
4.793
 30
0.0
 10
-17.4807
 20
4.793
 30
0.0
 10
-17.5145
 20
4.794
 30
0.0
 10
-17.5362
 20
4.7944
 30
0.0
 10
-17.5451
 20
4.7944
 30
0.0
 10
-17.5451
 20
4.7944
 30
0.0
 10
-17.6462
 20
4.7944
 30
0.0
 10
-17.7177
 20
4.7709
 30
0.0
 10
-17.7587
 20
4.7239
 30
0.0
 10
-17.7587
 20
4.7239
 30
0.0
 10
-17.8151
 20
4.6608
 30
0.0
 10
-17.8429
 20
4.5663
 30
0.0
 10
-17.8429
 20
4.4416
 30
0.0
 10
-17.8429
 20
4.4416
 30
0.0
 10
-17.8429
 20
4.325
 30
0.0
 10
-17.8226
 20
4.2389
 30
0.0
 10
-17.7817
 20
4.1829
 30
0.0
 10
-17.7817
 20
4.1829
 30
0.0
 10
-17.7408
 20
4.1274
 30
0.0
 10
-17.6684
 20
4.0865
 30
0.0
 10
-17.5644
 20
4.0597
 30
0.0
 10
-17.5644
 20
4.0597
 30
0.0
 10
-17.5644
 20
4.0597
 30
0.0
 10
-17.5978
 20
3.8175
 30
0.0
 10
-17.5978
 20
3.8175
 30
0.0
 10
-17.5978
 20
3.8175
 30
0.0
 10
-17.7013
 20
3.8396
 30
0.0
 10
-17.7855
 20
3.8758
 30
0.0
 10
-17.849
 20
3.9261
 30
0.0
 10
-17.849
 20
3.9261
 30
0.0
 10
-17.9129
 20
3.9765
 30
0.0
 10
-17.9623
 20
4.0498
 30
0.0
 10
-17.9967
 20
4.1453
 30
0.0
 10
-17.9967
 20
4.1453
 30
0.0
 10
-18.031
 20
4.2408
 30
0.0
 10
-18.0484
 20
4.3513
 30
0.0
 10
-18.0484
 20
4.4774
 30
0.0
 10
-18.0484
 20
4.4774
 30
0.0
 10
-18.0484
 20
4.6025
 30
0.0
 10
-18.0334
 20
4.7036
 30
0.0
 10
-18.0042
 20
4.7817
 30
0.0
 10
-18.0042
 20
4.7817
 30
0.0
 10
-17.9746
 20
4.8598
 30
0.0
 10
-17.9379
 20
4.9172
 30
0.0
 10
-17.8932
 20
4.9543
 30
0.0
 10
-17.8932
 20
4.9543
 30
0.0
 10
-17.8485
 20
4.991
 30
0.0
 10
-17.7925
 20
5.0164
 30
0.0
 10
-17.7243
 20
5.0315
 30
0.0
 10
-17.7243
 20
5.0315
 30
0.0
 10
-17.682
 20
5.0395
 30
0.0
 10
-17.6058
 20
5.0437
 30
0.0
 10
-17.4957
 20
5.0437
 30
0.0
 10
-17.4957
 20
5.0437
 30
0.0
 10
-17.4957
 20
5.0437
 30
0.0
 10
-17.1651
 20
5.0437
 30
0.0
 10
-17.1651
 20
5.0437
 30
0.0
 10
-17.1651
 20
5.0437
 30
0.0
 10
-16.9341
 20
5.0437
 30
0.0
 10
-16.7883
 20
5.0489
 30
0.0
 10
-16.7276
 20
5.0597
 30
0.0
 10
-16.7276
 20
5.0597
 30
0.0
 10
-16.6665
 20
5.0701
 30
0.0
 10
-16.6077
 20
5.0912
 30
0.0
 10
-16.5517
 20
5.1223
 30
0.0
 10
-16.5517
 20
5.1223
 30
0.0
 10
-16.5517
 20
5.1223
 30
0.0
 10
-16.5517
 20
4.8631
 30
0.0
 10
-16.5517
 20
4.8631
 30
0.0
 10
-16.5517
 20
4.8631
 30
0.0
 10
-16.603
 20
4.8377
 30
0.0
 10
-16.6632
 20
4.8208
 30
0.0
 10
-16.7323
 20
4.8137
 30
0.0
  0
SPLINE
  5
5D
330
1F
100
AcDbEntity
  8
DEFAULT_1
 62
   250
100
AcDbSpline
210
0.0
220
0.0
230
1.0
 70
    11
 71
     3
 72
    44
 73
    40
 74
     0
 42
0.0000000001
 43
0.0000000001
 40
0.0
 40
0.0
 40
0.0
 40
0.0
 40
0.0909090909090909
 40
0.0909090909090909
 40
0.0909090909090909
 40
0.0909090909090909
 40
0.1818181818181818
 40
0.1818181818181818
 40
0.1818181818181818
 40
0.1818181818181818
 40
0.2727272727272727
 40
0.2727272727272727
 40
0.2727272727272727
 40
0.2727272727272727
 40
0.3636363636363636
 40
0.3636363636363636
 40
0.3636363636363636
 40
0.3636363636363636
 40
0.4545454545454545
 40
0.4545454545454545
 40
0.4545454545454545
 40
0.4545454545454545
 40
0.5454545454545454
 40
0.5454545454545454
 40
0.5454545454545454
 40
0.5454545454545454
 40
0.6363636363636364
 40
0.6363636363636364
 40
0.6363636363636364
 40
0.6363636363636364
 40
0.7272727272727273
 40
0.7272727272727273
 40
0.7272727272727273
 40
0.7272727272727273
 40
0.8181818181818182
 40
0.8181818181818182
 40
0.8181818181818182
 40
0.8181818181818182
 40
1.0
 40
1.0
 40
1.0
 40
1.0
 10
-17.2864
 20
4.793
 30
0.0
 10
-17.2493
 20
4.7027
 30
0.0
 10
-17.2182
 20
4.5677
 30
0.0
 10
-17.1923
 20
4.388
 30
0.0
 10
-17.1923
 20
4.388
 30
0.0
 10
-17.1778
 20
4.286
 30
0.0
 10
-17.1613
 20
4.2135
 30
0.0
 10
-17.143
 20
4.1717
 30
0.0
 10
-17.143
 20
4.1717
 30
0.0
 10
-17.1246
 20
4.1293
 30
0.0
 10
-17.0978
 20
4.0964
 30
0.0
 10
-17.062
 20
4.0738
 30
0.0
 10
-17.062
 20
4.0738
 30
0.0
 10
-17.0268
 20
4.0508
 30
0.0
 10
-16.9877
 20
4.039
 30
0.0
 10
-16.9445
 20
4.039
 30
0.0
 10
-16.9445
 20
4.039
 30
0.0
 10
-16.8781
 20
4.039
 30
0.0
 10
-16.8231
 20
4.0644
 30
0.0
 10
-16.7789
 20
4.1143
 30
0.0
 10
-16.7789
 20
4.1143
 30
0.0
 10
-16.7351
 20
4.1641
 30
0.0
 10
-16.713
 20
4.2375
 30
0.0
 10
-16.713
 20
4.3339
 30
0.0
 10
-16.713
 20
4.3339
 30
0.0
 10
-16.713
 20
4.4294
 30
0.0
 10
-16.7337
 20
4.5146
 30
0.0
 10
-16.7756
 20
4.5889
 30
0.0
 10
-16.7756
 20
4.5889
 30
0.0
 10
-16.8175
 20
4.6632
 30
0.0
 10
-16.8748
 20
4.7182
 30
0.0
 10
-16.9473
 20
4.753
 30
0.0
 10
-16.9473
 20
4.753
 30
0.0
 10
-17.0033
 20
4.7798
 30
0.0
 10
-17.086
 20
4.793
 30
0.0
 10
-17.1952
 20
4.793
 30
0.0
 10
-17.1952
 20
4.793
 30
0.0
 10
-17.1952
 20
4.793
 30
0.0
 10
-17.2864
 20
4.793
 30
0.0
 10
-17.2864
 20
4.793
 30
0.0
  0
SPLINE
  5
5E
330
1F
100
AcDbEntity
  8
DEFAULT_1
 62
   250
100
AcDbSpline
210
0.0
220
0.0
230
1.0
 70
    11
 71
     3
 72
    64
 73
    60
 74
     0
 42
0.0000000001
 43
0.0000000001
 40
0.0
 40
0.0
 40
0.0
 40
0.0
 40
0.0625
 40
0.0625
 40
0.0625
 40
0.0625
 40
0.125
 40
0.125
 40
0.125
 40
0.125
 40
0.1875
 40
0.1875
 40
0.1875
 40
0.1875
 40
0.25
 40
0.25
 40
0.25
 40
0.25
 40
0.3125
 40
0.3125
 40
0.3125
 40
0.3125
 40
0.375
 40
0.375
 40
0.375
 40
0.375
 40
0.4375
 40
0.4375
 40
0.4375
 40
0.4375
 40
0.5
 40
0.5
 40
0.5
 40
0.5
 40
0.5625
 40
0.5625
 40
0.5625
 40
0.5625
 40
0.625
 40
0.625
 40
0.625
 40
0.625
 40
0.6875
 40
0.6875
 40
0.6875
 40
0.6875
 40
0.75
 40
0.75
 40
0.75
 40
0.75
 40
0.8125
 40
0.8125
 40
0.8125
 40
0.8125
 40
0.875
 40
0.875
 40
0.875
 40
0.875
 40
1.0
 40
1.0
 40
1.0
 40
1.0
 10
-16.5517
 20
5.2629
 30
0.0
 10
-16.5517
 20
5.2629
 30
0.0
 10
-17.3123
 20
5.7977
 30
0.0
 10
-17.3123
 20
5.7977
 30
0.0
 10
-17.3123
 20
5.7977
 30
0.0
 10
-17.3123
 20
5.7977
 30
0.0
 10
-18.015
 20
5.3029
 30
0.0
 10
-18.015
 20
5.3029
 30
0.0
 10
-18.015
 20
5.3029
 30
0.0
 10
-18.015
 20
5.3029
 30
0.0
 10
-18.015
 20
5.6128
 30
0.0
 10
-18.015
 20
5.6128
 30
0.0
 10
-18.015
 20
5.6128
 30
0.0
 10
-18.015
 20
5.6128
 30
0.0
 10
-17.6721
 20
5.8377
 30
0.0
 10
-17.6721
 20
5.8377
 30
0.0
 10
-17.6721
 20
5.8377
 30
0.0
 10
-17.6067
 20
5.8795
 30
0.0
 10
-17.5522
 20
5.9139
 30
0.0
 10
-17.508
 20
5.9393
 30
0.0
 10
-17.508
 20
5.9393
 30
0.0
 10
-17.5686
 20
5.9797
 30
0.0
 10
-17.6223
 20
6.0169
 30
0.0
 10
-17.6693
 20
6.0512
 30
0.0
 10
-17.6693
 20
6.0512
 30
0.0
 10
-17.6693
 20
6.0512
 30
0.0
 10
-18.015
 20
6.2977
 30
0.0
 10
-18.015
 20
6.2977
 30
0.0
 10
-18.015
 20
6.2977
 30
0.0
 10
-18.015
 20
6.2977
 30
0.0
 10
-18.015
 20
6.594
 30
0.0
 10
-18.015
 20
6.594
 30
0.0
 10
-18.015
 20
6.594
 30
0.0
 10
-18.015
 20
6.594
 30
0.0
 10
-17.3259
 20
6.0884
 30
0.0
 10
-17.3259
 20
6.0884
 30
0.0
 10
-17.3259
 20
6.0884
 30
0.0
 10
-17.3259
 20
6.0884
 30
0.0
 10
-16.5517
 20
6.6326
 30
0.0
 10
-16.5517
 20
6.6326
 30
0.0
 10
-16.5517
 20
6.6326
 30
0.0
 10
-16.5517
 20
6.6326
 30
0.0
 10
-16.5517
 20
6.3283
 30
0.0
 10
-16.5517
 20
6.3283
 30
0.0
 10
-16.5517
 20
6.3283
 30
0.0
 10
-16.5517
 20
6.3283
 30
0.0
 10
-17.0065
 20
6.0277
 30
0.0
 10
-17.0065
 20
6.0277
 30
0.0
 10
-17.0065
 20
6.0277
 30
0.0
 10
-17.0065
 20
6.0277
 30
0.0
 10
-17.1293
 20
5.9478
 30
0.0
 10
-17.1293
 20
5.9478
 30
0.0
 10
-17.1293
 20
5.9478
 30
0.0
 10
-17.1293
 20
5.9478
 30
0.0
 10
-16.5517
 20
5.5635
 30
0.0
 10
-16.5517
 20
5.5635
 30
0.0
 10
-16.5517
 20
5.5635
 30
0.0
 10
-16.5517
 20
5.5635
 30
0.0
 10
-16.5517
 20
5.2629
 30
0.0
 10
-16.5517
 20
5.2629
 30
0.0
  0
SPLINE
  5
5F
330
1F
100
AcDbEntity
  8
DEFAULT_1
 62
   250
100
AcDbSpline
210
0.0
220
0.0
230
1.0
 70
    11
 71
     3
 72
    68
 73
    64
 74
     0
 42
0.0000000001
 43
0.0000000001
 40
0.0
 40
0.0
 40
0.0
 40
0.0
 40
0.0588235294117647
 40
0.0588235294117647
 40
0.0588235294117647
 40
0.0588235294117647
 40
0.1176470588235294
 40
0.1176470588235294
 40
0.1176470588235294
 40
0.1176470588235294
 40
0.1764705882352941
 40
0.1764705882352941
 40
0.1764705882352941
 40
0.1764705882352941
 40
0.2352941176470588
 40
0.2352941176470588
 40
0.2352941176470588
 40
0.2352941176470588
 40
0.2941176470588235
 40
0.2941176470588235
 40
0.2941176470588235
 40
0.2941176470588235
 40
0.3529411764705883
 40
0.3529411764705883
 40
0.3529411764705883
 40
0.3529411764705883
 40
0.4117647058823529
 40
0.4117647058823529
 40
0.4117647058823529
 40
0.4117647058823529
 40
0.4705882352941176
 40
0.4705882352941176
 40
0.4705882352941176
 40
0.4705882352941176
 40
0.5294117647058824
 40
0.5294117647058824
 40
0.5294117647058824
 40
0.5294117647058824
 40
0.5882352941176471
 40
0.5882352941176471
 40
0.5882352941176471
 40
0.5882352941176471
 40
0.6470588235294118
 40
0.6470588235294118
 40
0.6470588235294118
 40
0.6470588235294118
 40
0.7058823529411765
 40
0.7058823529411765
 40
0.7058823529411765
 40
0.7058823529411765
 40
0.7647058823529411
 40
0.7647058823529411
 40
0.7647058823529411
 40
0.7647058823529411
 40
0.8235294117647058
 40
0.8235294117647058
 40
0.8235294117647058
 40
0.8235294117647058
 40
0.8823529411764706
 40
0.8823529411764706
 40
0.8823529411764706
 40
0.8823529411764706
 40
1.0
 40
1.0
 40
1.0
 40
1.0
 10
-17.6472
 20
7.9365
 30
0.0
 10
-17.6848
 20
7.8334
 30
0.0
 10
-17.7384
 20
7.7572
 30
0.0
 10
-17.8085
 20
7.7074
 30
0.0
 10
-17.8085
 20
7.7074
 30
0.0
 10
-17.8781
 20
7.658
 30
0.0
 10
-17.9619
 20
7.6331
 30
0.0
 10
-18.0592
 20
7.6331
 30
0.0
 10
-18.0592
 20
7.6331
 30
0.0
 10
-18.2064
 20
7.6331
 30
0.0
 10
-18.3297
 20
7.6858
 30
0.0
 10
-18.4299
 20
7.7916
 30
0.0
 10
-18.4299
 20
7.7916
 30
0.0
 10
-18.5301
 20
7.8974
 30
0.0
 10
-18.5804
 20
8.0376
 30
0.0
 10
-18.5804
 20
8.213
 30
0.0
 10
-18.5804
 20
8.213
 30
0.0
 10
-18.5804
 20
8.3894
 30
0.0
 10
-18.5291
 20
8.5315
 30
0.0
 10
-18.4266
 20
8.6392
 30
0.0
 10
-18.4266
 20
8.6392
 30
0.0
 10
-18.324
 20
8.7464
 30
0.0
 10
-18.1994
 20
8.8001
 30
0.0
 10
-18.0522
 20
8.8001
 30
0.0
 10
-18.0522
 20
8.8001
 30
0.0
 10
-17.9586
 20
8.8001
 30
0.0
 10
-17.8772
 20
8.7756
 30
0.0
 10
-17.8076
 20
8.7267
 30
0.0
 10
-17.8076
 20
8.7267
 30
0.0
 10
-17.7384
 20
8.6773
 30
0.0
 10
-17.6848
 20
8.603
 30
0.0
 10
-17.6472
 20
8.5028
 30
0.0
 10
-17.6472
 20
8.5028
 30
0.0
 10
-17.6067
 20
8.6265
 30
0.0
 10
-17.5418
 20
8.721
 30
0.0
 10
-17.4515
 20
8.7859
 30
0.0
 10
-17.4515
 20
8.7859
 30
0.0
 10
-17.3617
 20
8.8504
 30
0.0
 10
-17.254
 20
8.8828
 30
0.0
 10
-17.1293
 20
8.8828
 30
0.0
 10
-17.1293
 20
8.8828
 30
0.0
 10
-16.9562
 20
8.8828
 30
0.0
 10
-16.8113
 20
8.8217
 30
0.0
 10
-16.6938
 20
8.6999
 30
0.0
 10
-16.6938
 20
8.6999
 30
0.0
 10
-16.5762
 20
8.5776
 30
0.0
 10
-16.5174
 20
8.4167
 30
0.0
 10
-16.5174
 20
8.2173
 30
0.0
 10
-16.5174
 20
8.2173
 30
0.0
 10
-16.5174
 20
8.0178
 30
0.0
 10
-16.5762
 20
7.8574
 30
0.0
 10
-16.6942
 20
7.7351
 30
0.0
 10
-16.6942
 20
7.7351
 30
0.0
 10
-16.8123
 20
7.6128
 30
0.0
 10
-16.9595
 20
7.5517
 30
0.0
 10
-17.1359
 20
7.5517
 30
0.0
 10
-17.1359
 20
7.5517
 30
0.0
 10
-17.2671
 20
7.5517
 30
0.0
 10
-17.3772
 20
7.5851
 30
0.0
 10
-17.4661
 20
7.6519
 30
0.0
 10
-17.4661
 20
7.6519
 30
0.0
 10
-17.5545
 20
7.7182
 30
0.0
 10
-17.6152
 20
7.8132
 30
0.0
 10
-17.6472
 20
7.9365
 30
0.0
  0
SPLINE
  5
60
330
1F
100
AcDbEntity
  8
DEFAULT_1
 62
   250
100
AcDbSpline
210
0.0
220
0.0
230
1.0
 70
    11
 71
     3
 72
    36
 73
    32
 74
     0
 42
0.0000000001
 43
0.0000000001
 40
0.0
 40
0.0
 40
0.0
 40
0.0
 40
0.1111111111111111
 40
0.1111111111111111
 40
0.1111111111111111
 40
0.1111111111111111
 40
0.2222222222222222
 40
0.2222222222222222
 40
0.2222222222222222
 40
0.2222222222222222
 40
0.3333333333333333
 40
0.3333333333333333
 40
0.3333333333333333
 40
0.3333333333333333
 40
0.4444444444444444
 40
0.4444444444444444
 40
0.4444444444444444
 40
0.4444444444444444
 40
0.5555555555555556
 40
0.5555555555555556
 40
0.5555555555555556
 40
0.5555555555555556
 40
0.6666666666666666
 40
0.6666666666666666
 40
0.6666666666666666
 40
0.6666666666666666
 40
0.7777777777777778
 40
0.7777777777777778
 40
0.7777777777777778
 40
0.7777777777777778
 40
1.0
 40
1.0
 40
1.0
 40
1.0
 10
-18.0677
 20
7.8866
 30
0.0
 10
-17.9722
 20
7.8866
 30
0.0
 10
-17.8941
 20
7.9176
 30
0.0
 10
-17.8334
 20
7.9788
 30
0.0
 10
-17.8334
 20
7.9788
 30
0.0
 10
-17.7728
 20
8.0404
 30
0.0
 10
-17.7422
 20
8.1204
 30
0.0
 10
-17.7422
 20
8.2187
 30
0.0
 10
-17.7422
 20
8.2187
 30
0.0
 10
-17.7422
 20
8.3142
 30
0.0
 10
-17.7723
 20
8.3927
 30
0.0
 10
-17.8325
 20
8.4539
 30
0.0
 10
-17.8325
 20
8.4539
 30
0.0
 10
-17.8927
 20
8.515
 30
0.0
 10
-17.9666
 20
8.5451
 30
0.0
 10
-18.0536
 20
8.5451
 30
0.0
 10
-18.0536
 20
8.5451
 30
0.0
 10
-18.1448
 20
8.5451
 30
0.0
 10
-18.221
 20
8.5141
 30
0.0
 10
-18.2831
 20
8.451
 30
0.0
 10
-18.2831
 20
8.451
 30
0.0
 10
-18.3452
 20
8.388
 30
0.0
 10
-18.3763
 20
8.3099
 30
0.0
 10
-18.3763
 20
8.2159
 30
0.0
 10
-18.3763
 20
8.2159
 30
0.0
 10
-18.3763
 20
8.1213
 30
0.0
 10
-18.3457
 20
8.0428
 30
0.0
 10
-18.2855
 20
7.9802
 30
0.0
 10
-18.2855
 20
7.9802
 30
0.0
 10
-18.2248
 20
7.9176
 30
0.0
 10
-18.1519
 20
7.8866
 30
0.0
 10
-18.0677
 20
7.8866
 30
0.0
  0
SPLINE
  5
61
330
1F
100
AcDbEntity
  8
DEFAULT_1
 62
   250
100
AcDbSpline
210
0.0
220
0.0
230
1.0
 70
    11
 71
     3
 72
    40
 73
    36
 74
     0
 42
0.0000000001
 43
0.0000000001
 40
0.0
 40
0.0
 40
0.0
 40
0.0
 40
0.1
 40
0.1
 40
0.1
 40
0.1
 40
0.2
 40
0.2
 40
0.2
 40
0.2
 40
0.3
 40
0.3
 40
0.3
 40
0.3
 40
0.4
 40
0.4
 40
0.4
 40
0.4
 40
0.5
 40
0.5
 40
0.5
 40
0.5
 40
0.6
 40
0.6
 40
0.6
 40
0.6
 40
0.7
 40
0.7
 40
0.7
 40
0.7
 40
0.8
 40
0.8
 40
0.8
 40
0.8
 40
1.0
 40
1.0
 40
1.0
 40
1.0
 10
-17.1345
 20
7.8066
 30
0.0
 10
-17.0639
 20
7.8066
 30
0.0
 10
-16.9953
 20
7.8236
 30
0.0
 10
-16.9294
 20
7.857
 30
0.0
 10
-16.9294
 20
7.857
 30
0.0
 10
-16.8631
 20
7.8904
 30
0.0
 10
-16.8118
 20
7.9402
 30
0.0
 10
-16.7756
 20
8.0065
 30
0.0
 10
-16.7756
 20
8.0065
 30
0.0
 10
-16.7394
 20
8.0729
 30
0.0
 10
-16.721
 20
8.1439
 30
0.0
 10
-16.721
 20
8.2201
 30
0.0
 10
-16.721
 20
8.2201
 30
0.0
 10
-16.721
 20
8.3386
 30
0.0
 10
-16.7591
 20
8.4365
 30
0.0
 10
-16.8358
 20
8.5136
 30
0.0
 10
-16.8358
 20
8.5136
 30
0.0
 10
-16.912
 20
8.5907
 30
0.0
 10
-17.0089
 20
8.6293
 30
0.0
 10
-17.1265
 20
8.6293
 30
0.0
 10
-17.1265
 20
8.6293
 30
0.0
 10
-17.246
 20
8.6293
 30
0.0
 10
-17.3447
 20
8.5898
 30
0.0
 10
-17.4228
 20
8.5103
 30
0.0
 10
-17.4228
 20
8.5103
 30
0.0
 10
-17.5009
 20
8.4308
 30
0.0
 10
-17.5399
 20
8.3311
 30
0.0
 10
-17.5399
 20
8.2116
 30
0.0
 10
-17.5399
 20
8.2116
 30
0.0
 10
-17.5399
 20
8.095
 30
0.0
 10
-17.5014
 20
7.9985
 30
0.0
 10
-17.4242
 20
7.9219
 30
0.0
 10
-17.4242
 20
7.9219
 30
0.0
 10
-17.3466
 20
7.8452
 30
0.0
 10
-17.2502
 20
7.8066
 30
0.0
 10
-17.1345
 20
7.8066
 30
0.0
  0
SPLINE
  5
62
330
1F
100
AcDbEntity
  8
DEFAULT_1
 62
   250
100
AcDbSpline
210
0.0
220
0.0
230
1.0
 70
    11
 71
     3
 72
    20
 73
    16
 74
     0
 42
0.0000000001
 43
0.0000000001
 40
0.0
 40
0.0
 40
0.0
 40
0.0
 40
0.2
 40
0.2
 40
0.2
 40
0.2
 40
0.4
 40
0.4
 40
0.4
 40
0.4
 40
0.6
 40
0.6
 40
0.6
 40
0.6
 40
1.0
 40
1.0
 40
1.0
 40
1.0
 10
-15.8538
 20
-2.4383
 30
0.0
 10
-15.8538
 20
-2.4383
 30
0.0
 10
-15.4128
 20
0.6868
 30
0.0
 10
-15.4128
 20
0.6868
 30
0.0
 10
-15.4128
 20
0.6868
 30
0.0
 10
-15.4128
 20
0.6868
 30
0.0
 10
-15.3148
 20
0.6868
 30
0.0
 10
-15.3148
 20
0.6868
 30
0.0
 10
-15.3148
 20
0.6868
 30
0.0
 10
-15.3148
 20
0.6868
 30
0.0
 10
-14.8444
 20
-2.4383
 30
0.0
 10
-14.8444
 20
-2.4383
 30
0.0
 10
-14.8444
 20
-2.4383
 30
0.0
 10
-14.8444
 20
-2.4383
 30
0.0
 10
-15.8538
 20
-2.4383
 30
0.0
 10
-15.8538
 20
-2.4383
 30
0.0
  0
SPLINE
  5
63
330
1F
100
AcDbEntity
  8
DEFAULT_1
 62
   250
100
AcDbSpline
210
0.0
220
0.0
230
1.0
 70
    11
 71
     3
 72
    20
 73
    16
 74
     0
 42
0.0000000001
 43
0.0000000001
 40
0.0
 40
0.0
 40
0.0
 40
0.0
 40
0.2
 40
0.2
 40
0.2
 40
0.2
 40
0.4
 40
0.4
 40
0.4
 40
0.4
 40
0.6
 40
0.6
 40
0.6
 40
0.6
 40
1.0
 40
1.0
 40
1.0
 40
1.0
 10
-14.8844
 20
10.5794
 30
0.0
 10
-14.8844
 20
10.5794
 30
0.0
 10
-15.3254
 20
7.4544
 30
0.0
 10
-15.3254
 20
7.4544
 30
0.0
 10
-15.3254
 20
7.4544
 30
0.0
 10
-15.3254
 20
7.4544
 30
0.0
 10
-15.4234
 20
7.4544
 30
0.0
 10
-15.4234
 20
7.4544
 30
0.0
 10
-15.4234
 20
7.4544
 30
0.0
 10
-15.4234
 20
7.4544
 30
0.0
 10
-15.8937
 20
10.5794
 30
0.0
 10
-15.8937
 20
10.5794
 30
0.0
 10
-15.8937
 20
10.5794
 30
0.0
 10
-15.8937
 20
10.5794
 30
0.0
 10
-14.8844
 20
10.5794
 30
0.0
 10
-14.8844
 20
10.5794
 30
0.0
  0
SPLINE
  5
64
330
1F
100
AcDbEntity
  8
DEFAULT_1
 62
   250
100
AcDbSpline
210
0.0
220
0.0
230
1.0
 70
    11
 71
     3
 72
    84
 73
    80
 74
     0
 42
0.0000000001
 43
0.0000000001
 40
0.0
 40
0.0
 40
0.0
 40
0.0
 40
0.0476190476190476
 40
0.0476190476190476
 40
0.0476190476190476
 40
0.0476190476190476
 40
0.0952380952380952
 40
0.0952380952380952
 40
0.0952380952380952
 40
0.0952380952380952
 40
0.1428571428571428
 40
0.1428571428571428
 40
0.1428571428571428
 40
0.1428571428571428
 40
0.1904761904761905
 40
0.1904761904761905
 40
0.1904761904761905
 40
0.1904761904761905
 40
0.2380952380952381
 40
0.2380952380952381
 40
0.2380952380952381
 40
0.2380952380952381
 40
0.2857142857142857
 40
0.2857142857142857
 40
0.2857142857142857
 40
0.2857142857142857
 40
0.3333333333333333
 40
0.3333333333333333
 40
0.3333333333333333
 40
0.3333333333333333
 40
0.3809523809523809
 40
0.3809523809523809
 40
0.3809523809523809
 40
0.3809523809523809
 40
0.4285714285714285
 40
0.4285714285714285
 40
0.4285714285714285
 40
0.4285714285714285
 40
0.4761904761904762
 40
0.4761904761904762
 40
0.4761904761904762
 40
0.4761904761904762
 40
0.5238095238095238
 40
0.5238095238095238
 40
0.5238095238095238
 40
0.5238095238095238
 40
0.5714285714285714
 40
0.5714285714285714
 40
0.5714285714285714
 40
0.5714285714285714
 40
0.6190476190476191
 40
0.6190476190476191
 40
0.6190476190476191
 40
0.6190476190476191
 40
0.6666666666666666
 40
0.6666666666666666
 40
0.6666666666666666
 40
0.6666666666666666
 40
0.7142857142857143
 40
0.7142857142857143
 40
0.7142857142857143
 40
0.7142857142857143
 40
0.7619047619047619
 40
0.7619047619047619
 40
0.7619047619047619
 40
0.7619047619047619
 40
0.8095238095238095
 40
0.8095238095238095
 40
0.8095238095238095
 40
0.8095238095238095
 40
0.8571428571428571
 40
0.8571428571428571
 40
0.8571428571428571
 40
0.8571428571428571
 40
0.9047619047619048
 40
0.9047619047619048
 40
0.9047619047619048
 40
0.9047619047619048
 40
1.0
 40
1.0
 40
1.0
 40
1.0
 10
4.2951
 20
15.3426
 30
0.0
 10
4.2951
 20
15.3426
 30
0.0
 10
4.5265
 20
15.6017
 30
0.0
 10
4.5265
 20
15.6017
 30
0.0
 10
4.5265
 20
15.6017
 30
0.0
 10
4.5265
 20
15.6017
 30
0.0
 10
4.6629
 20
15.486
 30
0.0
 10
4.6629
 20
15.486
 30
0.0
 10
4.6629
 20
15.486
 30
0.0
 10
4.6629
 20
15.486
 30
0.0
 10
4.4207
 20
15.2132
 30
0.0
 10
4.4207
 20
15.2132
 30
0.0
 10
4.4207
 20
15.2132
 30
0.0
 10
4.4997
 20
15.0956
 30
0.0
 10
4.5528
 20
14.9926
 30
0.0
 10
4.5806
 20
14.9047
 30
0.0
 10
4.5806
 20
14.9047
 30
0.0
 10
4.6173
 20
14.7889
 30
0.0
 10
4.6356
 20
14.6591
 30
0.0
 10
4.6356
 20
14.5161
 30
0.0
 10
4.6356
 20
14.5161
 30
0.0
 10
4.6356
 20
14.3092
 30
0.0
 10
4.5938
 20
14.1248
 30
0.0
 10
4.51
 20
13.9635
 30
0.0
 10
4.51
 20
13.9635
 30
0.0
 10
4.4263
 20
13.8016
 30
0.0
 10
4.3092
 20
13.6794
 30
0.0
 10
4.1582
 20
13.5966
 30
0.0
 10
4.1582
 20
13.5966
 30
0.0
 10
4.0067
 20
13.5143
 30
0.0
 10
3.8464
 20
13.4729
 30
0.0
 10
3.6766
 20
13.4729
 30
0.0
 10
3.6766
 20
13.4729
 30
0.0
 10
3.5496
 20
13.4729
 30
0.0
 10
3.4348
 20
13.4907
 30
0.0
 10
3.3318
 20
13.5265
 30
0.0
 10
3.3318
 20
13.5265
 30
0.0
 10
3.2528
 20
13.5542
 30
0.0
 10
3.1606
 20
13.6069
 30
0.0
 10
3.0547
 20
13.685
 30
0.0
 10
3.0547
 20
13.685
 30
0.0
 10
3.0547
 20
13.685
 30
0.0
 10
2.8233
 20
13.4258
 30
0.0
 10
2.8233
 20
13.4258
 30
0.0
 10
2.8233
 20
13.4258
 30
0.0
 10
2.8233
 20
13.4258
 30
0.0
 10
2.6869
 20
13.5415
 30
0.0
 10
2.6869
 20
13.5415
 30
0.0
 10
2.6869
 20
13.5415
 30
0.0
 10
2.6869
 20
13.5415
 30
0.0
 10
2.9296
 20
13.8129
 30
0.0
 10
2.9296
 20
13.8129
 30
0.0
 10
2.9296
 20
13.8129
 30
0.0
 10
2.8393
 20
13.9498
 30
0.0
 10
2.7791
 20
14.0669
 30
0.0
 10
2.749
 20
14.1638
 30
0.0
 10
2.749
 20
14.1638
 30
0.0
 10
2.7189
 20
14.2607
 30
0.0
 10
2.7034
 20
14.3774
 30
0.0
 10
2.7034
 20
14.5133
 30
0.0
 10
2.7034
 20
14.5133
 30
0.0
 10
2.7034
 20
14.7207
 30
0.0
 10
2.7448
 20
14.9056
 30
0.0
 10
2.8275
 20
15.0679
 30
0.0
 10
2.8275
 20
15.0679
 30
0.0
 10
2.9103
 20
15.2302
 30
0.0
 10
3.026
 20
15.3529
 30
0.0
 10
3.1756
 20
15.4366
 30
0.0
 10
3.1756
 20
15.4366
 30
0.0
 10
3.3247
 20
15.5199
 30
0.0
 10
3.4908
 20
15.5618
 30
0.0
 10
3.6737
 20
15.5618
 30
0.0
 10
3.6737
 20
15.5618
 30
0.0
 10
3.797
 20
15.5618
 30
0.0
 10
3.9047
 20
15.5458
 30
0.0
 10
3.9969
 20
15.5128
 30
0.0
 10
3.9969
 20
15.5128
 30
0.0
 10
4.0891
 20
15.4804
 30
0.0
 10
4.1888
 20
15.4235
 30
0.0
 10
4.2951
 20
15.3426
 30
0.0
  0
SPLINE
  5
65
330
1F
100
AcDbEntity
  8
DEFAULT_1
 62
   250
100
AcDbSpline
210
0.0
220
0.0
230
1.0
 70
    11
 71
     3
 72
    32
 73
    28
 74
     0
 42
0.0000000001
 43
0.0000000001
 40
0.0
 40
0.0
 40
0.0
 40
0.0
 40
0.125
 40
0.125
 40
0.125
 40
0.125
 40
0.25
 40
0.25
 40
0.25
 40
0.25
 40
0.375
 40
0.375
 40
0.375
 40
0.375
 40
0.5
 40
0.5
 40
0.5
 40
0.5
 40
0.625
 40
0.625
 40
0.625
 40
0.625
 40
0.75
 40
0.75
 40
0.75
 40
0.75
 40
1.0
 40
1.0
 40
1.0
 40
1.0
 10
4.13
 20
15.1568
 30
0.0
 10
4.0434
 20
15.2245
 30
0.0
 10
3.9677
 20
15.2711
 30
0.0
 10
3.9033
 20
15.296
 30
0.0
 10
3.9033
 20
15.296
 30
0.0
 10
3.8384
 20
15.3205
 30
0.0
 10
3.7622
 20
15.3332
 30
0.0
 10
3.6751
 20
15.3332
 30
0.0
 10
3.6751
 20
15.3332
 30
0.0
 10
3.4738
 20
15.3332
 30
0.0
 10
3.3078
 20
15.265
 30
0.0
 10
3.1761
 20
15.1286
 30
0.0
 10
3.1761
 20
15.1286
 30
0.0
 10
3.0448
 20
14.9921
 30
0.0
 10
2.979
 20
14.7885
 30
0.0
 10
2.979
 20
14.5171
 30
0.0
 10
2.979
 20
14.5171
 30
0.0
 10
2.979
 20
14.4108
 30
0.0
 10
2.9893
 20
14.3162
 30
0.0
 10
3.0096
 20
14.2334
 30
0.0
 10
3.0096
 20
14.2334
 30
0.0
 10
3.0242
 20
14.1718
 30
0.0
 10
3.0547
 20
14.0961
 30
0.0
 10
3.1018
 20
14.0063
 30
0.0
 10
3.1018
 20
14.0063
 30
0.0
 10
3.1018
 20
14.0063
 30
0.0
 10
4.13
 20
15.1568
 30
0.0
 10
4.13
 20
15.1568
 30
0.0
  0
SPLINE
  5
66
330
1F
100
AcDbEntity
  8
DEFAULT_1
 62
   250
100
AcDbSpline
210
0.0
220
0.0
230
1.0
 70
    11
 71
     3
 72
    28
 73
    24
 74
     0
 42
0.0000000001
 43
0.0000000001
 40
0.0
 40
0.0
 40
0.0
 40
0.0
 40
0.1428571428571428
 40
0.1428571428571428
 40
0.1428571428571428
 40
0.1428571428571428
 40
0.2857142857142857
 40
0.2857142857142857
 40
0.2857142857142857
 40
0.2857142857142857
 40
0.4285714285714285
 40
0.4285714285714285
 40
0.4285714285714285
 40
0.4285714285714285
 40
0.5714285714285714
 40
0.5714285714285714
 40
0.5714285714285714
 40
0.5714285714285714
 40
0.7142857142857143
 40
0.7142857142857143
 40
0.7142857142857143
 40
0.7142857142857143
 40
1.0
 40
1.0
 40
1.0
 40
1.0
 10
4.2429
 20
15.0147
 30
0.0
 10
4.2429
 20
15.0147
 30
0.0
 10
3.2189
 20
13.8684
 30
0.0
 10
3.2189
 20
13.8684
 30
0.0
 10
3.2189
 20
13.8684
 30
0.0
 10
3.2894
 20
13.8106
 30
0.0
 10
3.3548
 20
13.7701
 30
0.0
 10
3.4146
 20
13.7471
 30
0.0
 10
3.4146
 20
13.7471
 30
0.0
 10
3.4926
 20
13.7165
 30
0.0
 10
3.5773
 20
13.7015
 30
0.0
 10
3.6681
 20
13.7015
 30
0.0
 10
3.6681
 20
13.7015
 30
0.0
 10
3.8685
 20
13.7015
 30
0.0
 10
4.0336
 20
13.772
 30
0.0
 10
4.1643
 20
13.9136
 30
0.0
 10
4.1643
 20
13.9136
 30
0.0
 10
4.2946
 20
14.0552
 30
0.0
 10
4.36
 20
14.2537
 30
0.0
 10
4.36
 20
14.5091
 30
0.0
 10
4.36
 20
14.5091
 30
0.0
 10
4.36
 20
14.7
 30
0.0
 10
4.321
 20
14.8689
 30
0.0
 10
4.2429
 20
15.0147
 30
0.0
  0
SPLINE
  5
67
330
1F
100
AcDbEntity
  8
DEFAULT_1
 62
   250
100
AcDbSpline
210
0.0
220
0.0
230
1.0
 70
    11
 71
     3
 72
    68
 73
    64
 74
     0
 42
0.0000000001
 43
0.0000000001
 40
0.0
 40
0.0
 40
0.0
 40
0.0
 40
0.0588235294117647
 40
0.0588235294117647
 40
0.0588235294117647
 40
0.0588235294117647
 40
0.1176470588235294
 40
0.1176470588235294
 40
0.1176470588235294
 40
0.1176470588235294
 40
0.1764705882352941
 40
0.1764705882352941
 40
0.1764705882352941
 40
0.1764705882352941
 40
0.2352941176470588
 40
0.2352941176470588
 40
0.2352941176470588
 40
0.2352941176470588
 40
0.2941176470588235
 40
0.2941176470588235
 40
0.2941176470588235
 40
0.2941176470588235
 40
0.3529411764705883
 40
0.3529411764705883
 40
0.3529411764705883
 40
0.3529411764705883
 40
0.4117647058823529
 40
0.4117647058823529
 40
0.4117647058823529
 40
0.4117647058823529
 40
0.4705882352941176
 40
0.4705882352941176
 40
0.4705882352941176
 40
0.4705882352941176
 40
0.5294117647058824
 40
0.5294117647058824
 40
0.5294117647058824
 40
0.5294117647058824
 40
0.5882352941176471
 40
0.5882352941176471
 40
0.5882352941176471
 40
0.5882352941176471
 40
0.6470588235294118
 40
0.6470588235294118
 40
0.6470588235294118
 40
0.6470588235294118
 40
0.7058823529411765
 40
0.7058823529411765
 40
0.7058823529411765
 40
0.7058823529411765
 40
0.7647058823529411
 40
0.7647058823529411
 40
0.7647058823529411
 40
0.7647058823529411
 40
0.8235294117647058
 40
0.8235294117647058
 40
0.8235294117647058
 40
0.8235294117647058
 40
0.8823529411764706
 40
0.8823529411764706
 40
0.8823529411764706
 40
0.8823529411764706
 40
1.0
 40
1.0
 40
1.0
 40
1.0
 10
5.2669
 20
14.6027
 30
0.0
 10
5.1638
 20
14.6403
 30
0.0
 10
5.0876
 20
14.6939
 30
0.0
 10
5.0378
 20
14.764
 30
0.0
 10
5.0378
 20
14.764
 30
0.0
 10
4.9884
 20
14.8336
 30
0.0
 10
4.9635
 20
14.9174
 30
0.0
 10
4.9635
 20
15.0147
 30
0.0
 10
4.9635
 20
15.0147
 30
0.0
 10
4.9635
 20
15.1619
 30
0.0
 10
5.0162
 20
15.2852
 30
0.0
 10
5.122
 20
15.3854
 30
0.0
 10
5.122
 20
15.3854
 30
0.0
 10
5.2278
 20
15.4856
 30
0.0
 10
5.368
 20
15.5359
 30
0.0
 10
5.5434
 20
15.5359
 30
0.0
 10
5.5434
 20
15.5359
 30
0.0
 10
5.7198
 20
15.5359
 30
0.0
 10
5.8619
 20
15.4846
 30
0.0
 10
5.9696
 20
15.3821
 30
0.0
 10
5.9696
 20
15.3821
 30
0.0
 10
6.0768
 20
15.2795
 30
0.0
 10
6.1305
 20
15.1549
 30
0.0
 10
6.1305
 20
15.0077
 30
0.0
 10
6.1305
 20
15.0077
 30
0.0
 10
6.1305
 20
14.9141
 30
0.0
 10
6.106
 20
14.8327
 30
0.0
 10
6.0571
 20
14.7631
 30
0.0
 10
6.0571
 20
14.7631
 30
0.0
 10
6.0077
 20
14.6939
 30
0.0
 10
5.9334
 20
14.6403
 30
0.0
 10
5.8332
 20
14.6027
 30
0.0
 10
5.8332
 20
14.6027
 30
0.0
 10
5.9569
 20
14.5622
 30
0.0
 10
6.0514
 20
14.4973
 30
0.0
 10
6.1163
 20
14.407
 30
0.0
 10
6.1163
 20
14.407
 30
0.0
 10
6.1808
 20
14.3172
 30
0.0
 10
6.2132
 20
14.2095
 30
0.0
 10
6.2132
 20
14.0848
 30
0.0
 10
6.2132
 20
14.0848
 30
0.0
 10
6.2132
 20
13.9117
 30
0.0
 10
6.1521
 20
13.7668
 30
0.0
 10
6.0303
 20
13.6493
 30
0.0
 10
6.0303
 20
13.6493
 30
0.0
 10
5.908
 20
13.5317
 30
0.0
 10
5.7471
 20
13.4729
 30
0.0
 10
5.5477
 20
13.4729
 30
0.0
 10
5.5477
 20
13.4729
 30
0.0
 10
5.3482
 20
13.4729
 30
0.0
 10
5.1878
 20
13.5317
 30
0.0
 10
5.0655
 20
13.6497
 30
0.0
 10
5.0655
 20
13.6497
 30
0.0
 10
4.9432
 20
13.7678
 30
0.0
 10
4.8821
 20
13.915
 30
0.0
 10
4.8821
 20
14.0914
 30
0.0
 10
4.8821
 20
14.0914
 30
0.0
 10
4.8821
 20
14.2226
 30
0.0
 10
4.9155
 20
14.3327
 30
0.0
 10
4.9823
 20
14.4216
 30
0.0
 10
4.9823
 20
14.4216
 30
0.0
 10
5.0486
 20
14.51
 30
0.0
 10
5.1436
 20
14.5707
 30
0.0
 10
5.2669
 20
14.6027
 30
0.0
  0
SPLINE
  5
68
330
1F
100
AcDbEntity
  8
DEFAULT_1
 62
   250
100
AcDbSpline
210
0.0
220
0.0
230
1.0
 70
    11
 71
     3
 72
    36
 73
    32
 74
     0
 42
0.0000000001
 43
0.0000000001
 40
0.0
 40
0.0
 40
0.0
 40
0.0
 40
0.1111111111111111
 40
0.1111111111111111
 40
0.1111111111111111
 40
0.1111111111111111
 40
0.2222222222222222
 40
0.2222222222222222
 40
0.2222222222222222
 40
0.2222222222222222
 40
0.3333333333333333
 40
0.3333333333333333
 40
0.3333333333333333
 40
0.3333333333333333
 40
0.4444444444444444
 40
0.4444444444444444
 40
0.4444444444444444
 40
0.4444444444444444
 40
0.5555555555555556
 40
0.5555555555555556
 40
0.5555555555555556
 40
0.5555555555555556
 40
0.6666666666666666
 40
0.6666666666666666
 40
0.6666666666666666
 40
0.6666666666666666
 40
0.7777777777777778
 40
0.7777777777777778
 40
0.7777777777777778
 40
0.7777777777777778
 40
1.0
 40
1.0
 40
1.0
 40
1.0
 10
5.217
 20
15.0232
 30
0.0
 10
5.217
 20
14.9277
 30
0.0
 10
5.248
 20
14.8496
 30
0.0
 10
5.3092
 20
14.7889
 30
0.0
 10
5.3092
 20
14.7889
 30
0.0
 10
5.3708
 20
14.7283
 30
0.0
 10
5.4508
 20
14.6977
 30
0.0
 10
5.5491
 20
14.6977
 30
0.0
 10
5.5491
 20
14.6977
 30
0.0
 10
5.6446
 20
14.6977
 30
0.0
 10
5.7231
 20
14.7278
 30
0.0
 10
5.7843
 20
14.788
 30
0.0
 10
5.7843
 20
14.788
 30
0.0
 10
5.8454
 20
14.8482
 30
0.0
 10
5.8755
 20
14.9221
 30
0.0
 10
5.8755
 20
15.0091
 30
0.0
 10
5.8755
 20
15.0091
 30
0.0
 10
5.8755
 20
15.1003
 30
0.0
 10
5.8445
 20
15.1765
 30
0.0
 10
5.7814
 20
15.2386
 30
0.0
 10
5.7814
 20
15.2386
 30
0.0
 10
5.7184
 20
15.3007
 30
0.0
 10
5.6403
 20
15.3318
 30
0.0
 10
5.5463
 20
15.3318
 30
0.0
 10
5.5463
 20
15.3318
 30
0.0
 10
5.4517
 20
15.3318
 30
0.0
 10
5.3732
 20
15.3012
 30
0.0
 10
5.3106
 20
15.241
 30
0.0
 10
5.3106
 20
15.241
 30
0.0
 10
5.248
 20
15.1803
 30
0.0
 10
5.217
 20
15.1074
 30
0.0
 10
5.217
 20
15.0232
 30
0.0
  0
SPLINE
  5
69
330
1F
100
AcDbEntity
  8
DEFAULT_1
 62
   250
100
AcDbSpline
210
0.0
220
0.0
230
1.0
 70
    11
 71
     3
 72
    40
 73
    36
 74
     0
 42
0.0000000001
 43
0.0000000001
 40
0.0
 40
0.0
 40
0.0
 40
0.0
 40
0.1
 40
0.1
 40
0.1
 40
0.1
 40
0.2
 40
0.2
 40
0.2
 40
0.2
 40
0.3
 40
0.3
 40
0.3
 40
0.3
 40
0.4
 40
0.4
 40
0.4
 40
0.4
 40
0.5
 40
0.5
 40
0.5
 40
0.5
 40
0.6
 40
0.6
 40
0.6
 40
0.6
 40
0.7
 40
0.7
 40
0.7
 40
0.7
 40
0.8
 40
0.8
 40
0.8
 40
0.8
 40
1.0
 40
1.0
 40
1.0
 40
1.0
 10
5.137
 20
14.09
 30
0.0
 10
5.137
 20
14.0194
 30
0.0
 10
5.154
 20
13.9508
 30
0.0
 10
5.1874
 20
13.8849
 30
0.0
 10
5.1874
 20
13.8849
 30
0.0
 10
5.2208
 20
13.8186
 30
0.0
 10
5.2706
 20
13.7673
 30
0.0
 10
5.3369
 20
13.7311
 30
0.0
 10
5.3369
 20
13.7311
 30
0.0
 10
5.4033
 20
13.6949
 30
0.0
 10
5.4743
 20
13.6765
 30
0.0
 10
5.5505
 20
13.6765
 30
0.0
 10
5.5505
 20
13.6765
 30
0.0
 10
5.669
 20
13.6765
 30
0.0
 10
5.7669
 20
13.7146
 30
0.0
 10
5.844
 20
13.7913
 30
0.0
 10
5.844
 20
13.7913
 30
0.0
 10
5.9211
 20
13.8675
 30
0.0
 10
5.9597
 20
13.9644
 30
0.0
 10
5.9597
 20
14.082
 30
0.0
 10
5.9597
 20
14.082
 30
0.0
 10
5.9597
 20
14.2015
 30
0.0
 10
5.9202
 20
14.3002
 30
0.0
 10
5.8407
 20
14.3783
 30
0.0
 10
5.8407
 20
14.3783
 30
0.0
 10
5.7612
 20
14.4564
 30
0.0
 10
5.6615
 20
14.4954
 30
0.0
 10
5.542
 20
14.4954
 30
0.0
 10
5.542
 20
14.4954
 30
0.0
 10
5.4254
 20
14.4954
 30
0.0
 10
5.3289
 20
14.4569
 30
0.0
 10
5.2523
 20
14.3797
 30
0.0
 10
5.2523
 20
14.3797
 30
0.0
 10
5.1756
 20
14.3021
 30
0.0
 10
5.137
 20
14.2057
 30
0.0
 10
5.137
 20
14.09
 30
0.0
  0
SPLINE
  5
6A
330
1F
100
AcDbEntity
  8
DEFAULT_1
 62
   250
100
AcDbSpline
210
0.0
220
0.0
230
1.0
 70
    11
 71
     3
 72
    48
 73
    44
 74
     0
 42
0.0000000001
 43
0.0000000001
 40
0.0
 40
0.0
 40
0.0
 40
0.0
 40
0.0833333333333333
 40
0.0833333333333333
 40
0.0833333333333333
 40
0.0833333333333333
 40
0.1666666666666667
 40
0.1666666666666667
 40
0.1666666666666667
 40
0.1666666666666667
 40
0.25
 40
0.25
 40
0.25
 40
0.25
 40
0.3333333333333333
 40
0.3333333333333333
 40
0.3333333333333333
 40
0.3333333333333333
 40
0.4166666666666667
 40
0.4166666666666667
 40
0.4166666666666667
 40
0.4166666666666667
 40
0.5
 40
0.5
 40
0.5
 40
0.5
 40
0.5833333333333334
 40
0.5833333333333334
 40
0.5833333333333334
 40
0.5833333333333334
 40
0.6666666666666666
 40
0.6666666666666666
 40
0.6666666666666666
 40
0.6666666666666666
 40
0.75
 40
0.75
 40
0.75
 40
0.75
 40
0.8333333333333334
 40
0.8333333333333334
 40
0.8333333333333334
 40
0.8333333333333334
 40
1.0
 40
1.0
 40
1.0
 40
1.0
 10
7.2494
 20
13.5072
 30
0.0
 10
7.2494
 20
13.5072
 30
0.0
 10
7.2494
 20
13.9907
 30
0.0
 10
7.2494
 20
13.9907
 30
0.0
 10
7.2494
 20
13.9907
 30
0.0
 10
7.2494
 20
13.9907
 30
0.0
 10
6.3731
 20
13.9907
 30
0.0
 10
6.3731
 20
13.9907
 30
0.0
 10
6.3731
 20
13.9907
 30
0.0
 10
6.3731
 20
13.9907
 30
0.0
 10
6.3731
 20
14.2184
 30
0.0
 10
6.3731
 20
14.2184
 30
0.0
 10
6.3731
 20
14.2184
 30
0.0
 10
6.3731
 20
14.2184
 30
0.0
 10
7.2951
 20
15.5274
 30
0.0
 10
7.2951
 20
15.5274
 30
0.0
 10
7.2951
 20
15.5274
 30
0.0
 10
7.2951
 20
15.5274
 30
0.0
 10
7.4978
 20
15.5274
 30
0.0
 10
7.4978
 20
15.5274
 30
0.0
 10
7.4978
 20
15.5274
 30
0.0
 10
7.4978
 20
15.5274
 30
0.0
 10
7.4978
 20
14.2184
 30
0.0
 10
7.4978
 20
14.2184
 30
0.0
 10
7.4978
 20
14.2184
 30
0.0
 10
7.4978
 20
14.2184
 30
0.0
 10
7.7706
 20
14.2184
 30
0.0
 10
7.7706
 20
14.2184
 30
0.0
 10
7.7706
 20
14.2184
 30
0.0
 10
7.7706
 20
14.2184
 30
0.0
 10
7.7706
 20
13.9907
 30
0.0
 10
7.7706
 20
13.9907
 30
0.0
 10
7.7706
 20
13.9907
 30
0.0
 10
7.7706
 20
13.9907
 30
0.0
 10
7.4978
 20
13.9907
 30
0.0
 10
7.4978
 20
13.9907
 30
0.0
 10
7.4978
 20
13.9907
 30
0.0
 10
7.4978
 20
13.9907
 30
0.0
 10
7.4978
 20
13.5072
 30
0.0
 10
7.4978
 20
13.5072
 30
0.0
 10
7.4978
 20
13.5072
 30
0.0
 10
7.4978
 20
13.5072
 30
0.0
 10
7.2494
 20
13.5072
 30
0.0
 10
7.2494
 20
13.5072
 30
0.0
  0
SPLINE
  5
6B
330
1F
100
AcDbEntity
  8
DEFAULT_1
 62
   250
100
AcDbSpline
210
0.0
220
0.0
230
1.0
 70
    11
 71
     3
 72
    16
 73
    12
 74
     0
 42
0.0000000001
 43
0.0000000001
 40
0.0
 40
0.0
 40
0.0
 40
0.0
 40
0.25
 40
0.25
 40
0.25
 40
0.25
 40
0.5
 40
0.5
 40
0.5
 40
0.5
 40
1.0
 40
1.0
 40
1.0
 40
1.0
 10
7.2494
 20
14.2184
 30
0.0
 10
7.2494
 20
14.2184
 30
0.0
 10
7.2494
 20
15.129
 30
0.0
 10
7.2494
 20
15.129
 30
0.0
 10
7.2494
 20
15.129
 30
0.0
 10
7.2494
 20
15.129
 30
0.0
 10
6.6173
 20
14.2184
 30
0.0
 10
6.6173
 20
14.2184
 30
0.0
 10
6.6173
 20
14.2184
 30
0.0
 10
6.6173
 20
14.2184
 30
0.0
 10
7.2494
 20
14.2184
 30
0.0
 10
7.2494
 20
14.2184
 30
0.0
  0
SPLINE
  5
6C
330
1F
100
AcDbEntity
  8
DEFAULT_1
 62
   250
100
AcDbSpline
210
0.0
220
0.0
230
1.0
 70
    11
 71
     3
 72
    20
 73
    16
 74
     0
 42
0.0000000001
 43
0.0000000001
 40
0.0
 40
0.0
 40
0.0
 40
0.0
 40
0.2
 40
0.2
 40
0.2
 40
0.2
 40
0.4
 40
0.4
 40
0.4
 40
0.4
 40
0.6
 40
0.6
 40
0.6
 40
0.6
 40
1.0
 40
1.0
 40
1.0
 40
1.0
 10
11.6916
 20
13.4995
 30
0.0
 10
11.6916
 20
13.4995
 30
0.0
 10
14.8167
 20
13.0585
 30
0.0
 10
14.8167
 20
13.0585
 30
0.0
 10
14.8167
 20
13.0585
 30
0.0
 10
14.8167
 20
13.0585
 30
0.0
 10
14.8167
 20
12.9605
 30
0.0
 10
14.8167
 20
12.9605
 30
0.0
 10
14.8167
 20
12.9605
 30
0.0
 10
14.8167
 20
12.9605
 30
0.0
 10
11.6916
 20
12.4902
 30
0.0
 10
11.6916
 20
12.4902
 30
0.0
 10
11.6916
 20
12.4902
 30
0.0
 10
11.6916
 20
12.4902
 30
0.0
 10
11.6916
 20
13.4995
 30
0.0
 10
11.6916
 20
13.4995
 30
0.0
  0
SPLINE
  5
6D
330
1F
100
AcDbEntity
  8
DEFAULT_1
 62
   250
100
AcDbSpline
210
0.0
220
0.0
230
1.0
 70
    11
 71
     3
 72
    20
 73
    16
 74
     0
 42
0.0000000001
 43
0.0000000001
 40
0.0
 40
0.0
 40
0.0
 40
0.0
 40
0.2
 40
0.2
 40
0.2
 40
0.2
 40
0.4
 40
0.4
 40
0.4
 40
0.4
 40
0.6
 40
0.6
 40
0.6
 40
0.6
 40
1.0
 40
1.0
 40
1.0
 40
1.0
 10
-1.7697
 20
12.433
 30
0.0
 10
-1.7697
 20
12.433
 30
0.0
 10
-4.8948
 20
12.8741
 30
0.0
 10
-4.8948
 20
12.8741
 30
0.0
 10
-4.8948
 20
12.8741
 30
0.0
 10
-4.8948
 20
12.8741
 30
0.0
 10
-4.8948
 20
12.972
 30
0.0
 10
-4.8948
 20
12.972
 30
0.0
 10
-4.8948
 20
12.972
 30
0.0
 10
-4.8948
 20
12.972
 30
0.0
 10
-1.7697
 20
13.4424
 30
0.0
 10
-1.7697
 20
13.4424
 30
0.0
 10
-1.7697
 20
13.4424
 30
0.0
 10
-1.7697
 20
13.4424
 30
0.0
 10
-1.7697
 20
12.433
 30
0.0
 10
-1.7697
 20
12.433
 30
0.0
  0
SPLINE
  5
6E
330
1F
100
AcDbEntity
  8
DEFAULT_1
 62
   250
100
AcDbSpline
210
0.0
220
0.0
230
1.0
 70
    11
 71
     3
 72
   120
 73
   116
 74
     0
 42
0.0000000001
 43
0.0000000001
 40
0.0
 40
0.0
 40
0.0
 40
0.0
 40
0.0333333333333333
 40
0.0333333333333333
 40
0.0333333333333333
 40
0.0333333333333333
 40
0.0666666666666667
 40
0.0666666666666667
 40
0.0666666666666667
 40
0.0666666666666667
 40
0.1
 40
0.1
 40
0.1
 40
0.1
 40
0.1333333333333333
 40
0.1333333333333333
 40
0.1333333333333333
 40
0.1333333333333333
 40
0.1666666666666667
 40
0.1666666666666667
 40
0.1666666666666667
 40
0.1666666666666667
 40
0.2
 40
0.2
 40
0.2
 40
0.2
 40
0.2333333333333333
 40
0.2333333333333333
 40
0.2333333333333333
 40
0.2333333333333333
 40
0.2666666666666667
 40
0.2666666666666667
 40
0.2666666666666667
 40
0.2666666666666667
 40
0.3
 40
0.3
 40
0.3
 40
0.3
 40
0.3333333333333333
 40
0.3333333333333333
 40
0.3333333333333333
 40
0.3333333333333333
 40
0.3666666666666666
 40
0.3666666666666666
 40
0.3666666666666666
 40
0.3666666666666666
 40
0.4
 40
0.4
 40
0.4
 40
0.4
 40
0.4333333333333333
 40
0.4333333333333333
 40
0.4333333333333333
 40
0.4333333333333333
 40
0.4666666666666667
 40
0.4666666666666667
 40
0.4666666666666667
 40
0.4666666666666667
 40
0.5
 40
0.5
 40
0.5
 40
0.5
 40
0.5333333333333333
 40
0.5333333333333333
 40
0.5333333333333333
 40
0.5333333333333333
 40
0.5666666666666667
 40
0.5666666666666667
 40
0.5666666666666667
 40
0.5666666666666667
 40
0.6
 40
0.6
 40
0.6
 40
0.6
 40
0.6333333333333333
 40
0.6333333333333333
 40
0.6333333333333333
 40
0.6333333333333333
 40
0.6666666666666666
 40
0.6666666666666666
 40
0.6666666666666666
 40
0.6666666666666666
 40
0.7
 40
0.7
 40
0.7
 40
0.7
 40
0.7333333333333333
 40
0.7333333333333333
 40
0.7333333333333333
 40
0.7333333333333333
 40
0.7666666666666667
 40
0.7666666666666667
 40
0.7666666666666667
 40
0.7666666666666667
 40
0.8
 40
0.8
 40
0.8
 40
0.8
 40
0.8333333333333334
 40
0.8333333333333334
 40
0.8333333333333334
 40
0.8333333333333334
 40
0.8666666666666667
 40
0.8666666666666667
 40
0.8666666666666667
 40
0.8666666666666667
 40
0.9
 40
0.9
 40
0.9
 40
0.9
 40
0.9333333333333333
 40
0.9333333333333333
 40
0.9333333333333333
 40
0.9333333333333333
 40
1.0
 40
1.0
 40
1.0
 40
1.0
 10
2.9236
 20
-16.7202
 30
0.0
 10
2.9236
 20
-16.7202
 30
0.0
 10
2.9236
 20
-16.4836
 30
0.0
 10
2.9236
 20
-16.4836
 30
0.0
 10
2.9236
 20
-16.4836
 30
0.0
 10
2.9236
 20
-16.4836
 30
0.0
 10
3.7792
 20
-16.4822
 30
0.0
 10
3.7792
 20
-16.4822
 30
0.0
 10
3.7792
 20
-16.4822
 30
0.0
 10
3.7792
 20
-16.4822
 30
0.0
 10
3.7792
 20
-17.2315
 30
0.0
 10
3.7792
 20
-17.2315
 30
0.0
 10
3.7792
 20
-17.2315
 30
0.0
 10
3.648
 20
-17.3364
 30
0.0
 10
3.5125
 20
-17.415
 30
0.0
 10
3.3728
 20
-17.4681
 30
0.0
 10
3.3728
 20
-17.4681
 30
0.0
 10
3.2331
 20
-17.5208
 30
0.0
 10
3.0897
 20
-17.5471
 30
0.0
 10
2.9429
 20
-17.5471
 30
0.0
 10
2.9429
 20
-17.5471
 30
0.0
 10
2.7444
 20
-17.5471
 30
0.0
 10
2.5638
 20
-17.5048
 30
0.0
 10
2.402
 20
-17.4197
 30
0.0
 10
2.402
 20
-17.4197
 30
0.0
 10
2.2397
 20
-17.335
 30
0.0
 10
2.1174
 20
-17.2118
 30
0.0
 10
2.0346
 20
-17.0514
 30
0.0
 10
2.0346
 20
-17.0514
 30
0.0
 10
1.9518
 20
-16.8905
 30
0.0
 10
1.9104
 20
-16.7108
 30
0.0
 10
1.9104
 20
-16.5123
 30
0.0
 10
1.9104
 20
-16.5123
 30
0.0
 10
1.9104
 20
-16.3157
 30
0.0
 10
1.9518
 20
-16.1323
 30
0.0
 10
2.0342
 20
-15.962
 30
0.0
 10
2.0342
 20
-15.962
 30
0.0
 10
2.116
 20
-15.7913
 30
0.0
 10
2.2345
 20
-15.6647
 30
0.0
 10
2.3888
 20
-15.5819
 30
0.0
 10
2.3888
 20
-15.5819
 30
0.0
 10
2.5431
 20
-15.4996
 30
0.0
 10
2.7209
 20
-15.4582
 30
0.0
 10
2.9222
 20
-15.4582
 30
0.0
 10
2.9222
 20
-15.4582
 30
0.0
 10
3.068
 20
-15.4582
 30
0.0
 10
3.2002
 20
-15.4818
 30
0.0
 10
3.3183
 20
-15.5293
 30
0.0
 10
3.3183
 20
-15.5293
 30
0.0
 10
3.4363
 20
-15.5763
 30
0.0
 10
3.529
 20
-15.6422
 30
0.0
 10
3.5958
 20
-15.7268
 30
0.0
 10
3.5958
 20
-15.7268
 30
0.0
 10
3.663
 20
-15.8115
 30
0.0
 10
3.7138
 20
-15.9215
 30
0.0
 10
3.7491
 20
-16.0575
 30
0.0
 10
3.7491
 20
-16.0575
 30
0.0
 10
3.7491
 20
-16.0575
 30
0.0
 10
3.5078
 20
-16.1238
 30
0.0
 10
3.5078
 20
-16.1238
 30
0.0
 10
3.5078
 20
-16.1238
 30
0.0
 10
3.4772
 20
-16.0208
 30
0.0
 10
3.4396
 20
-15.9399
 30
0.0
 10
3.3949
 20
-15.8811
 30
0.0
 10
3.3949
 20
-15.8811
 30
0.0
 10
3.3498
 20
-15.8223
 30
0.0
 10
3.2853
 20
-15.7753
 30
0.0
 10
3.2016
 20
-15.74
 30
0.0
 10
3.2016
 20
-15.74
 30
0.0
 10
3.1183
 20
-15.7047
 30
0.0
 10
3.0252
 20
-15.6868
 30
0.0
 10
2.9236
 20
-15.6868
 30
0.0
 10
2.9236
 20
-15.6868
 30
0.0
 10
2.8013
 20
-15.6868
 30
0.0
 10
2.6955
 20
-15.7057
 30
0.0
 10
2.6066
 20
-15.7428
 30
0.0
 10
2.6066
 20
-15.7428
 30
0.0
 10
2.5172
 20
-15.78
 30
0.0
 10
2.4457
 20
-15.8289
 30
0.0
 10
2.3907
 20
-15.8896
 30
0.0
 10
2.3907
 20
-15.8896
 30
0.0
 10
2.3361
 20
-15.9502
 30
0.0
 10
2.2938
 20
-16.0166
 30
0.0
 10
2.2632
 20
-16.0895
 30
0.0
 10
2.2632
 20
-16.0895
 30
0.0
 10
2.212
 20
-16.2141
 30
0.0
 10
2.1861
 20
-16.3496
 30
0.0
 10
2.1861
 20
-16.4959
 30
0.0
 10
2.1861
 20
-16.4959
 30
0.0
 10
2.1861
 20
-16.676
 30
0.0
 10
2.2171
 20
-16.8265
 30
0.0
 10
2.2792
 20
-16.9479
 30
0.0
 10
2.2792
 20
-16.9479
 30
0.0
 10
2.3413
 20
-17.0692
 30
0.0
 10
2.4316
 20
-17.1591
 30
0.0
 10
2.5501
 20
-17.2179
 30
0.0
 10
2.5501
 20
-17.2179
 30
0.0
 10
2.6687
 20
-17.2767
 30
0.0
 10
2.7943
 20
-17.3063
 30
0.0
 10
2.9274
 20
-17.3063
 30
0.0
 10
2.9274
 20
-17.3063
 30
0.0
 10
3.0436
 20
-17.3063
 30
0.0
 10
3.1564
 20
-17.2837
 30
0.0
 10
3.2665
 20
-17.239
 30
0.0
 10
3.2665
 20
-17.239
 30
0.0
 10
3.3771
 20
-17.1948
 30
0.0
 10
3.4603
 20
-17.1473
 30
0.0
 10
3.5172
 20
-17.0965
 30
0.0
 10
3.5172
 20
-17.0965
 30
0.0
 10
3.5172
 20
-17.0965
 30
0.0
 10
3.5172
 20
-16.7202
 30
0.0
 10
3.5172
 20
-16.7202
 30
0.0
 10
3.5172
 20
-16.7202
 30
0.0
 10
3.5172
 20
-16.7202
 30
0.0
 10
2.9236
 20
-16.7202
 30
0.0
 10
2.9236
 20
-16.7202
 30
0.0
  0
SPLINE
  5
6F
330
1F
100
AcDbEntity
  8
DEFAULT_1
 62
   250
100
AcDbSpline
210
0.0
220
0.0
230
1.0
 70
    11
 71
     3
 72
    80
 73
    76
 74
     0
 42
0.0000000001
 43
0.0000000001
 40
0.0
 40
0.0
 40
0.0
 40
0.0
 40
0.05
 40
0.05
 40
0.05
 40
0.05
 40
0.1
 40
0.1
 40
0.1
 40
0.1
 40
0.15
 40
0.15
 40
0.15
 40
0.15
 40
0.2
 40
0.2
 40
0.2
 40
0.2
 40
0.25
 40
0.25
 40
0.25
 40
0.25
 40
0.3
 40
0.3
 40
0.3
 40
0.3
 40
0.35
 40
0.35
 40
0.35
 40
0.35
 40
0.4
 40
0.4
 40
0.4
 40
0.4
 40
0.45
 40
0.45
 40
0.45
 40
0.45
 40
0.5
 40
0.5
 40
0.5
 40
0.5
 40
0.55
 40
0.55
 40
0.55
 40
0.55
 40
0.6
 40
0.6
 40
0.6
 40
0.6
 40
0.65
 40
0.65
 40
0.65
 40
0.65
 40
0.7
 40
0.7
 40
0.7
 40
0.7
 40
0.75
 40
0.75
 40
0.75
 40
0.75
 40
0.8
 40
0.8
 40
0.8
 40
0.8
 40
0.85
 40
0.85
 40
0.85
 40
0.85
 40
0.9
 40
0.9
 40
0.9
 40
0.9
 40
1.0
 40
1.0
 40
1.0
 40
1.0
 10
6.1437
 20
-15.9874
 30
0.0
 10
6.1437
 20
-15.9874
 30
0.0
 10
5.8973
 20
-16.0067
 30
0.0
 10
5.8973
 20
-16.0067
 30
0.0
 10
5.8973
 20
-16.0067
 30
0.0
 10
5.8752
 20
-15.9093
 30
0.0
 10
5.8441
 20
-15.8383
 30
0.0
 10
5.8037
 20
-15.7946
 30
0.0
 10
5.8037
 20
-15.7946
 30
0.0
 10
5.7364
 20
-15.7235
 30
0.0
 10
5.6536
 20
-15.6882
 30
0.0
 10
5.5553
 20
-15.6882
 30
0.0
 10
5.5553
 20
-15.6882
 30
0.0
 10
5.4763
 20
-15.6882
 30
0.0
 10
5.4072
 20
-15.7104
 30
0.0
 10
5.3474
 20
-15.7546
 30
0.0
 10
5.3474
 20
-15.7546
 30
0.0
 10
5.2693
 20
-15.8115
 30
0.0
 10
5.2077
 20
-15.8947
 30
0.0
 10
5.1626
 20
-16.0039
 30
0.0
 10
5.1626
 20
-16.0039
 30
0.0
 10
5.1179
 20
-16.113
 30
0.0
 10
5.0944
 20
-16.2687
 30
0.0
 10
5.0925
 20
-16.4709
 30
0.0
 10
5.0925
 20
-16.4709
 30
0.0
 10
5.1522
 20
-16.3802
 30
0.0
 10
5.2251
 20
-16.3124
 30
0.0
 10
5.3117
 20
-16.2682
 30
0.0
 10
5.3117
 20
-16.2682
 30
0.0
 10
5.3977
 20
-16.2245
 30
0.0
 10
5.4885
 20
-16.2024
 30
0.0
 10
5.5831
 20
-16.2024
 30
0.0
 10
5.5831
 20
-16.2024
 30
0.0
 10
5.7486
 20
-16.2024
 30
0.0
 10
5.8893
 20
-16.263
 30
0.0
 10
6.0055
 20
-16.3849
 30
0.0
 10
6.0055
 20
-16.3849
 30
0.0
 10
6.1216
 20
-16.5067
 30
0.0
 10
6.18
 20
-16.6638
 30
0.0
 10
6.18
 20
-16.8566
 30
0.0
 10
6.18
 20
-16.8566
 30
0.0
 10
6.18
 20
-16.9836
 30
0.0
 10
6.1522
 20
-17.1012
 30
0.0
 10
6.0976
 20
-17.2104
 30
0.0
 10
6.0976
 20
-17.2104
 30
0.0
 10
6.0431
 20
-17.319
 30
0.0
 10
5.9678
 20
-17.4027
 30
0.0
 10
5.8723
 20
-17.4606
 30
0.0
 10
5.8723
 20
-17.4606
 30
0.0
 10
5.7769
 20
-17.5184
 30
0.0
 10
5.6687
 20
-17.5471
 30
0.0
 10
5.5473
 20
-17.5471
 30
0.0
 10
5.5473
 20
-17.5471
 30
0.0
 10
5.3404
 20
-17.5471
 30
0.0
 10
5.172
 20
-17.4714
 30
0.0
 10
5.0417
 20
-17.319
 30
0.0
 10
5.0417
 20
-17.319
 30
0.0
 10
4.9109
 20
-17.1671
 30
0.0
 10
4.846
 20
-16.9164
 30
0.0
 10
4.846
 20
-16.5674
 30
0.0
 10
4.846
 20
-16.5674
 30
0.0
 10
4.846
 20
-16.177
 30
0.0
 10
4.918
 20
-15.8933
 30
0.0
 10
5.0624
 20
-15.716
 30
0.0
 10
5.0624
 20
-15.716
 30
0.0
 10
5.188
 20
-15.5617
 30
0.0
 10
5.3573
 20
-15.4841
 30
0.0
 10
5.5708
 20
-15.4841
 30
0.0
 10
5.5708
 20
-15.4841
 30
0.0
 10
5.7294
 20
-15.4841
 30
0.0
 10
5.8596
 20
-15.5288
 30
0.0
 10
5.9612
 20
-15.6182
 30
0.0
 10
5.9612
 20
-15.6182
 30
0.0
 10
6.0628
 20
-15.7071
 30
0.0
 10
6.1235
 20
-15.8303
 30
0.0
 10
6.1437
 20
-15.9874
 30
0.0
  0
SPLINE
  5
70
330
1F
100
AcDbEntity
  8
DEFAULT_1
 62
   250
100
AcDbSpline
210
0.0
220
0.0
230
1.0
 70
    11
 71
     3
 72
    40
 73
    36
 74
     0
 42
0.0000000001
 43
0.0000000001
 40
0.0
 40
0.0
 40
0.0
 40
0.0
 40
0.1
 40
0.1
 40
0.1
 40
0.1
 40
0.2
 40
0.2
 40
0.2
 40
0.2
 40
0.3
 40
0.3
 40
0.3
 40
0.3
 40
0.4
 40
0.4
 40
0.4
 40
0.4
 40
0.5
 40
0.5
 40
0.5
 40
0.5
 40
0.6
 40
0.6
 40
0.6
 40
0.6
 40
0.7
 40
0.7
 40
0.7
 40
0.7
 40
0.8
 40
0.8
 40
0.8
 40
0.8
 40
1.0
 40
1.0
 40
1.0
 40
1.0
 10
5.131
 20
-16.858
 30
0.0
 10
5.131
 20
-16.9437
 30
0.0
 10
5.1494
 20
-17.0255
 30
0.0
 10
5.1856
 20
-17.1036
 30
0.0
 10
5.1856
 20
-17.1036
 30
0.0
 10
5.2218
 20
-17.1817
 30
0.0
 10
5.2726
 20
-17.2409
 30
0.0
 10
5.3375
 20
-17.2818
 30
0.0
 10
5.3375
 20
-17.2818
 30
0.0
 10
5.4029
 20
-17.3228
 30
0.0
 10
5.4716
 20
-17.3435
 30
0.0
 10
5.5431
 20
-17.3435
 30
0.0
 10
5.5431
 20
-17.3435
 30
0.0
 10
5.648
 20
-17.3435
 30
0.0
 10
5.7378
 20
-17.3011
 30
0.0
 10
5.8131
 20
-17.2165
 30
0.0
 10
5.8131
 20
-17.2165
 30
0.0
 10
5.8883
 20
-17.1318
 30
0.0
 10
5.926
 20
-17.017
 30
0.0
 10
5.926
 20
-16.8722
 30
0.0
 10
5.926
 20
-16.8722
 30
0.0
 10
5.926
 20
-16.7325
 30
0.0
 10
5.8888
 20
-16.6224
 30
0.0
 10
5.8145
 20
-16.542
 30
0.0
 10
5.8145
 20
-16.542
 30
0.0
 10
5.7402
 20
-16.4615
 30
0.0
 10
5.6466
 20
-16.4215
 30
0.0
 10
5.5337
 20
-16.4215
 30
0.0
 10
5.5337
 20
-16.4215
 30
0.0
 10
5.4213
 20
-16.4215
 30
0.0
 10
5.3262
 20
-16.4615
 30
0.0
 10
5.2482
 20
-16.542
 30
0.0
 10
5.2482
 20
-16.542
 30
0.0
 10
5.1701
 20
-16.6224
 30
0.0
 10
5.131
 20
-16.7278
 30
0.0
 10
5.131
 20
-16.858
 30
0.0
  0
SPLINE
  5
71
330
1F
100
AcDbEntity
  8
DEFAULT_1
 62
   250
100
AcDbSpline
210
0.0
220
0.0
230
1.0
 70
    11
 71
     3
 72
    20
 73
    16
 74
     0
 42
0.0000000001
 43
0.0000000001
 40
0.0
 40
0.0
 40
0.0
 40
0.0
 40
0.2
 40
0.2
 40
0.2
 40
0.2
 40
0.4
 40
0.4
 40
0.4
 40
0.4
 40
0.6
 40
0.6
 40
0.6
 40
0.6
 40
1.0
 40
1.0
 40
1.0
 40
1.0
 10
6.3093
 20
-17.5471
 30
0.0
 10
6.3093
 20
-17.5471
 30
0.0
 10
6.8949
 20
-15.4582
 30
0.0
 10
6.8949
 20
-15.4582
 30
0.0
 10
6.8949
 20
-15.4582
 30
0.0
 10
6.8949
 20
-15.4582
 30
0.0
 10
7.0934
 20
-15.4582
 30
0.0
 10
7.0934
 20
-15.4582
 30
0.0
 10
7.0934
 20
-15.4582
 30
0.0
 10
7.0934
 20
-15.4582
 30
0.0
 10
6.5092
 20
-17.5471
 30
0.0
 10
6.5092
 20
-17.5471
 30
0.0
 10
6.5092
 20
-17.5471
 30
0.0
 10
6.5092
 20
-17.5471
 30
0.0
 10
6.3093
 20
-17.5471
 30
0.0
 10
6.3093
 20
-17.5471
 30
0.0
  0
SPLINE
  5
72
330
1F
100
AcDbEntity
  8
DEFAULT_1
 62
   250
100
AcDbSpline
210
0.0
220
0.0
230
1.0
 70
    11
 71
     3
 72
    48
 73
    44
 74
     0
 42
0.0000000001
 43
0.0000000001
 40
0.0
 40
0.0
 40
0.0
 40
0.0
 40
0.0833333333333333
 40
0.0833333333333333
 40
0.0833333333333333
 40
0.0833333333333333
 40
0.1666666666666667
 40
0.1666666666666667
 40
0.1666666666666667
 40
0.1666666666666667
 40
0.25
 40
0.25
 40
0.25
 40
0.25
 40
0.3333333333333333
 40
0.3333333333333333
 40
0.3333333333333333
 40
0.3333333333333333
 40
0.4166666666666667
 40
0.4166666666666667
 40
0.4166666666666667
 40
0.4166666666666667
 40
0.5
 40
0.5
 40
0.5
 40
0.5
 40
0.5833333333333334
 40
0.5833333333333334
 40
0.5833333333333334
 40
0.5833333333333334
 40
0.6666666666666666
 40
0.6666666666666666
 40
0.6666666666666666
 40
0.6666666666666666
 40
0.75
 40
0.75
 40
0.75
 40
0.75
 40
0.8333333333333334
 40
0.8333333333333334
 40
0.8333333333333334
 40
0.8333333333333334
 40
1.0
 40
1.0
 40
1.0
 40
1.0
 10
8.0054
 20
-17.5128
 30
0.0
 10
8.0054
 20
-17.5128
 30
0.0
 10
8.0054
 20
-17.0293
 30
0.0
 10
8.0054
 20
-17.0293
 30
0.0
 10
8.0054
 20
-17.0293
 30
0.0
 10
8.0054
 20
-17.0293
 30
0.0
 10
7.1291
 20
-17.0293
 30
0.0
 10
7.1291
 20
-17.0293
 30
0.0
 10
7.1291
 20
-17.0293
 30
0.0
 10
7.1291
 20
-17.0293
 30
0.0
 10
7.1291
 20
-16.8016
 30
0.0
 10
7.1291
 20
-16.8016
 30
0.0
 10
7.1291
 20
-16.8016
 30
0.0
 10
7.1291
 20
-16.8016
 30
0.0
 10
8.0511
 20
-15.4926
 30
0.0
 10
8.0511
 20
-15.4926
 30
0.0
 10
8.0511
 20
-15.4926
 30
0.0
 10
8.0511
 20
-15.4926
 30
0.0
 10
8.2538
 20
-15.4926
 30
0.0
 10
8.2538
 20
-15.4926
 30
0.0
 10
8.2538
 20
-15.4926
 30
0.0
 10
8.2538
 20
-15.4926
 30
0.0
 10
8.2538
 20
-16.8016
 30
0.0
 10
8.2538
 20
-16.8016
 30
0.0
 10
8.2538
 20
-16.8016
 30
0.0
 10
8.2538
 20
-16.8016
 30
0.0
 10
8.5266
 20
-16.8016
 30
0.0
 10
8.5266
 20
-16.8016
 30
0.0
 10
8.5266
 20
-16.8016
 30
0.0
 10
8.5266
 20
-16.8016
 30
0.0
 10
8.5266
 20
-17.0293
 30
0.0
 10
8.5266
 20
-17.0293
 30
0.0
 10
8.5266
 20
-17.0293
 30
0.0
 10
8.5266
 20
-17.0293
 30
0.0
 10
8.2538
 20
-17.0293
 30
0.0
 10
8.2538
 20
-17.0293
 30
0.0
 10
8.2538
 20
-17.0293
 30
0.0
 10
8.2538
 20
-17.0293
 30
0.0
 10
8.2538
 20
-17.5128
 30
0.0
 10
8.2538
 20
-17.5128
 30
0.0
 10
8.2538
 20
-17.5128
 30
0.0
 10
8.2538
 20
-17.5128
 30
0.0
 10
8.0054
 20
-17.5128
 30
0.0
 10
8.0054
 20
-17.5128
 30
0.0
  0
SPLINE
  5
73
330
1F
100
AcDbEntity
  8
DEFAULT_1
 62
   250
100
AcDbSpline
210
0.0
220
0.0
230
1.0
 70
    11
 71
     3
 72
    16
 73
    12
 74
     0
 42
0.0000000001
 43
0.0000000001
 40
0.0
 40
0.0
 40
0.0
 40
0.0
 40
0.25
 40
0.25
 40
0.25
 40
0.25
 40
0.5
 40
0.5
 40
0.5
 40
0.5
 40
1.0
 40
1.0
 40
1.0
 40
1.0
 10
8.0054
 20
-16.8016
 30
0.0
 10
8.0054
 20
-16.8016
 30
0.0
 10
8.0054
 20
-15.891
 30
0.0
 10
8.0054
 20
-15.891
 30
0.0
 10
8.0054
 20
-15.891
 30
0.0
 10
8.0054
 20
-15.891
 30
0.0
 10
7.3733
 20
-16.8016
 30
0.0
 10
7.3733
 20
-16.8016
 30
0.0
 10
7.3733
 20
-16.8016
 30
0.0
 10
7.3733
 20
-16.8016
 30
0.0
 10
8.0054
 20
-16.8016
 30
0.0
 10
8.0054
 20
-16.8016
 30
0.0
  0
SPLINE
  5
74
330
1F
100
AcDbEntity
  8
DEFAULT_1
 62
   250
100
AcDbSpline
210
0.0
220
0.0
230
1.0
 70
    11
 71
     3
 72
    28
 73
    24
 74
     0
 42
0.0000000001
 43
0.0000000001
 40
0.0
 40
0.0
 40
0.0
 40
0.0
 40
0.1428571428571428
 40
0.1428571428571428
 40
0.1428571428571428
 40
0.1428571428571428
 40
0.2857142857142857
 40
0.2857142857142857
 40
0.2857142857142857
 40
0.2857142857142857
 40
0.4285714285714285
 40
0.4285714285714285
 40
0.4285714285714285
 40
0.4285714285714285
 40
0.5714285714285714
 40
0.5714285714285714
 40
0.5714285714285714
 40
0.5714285714285714
 40
0.7142857142857143
 40
0.7142857142857143
 40
0.7142857142857143
 40
0.7142857142857143
 40
1.0
 40
1.0
 40
1.0
 40
1.0
 10
8.8615
 20
-16.208
 30
0.0
 10
8.8615
 20
-16.208
 30
0.0
 10
8.7924
 20
-15.8232
 30
0.0
 10
8.7924
 20
-15.8232
 30
0.0
 10
8.7924
 20
-15.8232
 30
0.0
 10
8.7924
 20
-15.8232
 30
0.0
 10
8.7924
 20
-15.4926
 30
0.0
 10
8.7924
 20
-15.4926
 30
0.0
 10
8.7924
 20
-15.4926
 30
0.0
 10
8.7924
 20
-15.4926
 30
0.0
 10
9.075
 20
-15.4926
 30
0.0
 10
9.075
 20
-15.4926
 30
0.0
 10
9.075
 20
-15.4926
 30
0.0
 10
9.075
 20
-15.4926
 30
0.0
 10
9.075
 20
-15.8232
 30
0.0
 10
9.075
 20
-15.8232
 30
0.0
 10
9.075
 20
-15.8232
 30
0.0
 10
9.075
 20
-15.8232
 30
0.0
 10
9.013
 20
-16.208
 30
0.0
 10
9.013
 20
-16.208
 30
0.0
 10
9.013
 20
-16.208
 30
0.0
 10
9.013
 20
-16.208
 30
0.0
 10
8.8615
 20
-16.208
 30
0.0
 10
8.8615
 20
-16.208
 30
0.0
  0
SPLINE
  5
75
330
1F
100
AcDbEntity
  8
DEFAULT_1
 62
   250
100
AcDbSpline
210
0.0
220
0.0
230
1.0
 70
    11
 71
     3
 72
    28
 73
    24
 74
     0
 42
0.0000000001
 43
0.0000000001
 40
0.0
 40
0.0
 40
0.0
 40
0.0
 40
0.1428571428571428
 40
0.1428571428571428
 40
0.1428571428571428
 40
0.1428571428571428
 40
0.2857142857142857
 40
0.2857142857142857
 40
0.2857142857142857
 40
0.2857142857142857
 40
0.4285714285714285
 40
0.4285714285714285
 40
0.4285714285714285
 40
0.4285714285714285
 40
0.5714285714285714
 40
0.5714285714285714
 40
0.5714285714285714
 40
0.5714285714285714
 40
0.7142857142857143
 40
0.7142857142857143
 40
0.7142857142857143
 40
0.7142857142857143
 40
1.0
 40
1.0
 40
1.0
 40
1.0
 10
9.3178
 20
-16.208
 30
0.0
 10
9.3178
 20
-16.208
 30
0.0
 10
9.25
 20
-15.8232
 30
0.0
 10
9.25
 20
-15.8232
 30
0.0
 10
9.25
 20
-15.8232
 30
0.0
 10
9.25
 20
-15.8232
 30
0.0
 10
9.25
 20
-15.4926
 30
0.0
 10
9.25
 20
-15.4926
 30
0.0
 10
9.25
 20
-15.4926
 30
0.0
 10
9.25
 20
-15.4926
 30
0.0
 10
9.5327
 20
-15.4926
 30
0.0
 10
9.5327
 20
-15.4926
 30
0.0
 10
9.5327
 20
-15.4926
 30
0.0
 10
9.5327
 20
-15.4926
 30
0.0
 10
9.5327
 20
-15.8232
 30
0.0
 10
9.5327
 20
-15.8232
 30
0.0
 10
9.5327
 20
-15.8232
 30
0.0
 10
9.5327
 20
-15.8232
 30
0.0
 10
9.4664
 20
-16.208
 30
0.0
 10
9.4664
 20
-16.208
 30
0.0
 10
9.4664
 20
-16.208
 30
0.0
 10
9.4664
 20
-16.208
 30
0.0
 10
9.3178
 20
-16.208
 30
0.0
 10
9.3178
 20
-16.208
 30
0.0
  0
SPLINE
  5
76
330
1F
100
AcDbEntity
  8
DEFAULT_1
 62
   250
100
AcDbSpline
210
0.0
220
0.0
230
1.0
 70
    11
 71
     3
 72
    20
 73
    16
 74
     0
 42
0.0000000001
 43
0.0000000001
 40
0.0
 40
0.0
 40
0.0
 40
0.0
 40
0.2
 40
0.2
 40
0.2
 40
0.2
 40
0.4
 40
0.4
 40
0.4
 40
0.4
 40
0.6
 40
0.6
 40
0.6
 40
0.6
 40
1.0
 40
1.0
 40
1.0
 40
1.0
 10
-3.8069
 20
-17.7118
 30
0.0
 10
-3.8069
 20
-17.7118
 30
0.0
 10
-0.6818
 20
-18.1528
 30
0.0
 10
-0.6818
 20
-18.1528
 30
0.0
 10
-0.6818
 20
-18.1528
 30
0.0
 10
-0.6818
 20
-18.1528
 30
0.0
 10
-0.6818
 20
-18.2507
 30
0.0
 10
-0.6818
 20
-18.2507
 30
0.0
 10
-0.6818
 20
-18.2507
 30
0.0
 10
-0.6818
 20
-18.2507
 30
0.0
 10
-3.8069
 20
-18.7211
 30
0.0
 10
-3.8069
 20
-18.7211
 30
0.0
 10
-3.8069
 20
-18.7211
 30
0.0
 10
-3.8069
 20
-18.7211
 30
0.0
 10
-3.8069
 20
-17.7118
 30
0.0
 10
-3.8069
 20
-17.7118
 30
0.0
  0
SPLINE
  5
77
330
1F
100
AcDbEntity
  8
DEFAULT_1
 62
   250
100
AcDbSpline
210
0.0
220
0.0
230
1.0
 70
    11
 71
     3
 72
    20
 73
    16
 74
     0
 42
0.0000000001
 43
0.0000000001
 40
0.0
 40
0.0
 40
0.0
 40
0.0
 40
0.2
 40
0.2
 40
0.2
 40
0.2
 40
0.4
 40
0.4
 40
0.4
 40
0.4
 40
0.6
 40
0.6
 40
0.6
 40
0.6
 40
1.0
 40
1.0
 40
1.0
 40
1.0
 10
13.8356
 20
-18.5743
 30
0.0
 10
13.8356
 20
-18.5743
 30
0.0
 10
10.7105
 20
-18.1333
 30
0.0
 10
10.7105
 20
-18.1333
 30
0.0
 10
10.7105
 20
-18.1333
 30
0.0
 10
10.7105
 20
-18.1333
 30
0.0
 10
10.7105
 20
-18.0354
 30
0.0
 10
10.7105
 20
-18.0354
 30
0.0
 10
10.7105
 20
-18.0354
 30
0.0
 10
10.7105
 20
-18.0354
 30
0.0
 10
13.8356
 20
-17.565
 30
0.0
 10
13.8356
 20
-17.565
 30
0.0
 10
13.8356
 20
-17.565
 30
0.0
 10
13.8356
 20
-17.565
 30
0.0
 10
13.8356
 20
-18.5743
 30
0.0
 10
13.8356
 20
-18.5743
 30
0.0
  0
SPLINE
  5
78
330
1F
100
AcDbEntity
  8
DEFAULT_1
 62
   250
100
AcDbSpline
210
0.0
220
0.0
230
1.0
 70
    24
 71
     3
 72
     8
 73
     4
 74
     0
 42
0.0000000001
 43
0.0000000001
 40
0.0
 40
0.0
 40
0.0
 40
0.0
 40
1.0
 40
1.0
 40
1.0
 40
1.0
 10
-0.6074
 20
-11.1392
 30
0.0
 10
-0.6074
 20
-11.1392
 30
0.0
 10
10.4618
 20
-10.5748
 30
0.0
 10
10.4618
 20
-10.5748
 30
0.0
  0
SPLINE
  5
79
330
1F
100
AcDbEntity
  8
DEFAULT_1
 62
   250
100
AcDbSpline
210
0.0
220
0.0
230
1.0
 70
    24
 71
     3
 72
     8
 73
     4
 74
     0
 42
0.0000000001
 43
0.0000000001
 40
0.0
 40
0.0
 40
0.0
 40
0.0
 40
1.0
 40
1.0
 40
1.0
 40
1.0
 10
-0.615
 20
-12.5606
 30
0.0
 10
-0.615
 20
-12.5606
 30
0.0
 10
10.6036
 20
-11.9874
 30
0.0
 10
10.6036
 20
-11.9874
 30
0.0
  0
SPLINE
  5
7A
330
1F
100
AcDbEntity
  8
DEFAULT_1
 62
   250
100
AcDbSpline
210
0.0
220
0.0
230
1.0
 70
    24
 71
     3
 72
     8
 73
     4
 74
     0
 42
0.0000000001
 43
0.0000000001
 40
0.0
 40
0.0
 40
0.0
 40
0.0
 40
1.0
 40
1.0
 40
1.0
 40
1.0
 10
-0.6074
 20
-11.799
 30
0.0
 10
-0.6074
 20
-11.799
 30
0.0
 10
10.4618
 20
-11.2343
 30
0.0
 10
10.4618
 20
-11.2343
 30
0.0
  0
SPLINE
  5
7B
330
1F
100
AcDbEntity
  8
DEFAULT_1
 62
   250
100
AcDbSpline
210
0.0
220
0.0
230
1.0
 70
    24
 71
     3
 72
     8
 73
     4
 74
     0
 42
0.0000000001
 43
0.0000000001
 40
0.0
 40
0.0
 40
0.0
 40
0.0
 40
1.0
 40
1.0
 40
1.0
 40
1.0
 10
-0.4435
 20
-13.2593
 30
0.0
 10
-0.4435
 20
-13.2593
 30
0.0
 10
10.5511
 20
-12.6978
 30
0.0
 10
10.5511
 20
-12.6978
 30
0.0
  0
SPLINE
  5
7C
330
1F
100
AcDbEntity
  8
DEFAULT_1
 62
   250
100
AcDbSpline
210
0.0
220
0.0
230
1.0
 70
    27
 71
     3
 72
    20
 73
    16
 74
     0
 42
0.0000000001
 43
0.0000000001
 40
0.0
 40
0.0
 40
0.0
 40
0.0
 40
0.2
 40
0.2
 40
0.2
 40
0.2
 40
0.4
 40
0.4
 40
0.4
 40
0.4
 40
0.6
 40
0.6
 40
0.6
 40
0.6
 40
1.0
 40
1.0
 40
1.0
 40
1.0
 10
15.7193
 20
-3.8437
 30
0.0
 10
15.7193
 20
-3.8437
 30
0.0
 10
-4.6061
 20
-3.8437
 30
0.0
 10
-4.6061
 20
-3.8437
 30
0.0
 10
-4.6061
 20
-3.8437
 30
0.0
 10
-4.6061
 20
-3.8437
 30
0.0
 10
-5.8192
 20
-3.8437
 30
0.0
 10
-5.8192
 20
-3.8437
 30
0.0
 10
-5.8192
 20
-3.8437
 30
0.0
 10
-5.8192
 20
-3.8437
 30
0.0
 10
-4.6061
 20
-3.8437
 30
0.0
 10
-4.6061
 20
-3.8437
 30
0.0
 10
-4.6061
 20
-3.8437
 30
0.0
 10
-4.6061
 20
-3.8437
 30
0.0
 10
15.7193
 20
-3.8437
 30
0.0
 10
15.7193
 20
-3.8437
 30
0.0
  0
SPLINE
  5
7D
330
1F
100
AcDbEntity
  8
DEFAULT_1
 62
   250
100
AcDbSpline
210
0.0
220
0.0
230
1.0
 70
    27
 71
     3
 72
    12
 73
     8
 74
     0
 42
0.0000000001
 43
0.0000000001
 40
0.0
 40
0.0
 40
0.0
 40
0.0
 40
0.3333333333333333
 40
0.3333333333333333
 40
0.3333333333333333
 40
0.3333333333333333
 40
1.0
 40
1.0
 40
1.0
 40
1.0
 10
9.8995
 20
-9.6981
 30
0.0
 10
9.8995
 20
-9.6981
 30
0.0
 10
-0.0215
 20
-9.6981
 30
0.0
 10
-0.0215
 20
-9.6981
 30
0.0
 10
-0.0215
 20
-9.6981
 30
0.0
 10
-0.0215
 20
-9.6981
 30
0.0
 10
9.8995
 20
-9.6981
 30
0.0
 10
9.8995
 20
-9.6981
 30
0.0
  0
SPLINE
  5
7E
330
1F
100
AcDbEntity
  8
DEFAULT_1
 62
   250
100
AcDbSpline
210
0.0
220
0.0
230
1.0
 70
    11
 71
     3
 72
    28
 73
    24
 74
     0
 42
0.0000000001
 43
0.0000000001
 40
0.0
 40
0.0
 40
0.0
 40
0.0
 40
0.1428571428571428
 40
0.1428571428571428
 40
0.1428571428571428
 40
0.1428571428571428
 40
0.2857142857142857
 40
0.2857142857142857
 40
0.2857142857142857
 40
0.2857142857142857
 40
0.4285714285714285
 40
0.4285714285714285
 40
0.4285714285714285
 40
0.4285714285714285
 40
0.5714285714285714
 40
0.5714285714285714
 40
0.5714285714285714
 40
0.5714285714285714
 40
0.7142857142857143
 40
0.7142857142857143
 40
0.7142857142857143
 40
0.7142857142857143
 40
1.0
 40
1.0
 40
1.0
 40
1.0
 10
-8.7413
 20
0.8447
 30
0.0
 10
-8.7413
 20
0.8447
 30
0.0
 10
18.5807
 20
0.8447
 30
0.0
 10
18.5807
 20
0.8447
 30
0.0
 10
18.5807
 20
0.8447
 30
0.0
 10
18.5807
 20
0.8447
 30
0.0
 10
18.5807
 20
-1.0933
 30
0.0
 10
18.5807
 20
-1.0933
 30
0.0
 10
18.5807
 20
-1.0933
 30
0.0
 10
18.5807
 20
-1.0933
 30
0.0
 10
16.6678
 20
-1.0933
 30
0.0
 10
16.6678
 20
-1.0933
 30
0.0
 10
16.6678
 20
-1.0933
 30
0.0
 10
16.6678
 20
-1.0933
 30
0.0
 10
16.5562
 20
-1.0933
 30
0.0
 10
16.5562
 20
-1.0933
 30
0.0
 10
16.5562
 20
-1.0933
 30
0.0
 10
16.5562
 20
-1.0933
 30
0.0
 10
-8.7413
 20
-1.0933
 30
0.0
 10
-8.7413
 20
-1.0933
 30
0.0
 10
-8.7413
 20
-1.0933
 30
0.0
 10
-8.7413
 20
-1.0933
 30
0.0
 10
-8.7413
 20
0.8447
 30
0.0
 10
-8.7413
 20
0.8447
 30
0.0
  0
SPLINE
  5
7F
330
1F
100
AcDbEntity
  8
DEFAULT_1
 62
   250
100
AcDbSpline
210
0.0
220
0.0
230
1.0
 70
    27
 71
     3
 72
    12
 73
     8
 74
     0
 42
0.0000000001
 43
0.0000000001
 40
0.0
 40
0.0
 40
0.0
 40
0.0
 40
0.3333333333333333
 40
0.3333333333333333
 40
0.3333333333333333
 40
0.3333333333333333
 40
1.0
 40
1.0
 40
1.0
 40
1.0
 10
15.7522
 20
-2.2601
 30
0.0
 10
15.7522
 20
-2.2601
 30
0.0
 10
-5.8518
 20
-2.2601
 30
0.0
 10
-5.8518
 20
-2.2601
 30
0.0
 10
-5.8518
 20
-2.2601
 30
0.0
 10
-5.8518
 20
-2.2601
 30
0.0
 10
15.7522
 20
-2.2601
 30
0.0
 10
15.7522
 20
-2.2601
 30
0.0
  0
SPLINE
  5
80
330
1F
100
AcDbEntity
  8
DEFAULT_1
 62
   250
100
AcDbSpline
210
0.0
220
0.0
230
1.0
 70
     8
 71
     3
 72
    20
 73
    16
 74
     0
 42
0.0000000001
 43
0.0000000001
 40
0.0
 40
0.0
 40
0.0
 40
0.0
 40
0.2
 40
0.2
 40
0.2
 40
0.2
 40
0.4
 40
0.4
 40
0.4
 40
0.4
 40
0.6
 40
0.6
 40
0.6
 40
0.6
 40
1.0
 40
1.0
 40
1.0
 40
1.0
 10
16.5562
 20
-1.0933
 30
0.0
 10
16.5562
 20
-1.0933
 30
0.0
 10
15.7522
 20
-1.7338
 30
0.0
 10
15.7522
 20
-1.7338
 30
0.0
 10
15.7522
 20
-1.7338
 30
0.0
 10
15.7522
 20
-1.7338
 30
0.0
 10
15.7687
 20
-3.8675
 30
0.0
 10
15.7687
 20
-3.8675
 30
0.0
 10
15.7687
 20
-3.8675
 30
0.0
 10
15.7687
 20
-3.8675
 30
0.0
 10
9.8407
 20
-9.6661
 30
0.0
 10
9.8407
 20
-9.6661
 30
0.0
 10
9.8407
 20
-9.6661
 30
0.0
 10
9.8407
 20
-9.6661
 30
0.0
 10
9.8407
 20
-10.3336
 30
0.0
 10
9.8407
 20
-10.3336
 30
0.0
  0
SPLINE
  5
81
330
1F
100
AcDbEntity
  8
DEFAULT_1
 62
   250
100
AcDbSpline
210
0.0
220
0.0
230
1.0
 70
     8
 71
     3
 72
    20
 73
    16
 74
     0
 42
0.0000000001
 43
0.0000000001
 40
0.0
 40
0.0
 40
0.0
 40
0.0
 40
0.2
 40
0.2
 40
0.2
 40
0.2
 40
0.4
 40
0.4
 40
0.4
 40
0.4
 40
0.6
 40
0.6
 40
0.6
 40
0.6
 40
1.0
 40
1.0
 40
1.0
 40
1.0
 10
-6.6507
 20
-1.1012
 30
0.0
 10
-6.6507
 20
-1.1012
 30
0.0
 10
-5.8522
 20
-1.7387
 30
0.0
 10
-5.8522
 20
-1.7387
 30
0.0
 10
-5.8522
 20
-1.7387
 30
0.0
 10
-5.8522
 20
-1.7387
 30
0.0
 10
-5.8533
 20
-3.8682
 30
0.0
 10
-5.8533
 20
-3.8682
 30
0.0
 10
-5.8533
 20
-3.8682
 30
0.0
 10
-5.8533
 20
-3.8682
 30
0.0
 10
0.0031
 20
-9.698
 30
0.0
 10
0.0031
 20
-9.698
 30
0.0
 10
0.0031
 20
-9.698
 30
0.0
 10
0.0031
 20
-9.698
 30
0.0
 10
-0.0009
 20
-10.2984
 30
0.0
 10
-0.0009
 20
-10.2984
 30
0.0
  0
SPLINE
  5
82
330
1F
100
AcDbEntity
  8
DEFAULT_1
 62
   250
100
AcDbSpline
210
0.0
220
0.0
230
1.0
 70
    11
 71
     3
 72
    36
 73
    32
 74
     0
 42
0.0000000001
 43
0.0000000001
 40
0.0
 40
0.0
 40
0.0
 40
0.0
 40
0.1111111111111111
 40
0.1111111111111111
 40
0.1111111111111111
 40
0.1111111111111111
 40
0.2222222222222222
 40
0.2222222222222222
 40
0.2222222222222222
 40
0.2222222222222222
 40
0.3333333333333333
 40
0.3333333333333333
 40
0.3333333333333333
 40
0.3333333333333333
 40
0.4444444444444444
 40
0.4444444444444444
 40
0.4444444444444444
 40
0.4444444444444444
 40
0.5555555555555556
 40
0.5555555555555556
 40
0.5555555555555556
 40
0.5555555555555556
 40
0.6666666666666666
 40
0.6666666666666666
 40
0.6666666666666666
 40
0.6666666666666666
 40
0.7777777777777778
 40
0.7777777777777778
 40
0.7777777777777778
 40
0.7777777777777778
 40
1.0
 40
1.0
 40
1.0
 40
1.0
 10
-0.0624
 20
-10.3015
 30
0.0
 10
-0.0624
 20
-10.3015
 30
0.0
 10
-0.6594
 20
-10.7381
 30
0.0
 10
-0.6594
 20
-10.7381
 30
0.0
 10
-0.6594
 20
-10.7381
 30
0.0
 10
-0.6594
 20
-10.7381
 30
0.0
 10
-0.6594
 20
-13.2769
 30
0.0
 10
-0.6594
 20
-13.2769
 30
0.0
 10
-0.6594
 20
-13.2769
 30
0.0
 10
-0.6594
 20
-13.2769
 30
0.0
 10
-0.3578
 20
-13.4536
 30
0.0
 10
-0.3578
 20
-13.4536
 30
0.0
 10
-0.3578
 20
-13.4536
 30
0.0
 10
-0.3578
 20
-13.4536
 30
0.0
 10
10.2578
 20
-13.4536
 30
0.0
 10
10.2578
 20
-13.4536
 30
0.0
 10
10.2578
 20
-13.4536
 30
0.0
 10
10.2578
 20
-13.4536
 30
0.0
 10
10.5562
 20
-13.1313
 30
0.0
 10
10.5562
 20
-13.1313
 30
0.0
 10
10.5562
 20
-13.1313
 30
0.0
 10
10.5562
 20
-13.1313
 30
0.0
 10
10.5401
 20
-10.6734
 30
0.0
 10
10.5401
 20
-10.6734
 30
0.0
 10
10.5401
 20
-10.6734
 30
0.0
 10
10.5401
 20
-10.6734
 30
0.0
 10
9.9269
 20
-10.3015
 30
0.0
 10
9.9269
 20
-10.3015
 30
0.0
 10
9.9269
 20
-10.3015
 30
0.0
 10
9.9269
 20
-10.3015
 30
0.0
 10
-0.0624
 20
-10.3015
 30
0.0
 10
-0.0624
 20
-10.3015
 30
0.0
  0
SPLINE
  5
83
330
1F
100
AcDbEntity
  8
DEFAULT_1
 62
   250
100
AcDbSpline
210
0.0
220
0.0
230
1.0
 70
    11
 71
     3
 72
    20
 73
    16
 74
     0
 42
0.0000000001
 43
0.0000000001
 40
0.0
 40
0.0
 40
0.0
 40
0.0
 40
0.2
 40
0.2
 40
0.2
 40
0.2
 40
0.4
 40
0.4
 40
0.4
 40
0.4
 40
0.6
 40
0.6
 40
0.6
 40
0.6
 40
1.0
 40
1.0
 40
1.0
 40
1.0
 10
-8.6273
 20
3.7327
 30
0.0
 10
-8.6273
 20
3.7327
 30
0.0
 10
18.5047
 20
3.7327
 30
0.0
 10
18.5047
 20
3.7327
 30
0.0
 10
18.5047
 20
3.7327
 30
0.0
 10
18.5047
 20
3.7327
 30
0.0
 10
18.5047
 20
3.2387
 30
0.0
 10
18.5047
 20
3.2387
 30
0.0
 10
18.5047
 20
3.2387
 30
0.0
 10
18.5047
 20
3.2387
 30
0.0
 10
-8.6273
 20
3.2387
 30
0.0
 10
-8.6273
 20
3.2387
 30
0.0
 10
-8.6273
 20
3.2387
 30
0.0
 10
-8.6273
 20
3.2387
 30
0.0
 10
-8.6273
 20
3.7327
 30
0.0
 10
-8.6273
 20
3.7327
 30
0.0
  0
SPLINE
  5
84
330
1F
100
AcDbEntity
  8
DEFAULT_1
 62
   250
100
AcDbSpline
210
0.0
220
0.0
230
1.0
 70
     8
 71
     3
 72
    24
 73
    20
 74
     0
 42
0.0000000001
 43
0.0000000001
 40
0.0
 40
0.0
 40
0.0
 40
0.0
 40
0.1666666666666667
 40
0.1666666666666667
 40
0.1666666666666667
 40
0.1666666666666667
 40
0.3333333333333333
 40
0.3333333333333333
 40
0.3333333333333333
 40
0.3333333333333333
 40
0.5
 40
0.5
 40
0.5
 40
0.5
 40
0.6666666666666666
 40
0.6666666666666666
 40
0.6666666666666666
 40
0.6666666666666666
 40
1.0
 40
1.0
 40
1.0
 40
1.0
 10
-4.3235
 20
3.224
 30
0.0
 10
-3.656
 20
2.3477
 30
0.0
 10
-2.7089
 20
1.7353
 30
0.0
 10
-1.6451
 20
1.4923
 30
0.0
 10
-1.6451
 20
1.4923
 30
0.0
 10
-1.6451
 20
1.4923
 30
0.0
 10
-1.4313
 20
1.4102
 30
0.0
 10
-1.4313
 20
1.4102
 30
0.0
 10
-1.4313
 20
1.4102
 30
0.0
 10
-1.4313
 20
1.4102
 30
0.0
 10
-1.2458
 20
1.2632
 30
0.0
 10
-1.2458
 20
1.2632
 30
0.0
 10
-1.2458
 20
1.2632
 30
0.0
 10
-1.2458
 20
1.2632
 30
0.0
 10
-1.0953
 20
1.0637
 30
0.0
 10
-1.0953
 20
1.0637
 30
0.0
 10
-1.0953
 20
1.0637
 30
0.0
 10
-1.0953
 20
1.0637
 30
0.0
 10
-0.9483
 20
0.8572
 30
0.0
 10
-0.9483
 20
0.8572
 30
0.0
  0
SPLINE
  5
85
330
1F
100
AcDbEntity
  8
DEFAULT_1
 62
   250
100
AcDbSpline
210
0.0
220
0.0
230
1.0
 70
     8
 71
     3
 72
    20
 73
    16
 74
     0
 42
0.0000000001
 43
0.0000000001
 40
0.0
 40
0.0
 40
0.0
 40
0.0
 40
0.2
 40
0.2
 40
0.2
 40
0.2
 40
0.4
 40
0.4
 40
0.4
 40
0.4
 40
0.6
 40
0.6
 40
0.6
 40
0.6
 40
1.0
 40
1.0
 40
1.0
 40
1.0
 10
14.5459
 20
3.7053
 30
0.0
 10
14.7916
 20
4.1254
 30
0.0
 10
14.9723
 20
4.5813
 30
0.0
 10
15.0816
 20
5.0572
 30
0.0
 10
15.0816
 20
5.0572
 30
0.0
 10
15.0816
 20
5.0572
 30
0.0
 10
15.4982
 20
6.9172
 30
0.0
 10
15.4982
 20
6.9172
 30
0.0
 10
15.4982
 20
6.9172
 30
0.0
 10
15.4982
 20
6.9172
 30
0.0
 10
15.6132
 20
7.1472
 30
0.0
 10
15.6132
 20
7.1472
 30
0.0
 10
15.6132
 20
7.1472
 30
0.0
 10
15.6132
 20
7.1472
 30
0.0
 10
15.8102
 20
7.2671
 30
0.0
 10
15.8102
 20
7.2671
 30
0.0
  0
SPLINE
  5
86
330
1F
100
AcDbEntity
  8
DEFAULT_1
 62
   250
100
AcDbSpline
210
0.0
220
0.0
230
1.0
 70
     8
 71
     3
 72
    20
 73
    16
 74
     0
 42
0.0000000001
 43
0.0000000001
 40
0.0
 40
0.0
 40
0.0
 40
0.0
 40
0.2
 40
0.2
 40
0.2
 40
0.2
 40
0.4
 40
0.4
 40
0.4
 40
0.4
 40
0.6
 40
0.6
 40
0.6
 40
0.6
 40
1.0
 40
1.0
 40
1.0
 40
1.0
 10
-4.6458
 20
3.7053
 30
0.0
 10
-4.8916
 20
4.1254
 30
0.0
 10
-5.0723
 20
4.5813
 30
0.0
 10
-5.1815
 20
5.0572
 30
0.0
 10
-5.1815
 20
5.0572
 30
0.0
 10
-5.1815
 20
5.0572
 30
0.0
 10
-5.624
 20
6.9688
 30
0.0
 10
-5.624
 20
6.9688
 30
0.0
 10
-5.624
 20
6.9688
 30
0.0
 10
-5.624
 20
6.9688
 30
0.0
 10
-5.7716
 20
7.1656
 30
0.0
 10
-5.7716
 20
7.1656
 30
0.0
 10
-5.7716
 20
7.1656
 30
0.0
 10
-5.7716
 20
7.1656
 30
0.0
 10
-5.9166
 20
7.2671
 30
0.0
 10
-5.9166
 20
7.2671
 30
0.0
  0
SPLINE
  5
87
330
1F
100
AcDbEntity
  8
DEFAULT_1
 62
   250
100
AcDbSpline
210
0.0
220
0.0
230
1.0
 70
     8
 71
     3
 72
    24
 73
    20
 74
     0
 42
0.0000000001
 43
0.0000000001
 40
0.0
 40
0.0
 40
0.0
 40
0.0
 40
0.1666666666666667
 40
0.1666666666666667
 40
0.1666666666666667
 40
0.1666666666666667
 40
0.3333333333333333
 40
0.3333333333333333
 40
0.3333333333333333
 40
0.3333333333333333
 40
0.5
 40
0.5
 40
0.5
 40
0.5
 40
0.6666666666666666
 40
0.6666666666666666
 40
0.6666666666666666
 40
0.6666666666666666
 40
1.0
 40
1.0
 40
1.0
 40
1.0
 10
14.2235
 20
3.224
 30
0.0
 10
13.5562
 20
2.3478
 30
0.0
 10
12.6092
 20
1.7355
 30
0.0
 10
11.5455
 20
1.4924
 30
0.0
 10
11.5455
 20
1.4924
 30
0.0
 10
11.5454
 20
1.4924
 30
0.0
 10
11.5452
 20
1.4923
 30
0.0
 10
11.5451
 20
1.4923
 30
0.0
 10
11.5451
 20
1.4923
 30
0.0
 10
11.5451
 20
1.4923
 30
0.0
 10
11.2959
 20
1.3734
 30
0.0
 10
11.2959
 20
1.3734
 30
0.0
 10
11.2959
 20
1.3734
 30
0.0
 10
11.2959
 20
1.3734
 30
0.0
 10
11.0689
 20
1.146
 30
0.0
 10
11.0689
 20
1.146
 30
0.0
 10
11.0689
 20
1.146
 30
0.0
 10
11.0689
 20
1.146
 30
0.0
 10
10.8419
 20
0.831
 30
0.0
 10
10.8419
 20
0.831
 30
0.0
  0
SPLINE
  5
88
330
1F
100
AcDbEntity
  8
DEFAULT_1
 62
   250
100
AcDbSpline
210
0.0
220
0.0
230
1.0
 70
    27
 71
     3
 72
    16
 73
    12
 74
     0
 42
0.0000000001
 43
0.0000000001
 40
0.0
 40
0.0
 40
0.0
 40
0.0
 40
0.25
 40
0.25
 40
0.25
 40
0.25
 40
0.5
 40
0.5
 40
0.5
 40
0.5
 40
1.0
 40
1.0
 40
1.0
 40
1.0
 10
-1.6452
 20
1.4924
 30
0.0
 10
-1.6452
 20
1.4924
 30
0.0
 10
11.5455
 20
1.4924
 30
0.0
 10
11.5455
 20
1.4924
 30
0.0
 10
11.5455
 20
1.4924
 30
0.0
 10
11.5455
 20
1.4924
 30
0.0
 10
11.5456
 20
1.4924
 30
0.0
 10
11.5456
 20
1.4924
 30
0.0
 10
11.5456
 20
1.4924
 30
0.0
 10
11.5456
 20
1.4924
 30
0.0
 10
-1.6452
 20
1.4924
 30
0.0
 10
-1.6452
 20
1.4924
 30
0.0
  0
SPLINE
  5
89
330
1F
100
AcDbEntity
  8
DEFAULT_1
 62
   250
100
AcDbSpline
210
0.0
220
0.0
230
1.0
 70
    11
 71
     3
 72
    36
 73
    32
 74
     0
 42
0.0000000001
 43
0.0000000001
 40
0.0
 40
0.0
 40
0.0
 40
0.0
 40
0.1111111111111111
 40
0.1111111111111111
 40
0.1111111111111111
 40
0.1111111111111111
 40
0.2222222222222222
 40
0.2222222222222222
 40
0.2222222222222222
 40
0.2222222222222222
 40
0.3333333333333333
 40
0.3333333333333333
 40
0.3333333333333333
 40
0.3333333333333333
 40
0.4444444444444444
 40
0.4444444444444444
 40
0.4444444444444444
 40
0.4444444444444444
 40
0.5555555555555556
 40
0.5555555555555556
 40
0.5555555555555556
 40
0.5555555555555556
 40
0.6666666666666666
 40
0.6666666666666666
 40
0.6666666666666666
 40
0.6666666666666666
 40
0.7777777777777778
 40
0.7777777777777778
 40
0.7777777777777778
 40
0.7777777777777778
 40
1.0
 40
1.0
 40
1.0
 40
1.0
 10
-8.6093
 20
7.5659
 30
0.0
 10
-8.6093
 20
7.5659
 30
0.0
 10
18.5151
 20
7.5659
 30
0.0
 10
18.5151
 20
7.5659
 30
0.0
 10
18.5151
 20
7.5659
 30
0.0
 10
18.5151
 20
7.5659
 30
0.0
 10
18.5151
 20
7.2671
 30
0.0
 10
18.5151
 20
7.2671
 30
0.0
 10
18.5151
 20
7.2671
 30
0.0
 10
18.5151
 20
7.2671
 30
0.0
 10
15.8636
 20
7.2671
 30
0.0
 10
15.8636
 20
7.2671
 30
0.0
 10
15.8636
 20
7.2671
 30
0.0
 10
15.8636
 20
7.2671
 30
0.0
 10
15.8102
 20
7.2671
 30
0.0
 10
15.8102
 20
7.2671
 30
0.0
 10
15.8102
 20
7.2671
 30
0.0
 10
15.8102
 20
7.2671
 30
0.0
 10
-5.9166
 20
7.2671
 30
0.0
 10
-5.9166
 20
7.2671
 30
0.0
 10
-5.9166
 20
7.2671
 30
0.0
 10
-5.9166
 20
7.2671
 30
0.0
 10
-5.989
 20
7.2671
 30
0.0
 10
-5.989
 20
7.2671
 30
0.0
 10
-5.989
 20
7.2671
 30
0.0
 10
-5.989
 20
7.2671
 30
0.0
 10
-8.6093
 20
7.2671
 30
0.0
 10
-8.6093
 20
7.2671
 30
0.0
 10
-8.6093
 20
7.2671
 30
0.0
 10
-8.6093
 20
7.2671
 30
0.0
 10
-8.6093
 20
7.5659
 30
0.0
 10
-8.6093
 20
7.5659
 30
0.0
  0
SPLINE
  5
8A
330
1F
100
AcDbEntity
  8
DEFAULT_1
 62
   250
100
AcDbSpline
210
0.0
220
0.0
230
1.0
 70
     8
 71
     3
 72
    64
 73
    60
 74
     0
 42
0.0000000001
 43
0.0000000001
 40
0.0
 40
0.0
 40
0.0
 40
0.0
 40
0.0625
 40
0.0625
 40
0.0625
 40
0.0625
 40
0.125
 40
0.125
 40
0.125
 40
0.125
 40
0.1875
 40
0.1875
 40
0.1875
 40
0.1875
 40
0.25
 40
0.25
 40
0.25
 40
0.25
 40
0.3125
 40
0.3125
 40
0.3125
 40
0.3125
 40
0.375
 40
0.375
 40
0.375
 40
0.375
 40
0.4375
 40
0.4375
 40
0.4375
 40
0.4375
 40
0.5
 40
0.5
 40
0.5
 40
0.5
 40
0.5625
 40
0.5625
 40
0.5625
 40
0.5625
 40
0.625
 40
0.625
 40
0.625
 40
0.625
 40
0.6875
 40
0.6875
 40
0.6875
 40
0.6875
 40
0.75
 40
0.75
 40
0.75
 40
0.75
 40
0.8125
 40
0.8125
 40
0.8125
 40
0.8125
 40
0.875
 40
0.875
 40
0.875
 40
0.875
 40
1.0
 40
1.0
 40
1.0
 40
1.0
 10
11.1136
 20
7.56
 30
0.0
 10
11.1136
 20
7.56
 30
0.0
 10
13.6614
 20
8.2025
 30
0.0
 10
13.6614
 20
8.2025
 30
0.0
 10
13.6614
 20
8.2025
 30
0.0
 10
13.932
 20
8.2672
 30
0.0
 10
14.1406
 20
8.4864
 30
0.0
 10
14.1952
 20
8.7635
 30
0.0
 10
14.1952
 20
8.7635
 30
0.0
 10
14.1952
 20
8.7635
 30
0.0
 10
14.4175
 20
9.8252
 30
0.0
 10
14.4175
 20
9.8252
 30
0.0
 10
14.4175
 20
9.8252
 30
0.0
 10
14.4175
 20
9.8252
 30
0.0
 10
14.5914
 20
9.9995
 30
0.0
 10
14.5914
 20
9.9995
 30
0.0
 10
14.5914
 20
9.9995
 30
0.0
 10
14.5914
 20
9.9995
 30
0.0
 10
14.8631
 20
10.0757
 30
0.0
 10
14.8631
 20
10.0757
 30
0.0
 10
14.8631
 20
10.0757
 30
0.0
 10
14.8631
 20
10.0757
 30
0.0
 10
14.8631
 20
10.1846
 30
0.0
 10
14.8631
 20
10.1846
 30
0.0
 10
14.8631
 20
10.1846
 30
0.0
 10
14.8631
 20
10.1846
 30
0.0
 10
-4.9859
 20
10.2324
 30
0.0
 10
-4.9859
 20
10.2324
 30
0.0
 10
-4.9859
 20
10.2324
 30
0.0
 10
-4.9859
 20
10.2324
 30
0.0
 10
-4.9824
 20
10.0975
 30
0.0
 10
-4.9824
 20
10.0975
 30
0.0
 10
-4.9824
 20
10.0975
 30
0.0
 10
-4.9824
 20
10.0975
 30
0.0
 10
-4.7216
 20
10.0213
 30
0.0
 10
-4.7216
 20
10.0213
 30
0.0
 10
-4.7216
 20
10.0213
 30
0.0
 10
-4.7216
 20
10.0213
 30
0.0
 10
-4.526
 20
9.8579
 30
0.0
 10
-4.526
 20
9.8579
 30
0.0
 10
-4.526
 20
9.8579
 30
0.0
 10
-4.526
 20
9.8579
 30
0.0
 10
-4.439
 20
9.5203
 30
0.0
 10
-4.439
 20
9.5203
 30
0.0
 10
-4.439
 20
9.5203
 30
0.0
 10
-4.439
 20
9.5203
 30
0.0
 10
-4.2869
 20
8.6055
 30
0.0
 10
-4.2869
 20
8.6055
 30
0.0
 10
-4.2869
 20
8.6055
 30
0.0
 10
-4.2869
 20
8.6055
 30
0.0
 10
-4.1347
 20
8.3768
 30
0.0
 10
-4.1347
 20
8.3768
 30
0.0
 10
-4.1347
 20
8.3768
 30
0.0
 10
-4.1347
 20
8.3768
 30
0.0
 10
-3.9174
 20
8.2243
 30
0.0
 10
-3.9174
 20
8.2243
 30
0.0
 10
-3.9174
 20
8.2243
 30
0.0
 10
-3.9174
 20
8.2243
 30
0.0
 10
-1.0916
 20
7.4729
 30
0.0
 10
-1.0916
 20
7.4729
 30
0.0
  0
SPLINE
  5
8B
330
1F
100
AcDbEntity
  8
DEFAULT_1
 62
   250
100
AcDbSpline
210
0.0
220
0.0
230
1.0
 70
     8
 71
     3
 72
    92
 73
    88
 74
     0
 42
0.0000000001
 43
0.0000000001
 40
0.0
 40
0.0
 40
0.0
 40
0.0
 40
0.0434782608695652
 40
0.0434782608695652
 40
0.0434782608695652
 40
0.0434782608695652
 40
0.0869565217391304
 40
0.0869565217391304
 40
0.0869565217391304
 40
0.0869565217391304
 40
0.1304347826086956
 40
0.1304347826086956
 40
0.1304347826086956
 40
0.1304347826086956
 40
0.1739130434782609
 40
0.1739130434782609
 40
0.1739130434782609
 40
0.1739130434782609
 40
0.2173913043478261
 40
0.2173913043478261
 40
0.2173913043478261
 40
0.2173913043478261
 40
0.2608695652173913
 40
0.2608695652173913
 40
0.2608695652173913
 40
0.2608695652173913
 40
0.3043478260869565
 40
0.3043478260869565
 40
0.3043478260869565
 40
0.3043478260869565
 40
0.3478260869565217
 40
0.3478260869565217
 40
0.3478260869565217
 40
0.3478260869565217
 40
0.391304347826087
 40
0.391304347826087
 40
0.391304347826087
 40
0.391304347826087
 40
0.4347826086956522
 40
0.4347826086956522
 40
0.4347826086956522
 40
0.4347826086956522
 40
0.4782608695652174
 40
0.4782608695652174
 40
0.4782608695652174
 40
0.4782608695652174
 40
0.5217391304347826
 40
0.5217391304347826
 40
0.5217391304347826
 40
0.5217391304347826
 40
0.5652173913043478
 40
0.5652173913043478
 40
0.5652173913043478
 40
0.5652173913043478
 40
0.6086956521739131
 40
0.6086956521739131
 40
0.6086956521739131
 40
0.6086956521739131
 40
0.6521739130434783
 40
0.6521739130434783
 40
0.6521739130434783
 40
0.6521739130434783
 40
0.6956521739130435
 40
0.6956521739130435
 40
0.6956521739130435
 40
0.6956521739130435
 40
0.7391304347826086
 40
0.7391304347826086
 40
0.7391304347826086
 40
0.7391304347826086
 40
0.782608695652174
 40
0.782608695652174
 40
0.782608695652174
 40
0.782608695652174
 40
0.8260869565217391
 40
0.8260869565217391
 40
0.8260869565217391
 40
0.8260869565217391
 40
0.8695652173913043
 40
0.8695652173913043
 40
0.8695652173913043
 40
0.8695652173913043
 40
0.9130434782608695
 40
0.9130434782608695
 40
0.9130434782608695
 40
0.9130434782608695
 40
1.0
 40
1.0
 40
1.0
 40
1.0
 10
6.9827
 20
7.5891
 30
0.0
 10
6.9827
 20
7.5891
 30
0.0
 10
7.9529
 20
8.2025
 30
0.0
 10
7.9529
 20
8.2025
 30
0.0
 10
7.9529
 20
8.2025
 30
0.0
 10
7.9529
 20
8.2025
 30
0.0
 10
7.9778
 20
8.2214
 30
0.0
 10
7.9778
 20
8.2214
 30
0.0
 10
7.9778
 20
8.2214
 30
0.0
 10
7.9778
 20
8.2214
 30
0.0
 10
8.0019
 20
8.2465
 30
0.0
 10
8.0019
 20
8.2465
 30
0.0
 10
8.0019
 20
8.2465
 30
0.0
 10
8.0019
 20
8.2465
 30
0.0
 10
8.025
 20
8.2775
 30
0.0
 10
8.025
 20
8.2775
 30
0.0
 10
8.025
 20
8.2775
 30
0.0
 10
8.025
 20
8.2775
 30
0.0
 10
8.0469
 20
8.3143
 30
0.0
 10
8.0469
 20
8.3143
 30
0.0
 10
8.0469
 20
8.3143
 30
0.0
 10
8.0469
 20
8.3143
 30
0.0
 10
8.0673
 20
8.3563
 30
0.0
 10
8.0673
 20
8.3563
 30
0.0
 10
8.0673
 20
8.3563
 30
0.0
 10
8.0673
 20
8.3563
 30
0.0
 10
8.0862
 20
8.4034
 30
0.0
 10
8.0862
 20
8.4034
 30
0.0
 10
8.0862
 20
8.4034
 30
0.0
 10
8.0862
 20
8.4034
 30
0.0
 10
8.1033
 20
8.455
 30
0.0
 10
8.1033
 20
8.455
 30
0.0
 10
8.1033
 20
8.455
 30
0.0
 10
8.1033
 20
8.455
 30
0.0
 10
8.1184
 20
8.5106
 30
0.0
 10
8.1184
 20
8.5106
 30
0.0
 10
8.1184
 20
8.5106
 30
0.0
 10
8.1184
 20
8.5106
 30
0.0
 10
8.1315
 20
8.5699
 30
0.0
 10
8.1315
 20
8.5699
 30
0.0
 10
8.1315
 20
8.5699
 30
0.0
 10
8.1315
 20
8.5699
 30
0.0
 10
8.1424
 20
8.6321
 30
0.0
 10
8.1424
 20
8.6321
 30
0.0
 10
8.1424
 20
8.6321
 30
0.0
 10
8.1424
 20
8.6321
 30
0.0
 10
8.151
 20
8.6969
 30
0.0
 10
8.151
 20
8.6969
 30
0.0
 10
8.151
 20
8.6969
 30
0.0
 10
8.151
 20
8.6969
 30
0.0
 10
8.1573
 20
8.7635
 30
0.0
 10
8.1573
 20
8.7635
 30
0.0
 10
8.1573
 20
8.7635
 30
0.0
 10
8.1573
 20
8.7635
 30
0.0
 10
8.2021
 20
8.945
 30
0.0
 10
8.2021
 20
8.945
 30
0.0
 10
8.2021
 20
8.945
 30
0.0
 10
8.2021
 20
8.945
 30
0.0
 10
8.3295
 20
9.1361
 30
0.0
 10
8.3295
 20
9.1361
 30
0.0
 10
8.3295
 20
9.1361
 30
0.0
 10
8.3295
 20
9.1361
 30
0.0
 10
8.4842
 20
9.2362
 30
0.0
 10
8.4842
 20
9.2362
 30
0.0
 10
8.4842
 20
9.2362
 30
0.0
 10
8.4842
 20
9.2362
 30
0.0
 10
8.6389
 20
9.1998
 30
0.0
 10
8.6389
 20
9.1998
 30
0.0
 10
8.6389
 20
9.1998
 30
0.0
 10
8.6389
 20
9.1998
 30
0.0
 10
8.8027
 20
9.036
 30
0.0
 10
8.8027
 20
9.036
 30
0.0
 10
8.8027
 20
9.036
 30
0.0
 10
8.8027
 20
9.036
 30
0.0
 10
8.8027
 20
8.8813
 30
0.0
 10
8.8027
 20
8.8813
 30
0.0
 10
8.8027
 20
8.8813
 30
0.0
 10
8.8027
 20
8.8813
 30
0.0
 10
8.7572
 20
8.399
 30
0.0
 10
8.7572
 20
8.399
 30
0.0
 10
8.7572
 20
8.399
 30
0.0
 10
8.7572
 20
8.399
 30
0.0
 10
8.5934
 20
8.1988
 30
0.0
 10
8.5934
 20
8.1988
 30
0.0
 10
8.5934
 20
8.1988
 30
0.0
 10
8.5934
 20
8.1988
 30
0.0
 10
7.6743
 20
7.5982
 30
0.0
 10
7.6743
 20
7.5982
 30
0.0
  0
SPLINE
  5
8C
330
1F
100
AcDbEntity
  8
DEFAULT_1
 62
   250
100
AcDbSpline
210
0.0
220
0.0
230
1.0
 70
     8
 71
     3
 72
   100
 73
    96
 74
     0
 42
0.0000000001
 43
0.0000000001
 40
0.0
 40
0.0
 40
0.0
 40
0.0
 40
0.04
 40
0.04
 40
0.04
 40
0.04
 40
0.08
 40
0.08
 40
0.08
 40
0.08
 40
0.12
 40
0.12
 40
0.12
 40
0.12
 40
0.16
 40
0.16
 40
0.16
 40
0.16
 40
0.2
 40
0.2
 40
0.2
 40
0.2
 40
0.24
 40
0.24
 40
0.24
 40
0.24
 40
0.28
 40
0.28
 40
0.28
 40
0.28
 40
0.32
 40
0.32
 40
0.32
 40
0.32
 40
0.36
 40
0.36
 40
0.36
 40
0.36
 40
0.4
 40
0.4
 40
0.4
 40
0.4
 40
0.44
 40
0.44
 40
0.44
 40
0.44
 40
0.48
 40
0.48
 40
0.48
 40
0.48
 40
0.52
 40
0.52
 40
0.52
 40
0.52
 40
0.56
 40
0.56
 40
0.56
 40
0.56
 40
0.6
 40
0.6
 40
0.6
 40
0.6
 40
0.64
 40
0.64
 40
0.64
 40
0.64
 40
0.68
 40
0.68
 40
0.68
 40
0.68
 40
0.72
 40
0.72
 40
0.72
 40
0.72
 40
0.76
 40
0.76
 40
0.76
 40
0.76
 40
0.8
 40
0.8
 40
0.8
 40
0.8
 40
0.84
 40
0.84
 40
0.84
 40
0.84
 40
0.88
 40
0.88
 40
0.88
 40
0.88
 40
0.92
 40
0.92
 40
0.92
 40
0.92
 40
1.0
 40
1.0
 40
1.0
 40
1.0
 10
5.455
 20
7.521
 30
0.0
 10
5.455
 20
7.521
 30
0.0
 10
6.0706
 20
8.1658
 30
0.0
 10
6.0706
 20
8.1658
 30
0.0
 10
6.0706
 20
8.1658
 30
0.0
 10
6.0706
 20
8.1658
 30
0.0
 10
6.1593
 20
8.4937
 30
0.0
 10
6.1593
 20
8.4937
 30
0.0
 10
6.1593
 20
8.4937
 30
0.0
 10
6.1593
 20
8.4937
 30
0.0
 10
6.176
 20
8.7049
 30
0.0
 10
6.176
 20
8.7049
 30
0.0
 10
6.176
 20
8.7049
 30
0.0
 10
6.176
 20
8.7049
 30
0.0
 10
6.1777
 20
8.8407
 30
0.0
 10
6.1777
 20
8.8407
 30
0.0
 10
6.1777
 20
8.8407
 30
0.0
 10
6.1777
 20
8.8407
 30
0.0
 10
6.177
 20
8.8863
 30
0.0
 10
6.177
 20
8.8863
 30
0.0
 10
6.177
 20
8.8863
 30
0.0
 10
6.177
 20
8.8863
 30
0.0
 10
6.1709
 20
8.9313
 30
0.0
 10
6.1709
 20
8.9313
 30
0.0
 10
6.1709
 20
8.9313
 30
0.0
 10
6.1709
 20
8.9313
 30
0.0
 10
6.1593
 20
8.9748
 30
0.0
 10
6.1593
 20
8.9748
 30
0.0
 10
6.1593
 20
8.9748
 30
0.0
 10
6.1593
 20
8.9748
 30
0.0
 10
6.1425
 20
9.0162
 30
0.0
 10
6.1425
 20
9.0162
 30
0.0
 10
6.1425
 20
9.0162
 30
0.0
 10
6.1425
 20
9.0162
 30
0.0
 10
6.1208
 20
9.0546
 30
0.0
 10
6.1208
 20
9.0546
 30
0.0
 10
6.1208
 20
9.0546
 30
0.0
 10
6.1208
 20
9.0546
 30
0.0
 10
6.0947
 20
9.0895
 30
0.0
 10
6.0947
 20
9.0895
 30
0.0
 10
6.0947
 20
9.0895
 30
0.0
 10
6.0947
 20
9.0895
 30
0.0
 10
6.0644
 20
9.1203
 30
0.0
 10
6.0644
 20
9.1203
 30
0.0
 10
6.0644
 20
9.1203
 30
0.0
 10
6.0644
 20
9.1203
 30
0.0
 10
6.0307
 20
9.1467
 30
0.0
 10
6.0307
 20
9.1467
 30
0.0
 10
6.0307
 20
9.1467
 30
0.0
 10
6.0307
 20
9.1467
 30
0.0
 10
5.994
 20
9.1681
 30
0.0
 10
5.994
 20
9.1681
 30
0.0
 10
5.994
 20
9.1681
 30
0.0
 10
5.994
 20
9.1681
 30
0.0
 10
5.9549
 20
9.1844
 30
0.0
 10
5.9549
 20
9.1844
 30
0.0
 10
5.9549
 20
9.1844
 30
0.0
 10
5.9549
 20
9.1844
 30
0.0
 10
5.9141
 20
9.1953
 30
0.0
 10
5.9141
 20
9.1953
 30
0.0
 10
5.9141
 20
9.1953
 30
0.0
 10
5.9141
 20
9.1953
 30
0.0
 10
5.8719
 20
9.2008
 30
0.0
 10
5.8719
 20
9.2008
 30
0.0
 10
5.8719
 20
9.2008
 30
0.0
 10
5.8719
 20
9.2008
 30
0.0
 10
5.8507
 20
9.2015
 30
0.0
 10
5.8507
 20
9.2015
 30
0.0
 10
5.8507
 20
9.2015
 30
0.0
 10
5.8507
 20
9.2015
 30
0.0
 10
5.7102
 20
9.1496
 30
0.0
 10
5.7102
 20
9.1496
 30
0.0
 10
5.7102
 20
9.1496
 30
0.0
 10
5.7102
 20
9.1496
 30
0.0
 10
5.5604
 20
9.0496
 30
0.0
 10
5.5604
 20
9.0496
 30
0.0
 10
5.5604
 20
9.0496
 30
0.0
 10
5.5604
 20
9.0496
 30
0.0
 10
5.516
 20
8.9606
 30
0.0
 10
5.516
 20
8.9606
 30
0.0
 10
5.516
 20
8.9606
 30
0.0
 10
5.516
 20
8.9606
 30
0.0
 10
5.4994
 20
8.6994
 30
0.0
 10
5.4994
 20
8.6994
 30
0.0
 10
5.4994
 20
8.6994
 30
0.0
 10
5.4994
 20
8.6994
 30
0.0
 10
5.455
 20
8.2992
 30
0.0
 10
5.455
 20
8.2992
 30
0.0
 10
5.455
 20
8.2992
 30
0.0
 10
5.455
 20
8.2992
 30
0.0
 10
5.3941
 20
8.1602
 30
0.0
 10
5.3941
 20
8.1602
 30
0.0
 10
5.3941
 20
8.1602
 30
0.0
 10
5.3941
 20
8.1602
 30
0.0
 10
4.7841
 20
7.521
 30
0.0
 10
4.7841
 20
7.521
 30
0.0
  0
SPLINE
  5
8D
330
1F
100
AcDbEntity
  8
DEFAULT_1
 62
   250
100
AcDbSpline
210
0.0
220
0.0
230
1.0
 70
     8
 71
     3
 72
   100
 73
    96
 74
     0
 42
0.0000000001
 43
0.0000000001
 40
0.0
 40
0.0
 40
0.0
 40
0.0
 40
0.04
 40
0.04
 40
0.04
 40
0.04
 40
0.08
 40
0.08
 40
0.08
 40
0.08
 40
0.12
 40
0.12
 40
0.12
 40
0.12
 40
0.16
 40
0.16
 40
0.16
 40
0.16
 40
0.2
 40
0.2
 40
0.2
 40
0.2
 40
0.24
 40
0.24
 40
0.24
 40
0.24
 40
0.28
 40
0.28
 40
0.28
 40
0.28
 40
0.32
 40
0.32
 40
0.32
 40
0.32
 40
0.36
 40
0.36
 40
0.36
 40
0.36
 40
0.4
 40
0.4
 40
0.4
 40
0.4
 40
0.44
 40
0.44
 40
0.44
 40
0.44
 40
0.48
 40
0.48
 40
0.48
 40
0.48
 40
0.52
 40
0.52
 40
0.52
 40
0.52
 40
0.56
 40
0.56
 40
0.56
 40
0.56
 40
0.6
 40
0.6
 40
0.6
 40
0.6
 40
0.64
 40
0.64
 40
0.64
 40
0.64
 40
0.68
 40
0.68
 40
0.68
 40
0.68
 40
0.72
 40
0.72
 40
0.72
 40
0.72
 40
0.76
 40
0.76
 40
0.76
 40
0.76
 40
0.8
 40
0.8
 40
0.8
 40
0.8
 40
0.84
 40
0.84
 40
0.84
 40
0.84
 40
0.88
 40
0.88
 40
0.88
 40
0.88
 40
0.92
 40
0.92
 40
0.92
 40
0.92
 40
1.0
 40
1.0
 40
1.0
 40
1.0
 10
3.1652
 20
7.5696
 30
0.0
 10
3.1652
 20
7.5696
 30
0.0
 10
2.5494
 20
8.2144
 30
0.0
 10
2.5494
 20
8.2144
 30
0.0
 10
2.5494
 20
8.2144
 30
0.0
 10
2.5494
 20
8.2144
 30
0.0
 10
2.4607
 20
8.5423
 30
0.0
 10
2.4607
 20
8.5423
 30
0.0
 10
2.4607
 20
8.5423
 30
0.0
 10
2.4607
 20
8.5423
 30
0.0
 10
2.444
 20
8.7535
 30
0.0
 10
2.444
 20
8.7535
 30
0.0
 10
2.444
 20
8.7535
 30
0.0
 10
2.444
 20
8.7535
 30
0.0
 10
2.4423
 20
8.8893
 30
0.0
 10
2.4423
 20
8.8893
 30
0.0
 10
2.4423
 20
8.8893
 30
0.0
 10
2.4423
 20
8.8893
 30
0.0
 10
2.443
 20
8.9349
 30
0.0
 10
2.443
 20
8.9349
 30
0.0
 10
2.443
 20
8.9349
 30
0.0
 10
2.443
 20
8.9349
 30
0.0
 10
2.4491
 20
8.9799
 30
0.0
 10
2.4491
 20
8.9799
 30
0.0
 10
2.4491
 20
8.9799
 30
0.0
 10
2.4491
 20
8.9799
 30
0.0
 10
2.4607
 20
9.0234
 30
0.0
 10
2.4607
 20
9.0234
 30
0.0
 10
2.4607
 20
9.0234
 30
0.0
 10
2.4607
 20
9.0234
 30
0.0
 10
2.4775
 20
9.0648
 30
0.0
 10
2.4775
 20
9.0648
 30
0.0
 10
2.4775
 20
9.0648
 30
0.0
 10
2.4775
 20
9.0648
 30
0.0
 10
2.4992
 20
9.1032
 30
0.0
 10
2.4992
 20
9.1032
 30
0.0
 10
2.4992
 20
9.1032
 30
0.0
 10
2.4992
 20
9.1032
 30
0.0
 10
2.5254
 20
9.1381
 30
0.0
 10
2.5254
 20
9.1381
 30
0.0
 10
2.5254
 20
9.1381
 30
0.0
 10
2.5254
 20
9.1381
 30
0.0
 10
2.5556
 20
9.1689
 30
0.0
 10
2.5556
 20
9.1689
 30
0.0
 10
2.5556
 20
9.1689
 30
0.0
 10
2.5556
 20
9.1689
 30
0.0
 10
2.5894
 20
9.1953
 30
0.0
 10
2.5894
 20
9.1953
 30
0.0
 10
2.5894
 20
9.1953
 30
0.0
 10
2.5894
 20
9.1953
 30
0.0
 10
2.6261
 20
9.2167
 30
0.0
 10
2.6261
 20
9.2167
 30
0.0
 10
2.6261
 20
9.2167
 30
0.0
 10
2.6261
 20
9.2167
 30
0.0
 10
2.6652
 20
9.233
 30
0.0
 10
2.6652
 20
9.233
 30
0.0
 10
2.6652
 20
9.233
 30
0.0
 10
2.6652
 20
9.233
 30
0.0
 10
2.706
 20
9.2439
 30
0.0
 10
2.706
 20
9.2439
 30
0.0
 10
2.706
 20
9.2439
 30
0.0
 10
2.706
 20
9.2439
 30
0.0
 10
2.7482
 20
9.2494
 30
0.0
 10
2.7482
 20
9.2494
 30
0.0
 10
2.7482
 20
9.2494
 30
0.0
 10
2.7482
 20
9.2494
 30
0.0
 10
2.7694
 20
9.2501
 30
0.0
 10
2.7694
 20
9.2501
 30
0.0
 10
2.7694
 20
9.2501
 30
0.0
 10
2.7694
 20
9.2501
 30
0.0
 10
2.91
 20
9.1982
 30
0.0
 10
2.91
 20
9.1982
 30
0.0
 10
2.91
 20
9.1982
 30
0.0
 10
2.91
 20
9.1982
 30
0.0
 10
3.0598
 20
9.0982
 30
0.0
 10
3.0598
 20
9.0982
 30
0.0
 10
3.0598
 20
9.0982
 30
0.0
 10
3.0598
 20
9.0982
 30
0.0
 10
3.1042
 20
9.0092
 30
0.0
 10
3.1042
 20
9.0092
 30
0.0
 10
3.1042
 20
9.0092
 30
0.0
 10
3.1042
 20
9.0092
 30
0.0
 10
3.1208
 20
8.748
 30
0.0
 10
3.1208
 20
8.748
 30
0.0
 10
3.1208
 20
8.748
 30
0.0
 10
3.1208
 20
8.748
 30
0.0
 10
3.1652
 20
8.3478
 30
0.0
 10
3.1652
 20
8.3478
 30
0.0
 10
3.1652
 20
8.3478
 30
0.0
 10
3.1652
 20
8.3478
 30
0.0
 10
3.2262
 20
8.2088
 30
0.0
 10
3.2262
 20
8.2088
 30
0.0
 10
3.2262
 20
8.2088
 30
0.0
 10
3.2262
 20
8.2088
 30
0.0
 10
3.8364
 20
7.5696
 30
0.0
 10
3.8364
 20
7.5696
 30
0.0
  0
SPLINE
  5
8E
330
1F
100
AcDbEntity
  8
DEFAULT_1
 62
   250
100
AcDbSpline
210
0.0
220
0.0
230
1.0
 70
     8
 71
     3
 72
    96
 73
    92
 74
     0
 42
0.0000000001
 43
0.0000000001
 40
0.0
 40
0.0
 40
0.0
 40
0.0
 40
0.0416666666666667
 40
0.0416666666666667
 40
0.0416666666666667
 40
0.0416666666666667
 40
0.0833333333333333
 40
0.0833333333333333
 40
0.0833333333333333
 40
0.0833333333333333
 40
0.125
 40
0.125
 40
0.125
 40
0.125
 40
0.1666666666666667
 40
0.1666666666666667
 40
0.1666666666666667
 40
0.1666666666666667
 40
0.2083333333333333
 40
0.2083333333333333
 40
0.2083333333333333
 40
0.2083333333333333
 40
0.25
 40
0.25
 40
0.25
 40
0.25
 40
0.2916666666666667
 40
0.2916666666666667
 40
0.2916666666666667
 40
0.2916666666666667
 40
0.3333333333333333
 40
0.3333333333333333
 40
0.3333333333333333
 40
0.3333333333333333
 40
0.375
 40
0.375
 40
0.375
 40
0.375
 40
0.4166666666666667
 40
0.4166666666666667
 40
0.4166666666666667
 40
0.4166666666666667
 40
0.4583333333333333
 40
0.4583333333333333
 40
0.4583333333333333
 40
0.4583333333333333
 40
0.5
 40
0.5
 40
0.5
 40
0.5
 40
0.5416666666666666
 40
0.5416666666666666
 40
0.5416666666666666
 40
0.5416666666666666
 40
0.5833333333333334
 40
0.5833333333333334
 40
0.5833333333333334
 40
0.5833333333333334
 40
0.625
 40
0.625
 40
0.625
 40
0.625
 40
0.6666666666666666
 40
0.6666666666666666
 40
0.6666666666666666
 40
0.6666666666666666
 40
0.7083333333333334
 40
0.7083333333333334
 40
0.7083333333333334
 40
0.7083333333333334
 40
0.75
 40
0.75
 40
0.75
 40
0.75
 40
0.7916666666666666
 40
0.7916666666666666
 40
0.7916666666666666
 40
0.7916666666666666
 40
0.8333333333333334
 40
0.8333333333333334
 40
0.8333333333333334
 40
0.8333333333333334
 40
0.875
 40
0.875
 40
0.875
 40
0.875
 40
0.9166666666666666
 40
0.9166666666666666
 40
0.9166666666666666
 40
0.9166666666666666
 40
1.0
 40
1.0
 40
1.0
 40
1.0
 10
2.0239
 20
7.5972
 30
0.0
 10
2.0239
 20
7.5972
 30
0.0
 10
0.7547
 20
8.2235
 30
0.0
 10
0.7547
 20
8.2235
 30
0.0
 10
0.7547
 20
8.2235
 30
0.0
 10
0.7547
 20
8.2235
 30
0.0
 10
0.5037
 20
8.3975
 30
0.0
 10
0.5037
 20
8.3975
 30
0.0
 10
0.5037
 20
8.3975
 30
0.0
 10
0.5037
 20
8.3975
 30
0.0
 10
0.4019
 20
8.6721
 30
0.0
 10
0.4019
 20
8.6721
 30
0.0
 10
0.4019
 20
8.6721
 30
0.0
 10
0.4019
 20
8.6721
 30
0.0
 10
0.2671
 20
8.9421
 30
0.0
 10
0.2671
 20
8.9421
 30
0.0
 10
0.2671
 20
8.9421
 30
0.0
 10
0.2671
 20
8.9421
 30
0.0
 10
0.2584
 20
8.9907
 30
0.0
 10
0.2584
 20
8.9907
 30
0.0
 10
0.2584
 20
8.9907
 30
0.0
 10
0.2584
 20
8.9907
 30
0.0
 10
0.2458
 20
9.0386
 30
0.0
 10
0.2458
 20
9.0386
 30
0.0
 10
0.2458
 20
9.0386
 30
0.0
 10
0.2458
 20
9.0386
 30
0.0
 10
0.2298
 20
9.0849
 30
0.0
 10
0.2298
 20
9.0849
 30
0.0
 10
0.2298
 20
9.0849
 30
0.0
 10
0.2298
 20
9.0849
 30
0.0
 10
0.2105
 20
9.129
 30
0.0
 10
0.2105
 20
9.129
 30
0.0
 10
0.2105
 20
9.129
 30
0.0
 10
0.2105
 20
9.129
 30
0.0
 10
0.1884
 20
9.1699
 30
0.0
 10
0.1884
 20
9.1699
 30
0.0
 10
0.1884
 20
9.1699
 30
0.0
 10
0.1884
 20
9.1699
 30
0.0
 10
0.1638
 20
9.207
 30
0.0
 10
0.1638
 20
9.207
 30
0.0
 10
0.1638
 20
9.207
 30
0.0
 10
0.1638
 20
9.207
 30
0.0
 10
0.1373
 20
9.2398
 30
0.0
 10
0.1373
 20
9.2398
 30
0.0
 10
0.1373
 20
9.2398
 30
0.0
 10
0.1373
 20
9.2398
 30
0.0
 10
0.1092
 20
9.2679
 30
0.0
 10
0.1092
 20
9.2679
 30
0.0
 10
0.1092
 20
9.2679
 30
0.0
 10
0.1092
 20
9.2679
 30
0.0
 10
0.0802
 20
9.2907
 30
0.0
 10
0.0802
 20
9.2907
 30
0.0
 10
0.0802
 20
9.2907
 30
0.0
 10
0.0802
 20
9.2907
 30
0.0
 10
0.0506
 20
9.3081
 30
0.0
 10
0.0506
 20
9.3081
 30
0.0
 10
0.0506
 20
9.3081
 30
0.0
 10
0.0506
 20
9.3081
 30
0.0
 10
0.021
 20
9.3197
 30
0.0
 10
0.021
 20
9.3197
 30
0.0
 10
0.021
 20
9.3197
 30
0.0
 10
0.021
 20
9.3197
 30
0.0
 10
-0.0083
 20
9.3256
 30
0.0
 10
-0.0083
 20
9.3256
 30
0.0
 10
-0.0083
 20
9.3256
 30
0.0
 10
-0.0083
 20
9.3256
 30
0.0
 10
-0.0227
 20
9.3263
 30
0.0
 10
-0.0227
 20
9.3263
 30
0.0
 10
-0.0227
 20
9.3263
 30
0.0
 10
-0.0227
 20
9.3263
 30
0.0
 10
-0.1515
 20
9.2403
 30
0.0
 10
-0.1515
 20
9.2403
 30
0.0
 10
-0.1515
 20
9.2403
 30
0.0
 10
-0.1515
 20
9.2403
 30
0.0
 10
-0.2263
 20
9.0707
 30
0.0
 10
-0.2263
 20
9.0707
 30
0.0
 10
-0.2263
 20
9.0707
 30
0.0
 10
-0.2263
 20
9.0707
 30
0.0
 10
-0.1795
 20
8.6721
 30
0.0
 10
-0.1795
 20
8.6721
 30
0.0
 10
-0.1795
 20
8.6721
 30
0.0
 10
-0.1795
 20
8.6721
 30
0.0
 10
-0.0207
 20
8.363
 30
0.0
 10
-0.0207
 20
8.363
 30
0.0
 10
-0.0207
 20
8.363
 30
0.0
 10
-0.0207
 20
8.363
 30
0.0
 10
0.1568
 20
8.2434
 30
0.0
 10
0.1568
 20
8.2434
 30
0.0
 10
0.1568
 20
8.2434
 30
0.0
 10
0.1568
 20
8.2434
 30
0.0
 10
1.4228
 20
7.5488
 30
0.0
 10
1.4228
 20
7.5488
 30
0.0
  0
SPLINE
  5
8F
330
1F
100
AcDbEntity
  8
DEFAULT_1
 62
   250
100
AcDbSpline
210
0.0
220
0.0
230
1.0
 70
     8
 71
     3
 72
    96
 73
    92
 74
     0
 42
0.0000000001
 43
0.0000000001
 40
0.0
 40
0.0
 40
0.0
 40
0.0
 40
0.0416666666666667
 40
0.0416666666666667
 40
0.0416666666666667
 40
0.0416666666666667
 40
0.0833333333333333
 40
0.0833333333333333
 40
0.0833333333333333
 40
0.0833333333333333
 40
0.125
 40
0.125
 40
0.125
 40
0.125
 40
0.1666666666666667
 40
0.1666666666666667
 40
0.1666666666666667
 40
0.1666666666666667
 40
0.2083333333333333
 40
0.2083333333333333
 40
0.2083333333333333
 40
0.2083333333333333
 40
0.25
 40
0.25
 40
0.25
 40
0.25
 40
0.2916666666666667
 40
0.2916666666666667
 40
0.2916666666666667
 40
0.2916666666666667
 40
0.3333333333333333
 40
0.3333333333333333
 40
0.3333333333333333
 40
0.3333333333333333
 40
0.375
 40
0.375
 40
0.375
 40
0.375
 40
0.4166666666666667
 40
0.4166666666666667
 40
0.4166666666666667
 40
0.4166666666666667
 40
0.4583333333333333
 40
0.4583333333333333
 40
0.4583333333333333
 40
0.4583333333333333
 40
0.5
 40
0.5
 40
0.5
 40
0.5
 40
0.5416666666666666
 40
0.5416666666666666
 40
0.5416666666666666
 40
0.5416666666666666
 40
0.5833333333333334
 40
0.5833333333333334
 40
0.5833333333333334
 40
0.5833333333333334
 40
0.625
 40
0.625
 40
0.625
 40
0.625
 40
0.6666666666666666
 40
0.6666666666666666
 40
0.6666666666666666
 40
0.6666666666666666
 40
0.7083333333333334
 40
0.7083333333333334
 40
0.7083333333333334
 40
0.7083333333333334
 40
0.75
 40
0.75
 40
0.75
 40
0.75
 40
0.7916666666666666
 40
0.7916666666666666
 40
0.7916666666666666
 40
0.7916666666666666
 40
0.8333333333333334
 40
0.8333333333333334
 40
0.8333333333333334
 40
0.8333333333333334
 40
0.875
 40
0.875
 40
0.875
 40
0.875
 40
0.9166666666666666
 40
0.9166666666666666
 40
0.9166666666666666
 40
0.9166666666666666
 40
1.0
 40
1.0
 40
1.0
 40
1.0
 10
0.4931
 20
7.5777
 30
0.0
 10
0.4931
 20
7.5777
 30
0.0
 10
-1.3755
 20
8.2144
 30
0.0
 10
-1.3755
 20
8.2144
 30
0.0
 10
-1.3755
 20
8.2144
 30
0.0
 10
-1.3755
 20
8.2144
 30
0.0
 10
-1.6931
 20
8.3361
 30
0.0
 10
-1.6931
 20
8.3361
 30
0.0
 10
-1.6931
 20
8.3361
 30
0.0
 10
-1.6931
 20
8.3361
 30
0.0
 10
-1.8239
 20
8.6357
 30
0.0
 10
-1.8239
 20
8.6357
 30
0.0
 10
-1.8239
 20
8.6357
 30
0.0
 10
-1.8239
 20
8.6357
 30
0.0
 10
-1.8631
 20
8.8893
 30
0.0
 10
-1.8631
 20
8.8893
 30
0.0
 10
-1.8631
 20
8.8893
 30
0.0
 10
-1.8631
 20
8.8893
 30
0.0
 10
-1.8718
 20
8.9349
 30
0.0
 10
-1.8718
 20
8.9349
 30
0.0
 10
-1.8718
 20
8.9349
 30
0.0
 10
-1.8718
 20
8.9349
 30
0.0
 10
-1.8844
 20
8.9799
 30
0.0
 10
-1.8844
 20
8.9799
 30
0.0
 10
-1.8844
 20
8.9799
 30
0.0
 10
-1.8844
 20
8.9799
 30
0.0
 10
-1.9004
 20
9.0234
 30
0.0
 10
-1.9004
 20
9.0234
 30
0.0
 10
-1.9004
 20
9.0234
 30
0.0
 10
-1.9004
 20
9.0234
 30
0.0
 10
-1.9197
 20
9.0648
 30
0.0
 10
-1.9197
 20
9.0648
 30
0.0
 10
-1.9197
 20
9.0648
 30
0.0
 10
-1.9197
 20
9.0648
 30
0.0
 10
-1.9418
 20
9.1032
 30
0.0
 10
-1.9418
 20
9.1032
 30
0.0
 10
-1.9418
 20
9.1032
 30
0.0
 10
-1.9418
 20
9.1032
 30
0.0
 10
-1.9664
 20
9.1381
 30
0.0
 10
-1.9664
 20
9.1381
 30
0.0
 10
-1.9664
 20
9.1381
 30
0.0
 10
-1.9664
 20
9.1381
 30
0.0
 10
-1.9929
 20
9.1689
 30
0.0
 10
-1.9929
 20
9.1689
 30
0.0
 10
-1.9929
 20
9.1689
 30
0.0
 10
-1.9929
 20
9.1689
 30
0.0
 10
-2.021
 20
9.1953
 30
0.0
 10
-2.021
 20
9.1953
 30
0.0
 10
-2.021
 20
9.1953
 30
0.0
 10
-2.021
 20
9.1953
 30
0.0
 10
-2.05
 20
9.2167
 30
0.0
 10
-2.05
 20
9.2167
 30
0.0
 10
-2.05
 20
9.2167
 30
0.0
 10
-2.05
 20
9.2167
 30
0.0
 10
-2.0796
 20
9.233
 30
0.0
 10
-2.0796
 20
9.233
 30
0.0
 10
-2.0796
 20
9.233
 30
0.0
 10
-2.0796
 20
9.233
 30
0.0
 10
-2.1092
 20
9.2439
 30
0.0
 10
-2.1092
 20
9.2439
 30
0.0
 10
-2.1092
 20
9.2439
 30
0.0
 10
-2.1092
 20
9.2439
 30
0.0
 10
-2.1385
 20
9.2494
 30
0.0
 10
-2.1385
 20
9.2494
 30
0.0
 10
-2.1385
 20
9.2494
 30
0.0
 10
-2.1385
 20
9.2494
 30
0.0
 10
-2.1529
 20
9.2501
 30
0.0
 10
-2.1529
 20
9.2501
 30
0.0
 10
-2.1529
 20
9.2501
 30
0.0
 10
-2.1529
 20
9.2501
 30
0.0
 10
-2.2817
 20
9.1693
 30
0.0
 10
-2.2817
 20
9.1693
 30
0.0
 10
-2.2817
 20
9.1693
 30
0.0
 10
-2.2817
 20
9.1693
 30
0.0
 10
-2.3565
 20
9.0101
 30
0.0
 10
-2.3565
 20
9.0101
 30
0.0
 10
-2.3565
 20
9.0101
 30
0.0
 10
-2.3565
 20
9.0101
 30
0.0
 10
-2.3097
 20
8.6357
 30
0.0
 10
-2.3097
 20
8.6357
 30
0.0
 10
-2.3097
 20
8.6357
 30
0.0
 10
-2.3097
 20
8.6357
 30
0.0
 10
-2.1509
 20
8.3454
 30
0.0
 10
-2.1509
 20
8.3454
 30
0.0
 10
-2.1509
 20
8.3454
 30
0.0
 10
-2.1509
 20
8.3454
 30
0.0
 10
-1.9734
 20
8.2331
 30
0.0
 10
-1.9734
 20
8.2331
 30
0.0
 10
-1.9734
 20
8.2331
 30
0.0
 10
-1.9734
 20
8.2331
 30
0.0
 10
0.054
 20
7.5403
 30
0.0
 10
0.054
 20
7.5403
 30
0.0
  0
SPLINE
  5
90
330
1F
100
AcDbEntity
  8
DEFAULT_1
 62
   250
100
AcDbSpline
210
0.0
220
0.0
230
1.0
 70
     8
 71
     3
 72
    88
 73
    84
 74
     0
 42
0.0000000001
 43
0.0000000001
 40
0.0
 40
0.0
 40
0.0
 40
0.0
 40
0.0454545454545455
 40
0.0454545454545455
 40
0.0454545454545455
 40
0.0454545454545455
 40
0.0909090909090909
 40
0.0909090909090909
 40
0.0909090909090909
 40
0.0909090909090909
 40
0.1363636363636364
 40
0.1363636363636364
 40
0.1363636363636364
 40
0.1363636363636364
 40
0.1818181818181818
 40
0.1818181818181818
 40
0.1818181818181818
 40
0.1818181818181818
 40
0.2272727272727273
 40
0.2272727272727273
 40
0.2272727272727273
 40
0.2272727272727273
 40
0.2727272727272727
 40
0.2727272727272727
 40
0.2727272727272727
 40
0.2727272727272727
 40
0.3181818181818182
 40
0.3181818181818182
 40
0.3181818181818182
 40
0.3181818181818182
 40
0.3636363636363636
 40
0.3636363636363636
 40
0.3636363636363636
 40
0.3636363636363636
 40
0.4090909090909091
 40
0.4090909090909091
 40
0.4090909090909091
 40
0.4090909090909091
 40
0.4545454545454545
 40
0.4545454545454545
 40
0.4545454545454545
 40
0.4545454545454545
 40
0.5
 40
0.5
 40
0.5
 40
0.5
 40
0.5454545454545454
 40
0.5454545454545454
 40
0.5454545454545454
 40
0.5454545454545454
 40
0.5909090909090909
 40
0.5909090909090909
 40
0.5909090909090909
 40
0.5909090909090909
 40
0.6363636363636364
 40
0.6363636363636364
 40
0.6363636363636364
 40
0.6363636363636364
 40
0.6818181818181818
 40
0.6818181818181818
 40
0.6818181818181818
 40
0.6818181818181818
 40
0.7272727272727273
 40
0.7272727272727273
 40
0.7272727272727273
 40
0.7272727272727273
 40
0.7727272727272727
 40
0.7727272727272727
 40
0.7727272727272727
 40
0.7727272727272727
 40
0.8181818181818182
 40
0.8181818181818182
 40
0.8181818181818182
 40
0.8181818181818182
 40
0.8636363636363636
 40
0.8636363636363636
 40
0.8636363636363636
 40
0.8636363636363636
 40
0.9090909090909091
 40
0.9090909090909091
 40
0.9090909090909091
 40
0.9090909090909091
 40
1.0
 40
1.0
 40
1.0
 40
1.0
 10
-0.6187
 20
7.5777
 30
0.0
 10
-0.6187
 20
7.5777
 30
0.0
 10
-3.1506
 20
8.2799
 30
0.0
 10
-3.1506
 20
8.2799
 30
0.0
 10
-3.1506
 20
8.2799
 30
0.0
 10
-3.1506
 20
8.2799
 30
0.0
 10
-3.2627
 20
8.4297
 30
0.0
 10
-3.2627
 20
8.4297
 30
0.0
 10
-3.2627
 20
8.4297
 30
0.0
 10
-3.2627
 20
8.4297
 30
0.0
 10
-3.4309
 20
8.6731
 30
0.0
 10
-3.4309
 20
8.6731
 30
0.0
 10
-3.4309
 20
8.6731
 30
0.0
 10
-3.4309
 20
8.6731
 30
0.0
 10
-3.5523
 20
9.085
 30
0.0
 10
-3.5523
 20
9.085
 30
0.0
 10
-3.5523
 20
9.085
 30
0.0
 10
-3.5523
 20
9.085
 30
0.0
 10
-3.6458
 20
9.2067
 30
0.0
 10
-3.6458
 20
9.2067
 30
0.0
 10
-3.6458
 20
9.2067
 30
0.0
 10
-3.6458
 20
9.2067
 30
0.0
 10
-3.7299
 20
9.1787
 30
0.0
 10
-3.7299
 20
9.1787
 30
0.0
 10
-3.7299
 20
9.1787
 30
0.0
 10
-3.7299
 20
9.1787
 30
0.0
 10
-3.7672
 20
9.085
 30
0.0
 10
-3.7672
 20
9.085
 30
0.0
 10
-3.7672
 20
9.085
 30
0.0
 10
-3.7672
 20
9.085
 30
0.0
 10
-3.7209
 20
8.7635
 30
0.0
 10
-3.7209
 20
8.7635
 30
0.0
 10
-3.7209
 20
8.7635
 30
0.0
 10
-3.7209
 20
8.7635
 30
0.0
 10
-3.7058
 20
8.6969
 30
0.0
 10
-3.7058
 20
8.6969
 30
0.0
 10
-3.7058
 20
8.6969
 30
0.0
 10
-3.7058
 20
8.6969
 30
0.0
 10
-3.685
 20
8.6321
 30
0.0
 10
-3.685
 20
8.6321
 30
0.0
 10
-3.685
 20
8.6321
 30
0.0
 10
-3.685
 20
8.6321
 30
0.0
 10
-3.6586
 20
8.5699
 30
0.0
 10
-3.6586
 20
8.5699
 30
0.0
 10
-3.6586
 20
8.5699
 30
0.0
 10
-3.6586
 20
8.5699
 30
0.0
 10
-3.627
 20
8.5106
 30
0.0
 10
-3.627
 20
8.5106
 30
0.0
 10
-3.627
 20
8.5106
 30
0.0
 10
-3.627
 20
8.5106
 30
0.0
 10
-3.5904
 20
8.455
 30
0.0
 10
-3.5904
 20
8.455
 30
0.0
 10
-3.5904
 20
8.455
 30
0.0
 10
-3.5904
 20
8.455
 30
0.0
 10
-3.5492
 20
8.4034
 30
0.0
 10
-3.5492
 20
8.4034
 30
0.0
 10
-3.5492
 20
8.4034
 30
0.0
 10
-3.5492
 20
8.4034
 30
0.0
 10
-3.5037
 20
8.3563
 30
0.0
 10
-3.5037
 20
8.3563
 30
0.0
 10
-3.5037
 20
8.3563
 30
0.0
 10
-3.5037
 20
8.3563
 30
0.0
 10
-3.4543
 20
8.3143
 30
0.0
 10
-3.4543
 20
8.3143
 30
0.0
 10
-3.4543
 20
8.3143
 30
0.0
 10
-3.4543
 20
8.3143
 30
0.0
 10
-3.4015
 20
8.2775
 30
0.0
 10
-3.4015
 20
8.2775
 30
0.0
 10
-3.4015
 20
8.2775
 30
0.0
 10
-3.4015
 20
8.2775
 30
0.0
 10
-3.3457
 20
8.2465
 30
0.0
 10
-3.3457
 20
8.2465
 30
0.0
 10
-3.3457
 20
8.2465
 30
0.0
 10
-3.3457
 20
8.2465
 30
0.0
 10
-3.2875
 20
8.2214
 30
0.0
 10
-3.2875
 20
8.2214
 30
0.0
 10
-3.2875
 20
8.2214
 30
0.0
 10
-3.2875
 20
8.2214
 30
0.0
 10
-3.2275
 20
8.2025
 30
0.0
 10
-3.2275
 20
8.2025
 30
0.0
 10
-3.2275
 20
8.2025
 30
0.0
 10
-3.2275
 20
8.2025
 30
0.0
 10
-0.9457
 20
7.5028
 30
0.0
 10
-0.9457
 20
7.5028
 30
0.0
  0
SPLINE
  5
91
330
1F
100
AcDbEntity
  8
DEFAULT_1
 62
   250
100
AcDbSpline
210
0.0
220
0.0
230
1.0
 70
     8
 71
     3
 72
   100
 73
    96
 74
     0
 42
0.0000000001
 43
0.0000000001
 40
0.0
 40
0.0
 40
0.0
 40
0.0
 40
0.04
 40
0.04
 40
0.04
 40
0.04
 40
0.08
 40
0.08
 40
0.08
 40
0.08
 40
0.12
 40
0.12
 40
0.12
 40
0.12
 40
0.16
 40
0.16
 40
0.16
 40
0.16
 40
0.2
 40
0.2
 40
0.2
 40
0.2
 40
0.24
 40
0.24
 40
0.24
 40
0.24
 40
0.28
 40
0.28
 40
0.28
 40
0.28
 40
0.32
 40
0.32
 40
0.32
 40
0.32
 40
0.36
 40
0.36
 40
0.36
 40
0.36
 40
0.4
 40
0.4
 40
0.4
 40
0.4
 40
0.44
 40
0.44
 40
0.44
 40
0.44
 40
0.48
 40
0.48
 40
0.48
 40
0.48
 40
0.52
 40
0.52
 40
0.52
 40
0.52
 40
0.56
 40
0.56
 40
0.56
 40
0.56
 40
0.6
 40
0.6
 40
0.6
 40
0.6
 40
0.64
 40
0.64
 40
0.64
 40
0.64
 40
0.68
 40
0.68
 40
0.68
 40
0.68
 40
0.72
 40
0.72
 40
0.72
 40
0.72
 40
0.76
 40
0.76
 40
0.76
 40
0.76
 40
0.8
 40
0.8
 40
0.8
 40
0.8
 40
0.84
 40
0.84
 40
0.84
 40
0.84
 40
0.88
 40
0.88
 40
0.88
 40
0.88
 40
0.92
 40
0.92
 40
0.92
 40
0.92
 40
1.0
 40
1.0
 40
1.0
 40
1.0
 10
8.6682
 20
7.5805
 30
0.0
 10
8.6682
 20
7.5805
 30
0.0
 10
10.3357
 20
8.2104
 30
0.0
 10
10.3357
 20
8.2104
 30
0.0
 10
10.3357
 20
8.2104
 30
0.0
 10
10.3357
 20
8.2104
 30
0.0
 10
10.4579
 20
8.3328
 30
0.0
 10
10.4579
 20
8.3328
 30
0.0
 10
10.4579
 20
8.3328
 30
0.0
 10
10.4579
 20
8.3328
 30
0.0
 10
10.6151
 20
8.569
 30
0.0
 10
10.6151
 20
8.569
 30
0.0
 10
10.6151
 20
8.569
 30
0.0
 10
10.6151
 20
8.569
 30
0.0
 10
10.6959
 20
8.8893
 30
0.0
 10
10.6959
 20
8.8893
 30
0.0
 10
10.6959
 20
8.8893
 30
0.0
 10
10.6959
 20
8.8893
 30
0.0
 10
10.7039
 20
8.9349
 30
0.0
 10
10.7039
 20
8.9349
 30
0.0
 10
10.7039
 20
8.9349
 30
0.0
 10
10.7039
 20
8.9349
 30
0.0
 10
10.7164
 20
8.9799
 30
0.0
 10
10.7164
 20
8.9799
 30
0.0
 10
10.7164
 20
8.9799
 30
0.0
 10
10.7164
 20
8.9799
 30
0.0
 10
10.733
 20
9.0234
 30
0.0
 10
10.733
 20
9.0234
 30
0.0
 10
10.733
 20
9.0234
 30
0.0
 10
10.733
 20
9.0234
 30
0.0
 10
10.7535
 20
9.0648
 30
0.0
 10
10.7535
 20
9.0648
 30
0.0
 10
10.7535
 20
9.0648
 30
0.0
 10
10.7535
 20
9.0648
 30
0.0
 10
10.7774
 20
9.1032
 30
0.0
 10
10.7774
 20
9.1032
 30
0.0
 10
10.7774
 20
9.1032
 30
0.0
 10
10.7774
 20
9.1032
 30
0.0
 10
10.8043
 20
9.1381
 30
0.0
 10
10.8043
 20
9.1381
 30
0.0
 10
10.8043
 20
9.1381
 30
0.0
 10
10.8043
 20
9.1381
 30
0.0
 10
10.8337
 20
9.1689
 30
0.0
 10
10.8337
 20
9.1689
 30
0.0
 10
10.8337
 20
9.1689
 30
0.0
 10
10.8337
 20
9.1689
 30
0.0
 10
10.8651
 20
9.1953
 30
0.0
 10
10.8651
 20
9.1953
 30
0.0
 10
10.8651
 20
9.1953
 30
0.0
 10
10.8651
 20
9.1953
 30
0.0
 10
10.8979
 20
9.2167
 30
0.0
 10
10.8979
 20
9.2167
 30
0.0
 10
10.8979
 20
9.2167
 30
0.0
 10
10.8979
 20
9.2167
 30
0.0
 10
10.9316
 20
9.233
 30
0.0
 10
10.9316
 20
9.233
 30
0.0
 10
10.9316
 20
9.233
 30
0.0
 10
10.9316
 20
9.233
 30
0.0
 10
10.9657
 20
9.2439
 30
0.0
 10
10.9657
 20
9.2439
 30
0.0
 10
10.9657
 20
9.2439
 30
0.0
 10
10.9657
 20
9.2439
 30
0.0
 10
10.9765
 20
9.2463
 30
0.0
 10
10.9765
 20
9.2463
 30
0.0
 10
10.9765
 20
9.2463
 30
0.0
 10
10.9765
 20
9.2463
 30
0.0
 10
11.1301
 20
9.2427
 30
0.0
 10
11.1301
 20
9.2427
 30
0.0
 10
11.1301
 20
9.2427
 30
0.0
 10
11.1301
 20
9.2427
 30
0.0
 10
11.2
 20
9.1377
 30
0.0
 10
11.2
 20
9.1377
 30
0.0
 10
11.2
 20
9.1377
 30
0.0
 10
11.2
 20
9.1377
 30
0.0
 10
11.2524
 20
8.9452
 30
0.0
 10
11.2524
 20
8.9452
 30
0.0
 10
11.2524
 20
8.9452
 30
0.0
 10
11.2524
 20
8.9452
 30
0.0
 10
11.2262
 20
8.7265
 30
0.0
 10
11.2262
 20
8.7265
 30
0.0
 10
11.2262
 20
8.7265
 30
0.0
 10
11.2262
 20
8.7265
 30
0.0
 10
11.1301
 20
8.4378
 30
0.0
 10
11.1301
 20
8.4378
 30
0.0
 10
11.1301
 20
8.4378
 30
0.0
 10
11.1301
 20
8.4378
 30
0.0
 10
10.9905
 20
8.2629
 30
0.0
 10
10.9905
 20
8.2629
 30
0.0
 10
10.9905
 20
8.2629
 30
0.0
 10
10.9905
 20
8.2629
 30
0.0
 10
10.877
 20
8.1754
 30
0.0
 10
10.877
 20
8.1754
 30
0.0
 10
10.877
 20
8.1754
 30
0.0
 10
10.877
 20
8.1754
 30
0.0
 10
9.2357
 20
7.5805
 30
0.0
 10
9.2357
 20
7.5805
 30
0.0
  0
SPLINE
  5
92
330
1F
100
AcDbEntity
  8
DEFAULT_1
 62
   250
100
AcDbSpline
210
0.0
220
0.0
230
1.0
 70
     8
 71
     3
 72
    96
 73
    92
 74
     0
 42
0.0000000001
 43
0.0000000001
 40
0.0
 40
0.0
 40
0.0
 40
0.0
 40
0.0416666666666667
 40
0.0416666666666667
 40
0.0416666666666667
 40
0.0416666666666667
 40
0.0833333333333333
 40
0.0833333333333333
 40
0.0833333333333333
 40
0.0833333333333333
 40
0.125
 40
0.125
 40
0.125
 40
0.125
 40
0.1666666666666667
 40
0.1666666666666667
 40
0.1666666666666667
 40
0.1666666666666667
 40
0.2083333333333333
 40
0.2083333333333333
 40
0.2083333333333333
 40
0.2083333333333333
 40
0.25
 40
0.25
 40
0.25
 40
0.25
 40
0.2916666666666667
 40
0.2916666666666667
 40
0.2916666666666667
 40
0.2916666666666667
 40
0.3333333333333333
 40
0.3333333333333333
 40
0.3333333333333333
 40
0.3333333333333333
 40
0.375
 40
0.375
 40
0.375
 40
0.375
 40
0.4166666666666667
 40
0.4166666666666667
 40
0.4166666666666667
 40
0.4166666666666667
 40
0.4583333333333333
 40
0.4583333333333333
 40
0.4583333333333333
 40
0.4583333333333333
 40
0.5
 40
0.5
 40
0.5
 40
0.5
 40
0.5416666666666666
 40
0.5416666666666666
 40
0.5416666666666666
 40
0.5416666666666666
 40
0.5833333333333334
 40
0.5833333333333334
 40
0.5833333333333334
 40
0.5833333333333334
 40
0.625
 40
0.625
 40
0.625
 40
0.625
 40
0.6666666666666666
 40
0.6666666666666666
 40
0.6666666666666666
 40
0.6666666666666666
 40
0.7083333333333334
 40
0.7083333333333334
 40
0.7083333333333334
 40
0.7083333333333334
 40
0.75
 40
0.75
 40
0.75
 40
0.75
 40
0.7916666666666666
 40
0.7916666666666666
 40
0.7916666666666666
 40
0.7916666666666666
 40
0.8333333333333334
 40
0.8333333333333334
 40
0.8333333333333334
 40
0.8333333333333334
 40
0.875
 40
0.875
 40
0.875
 40
0.875
 40
0.9166666666666666
 40
0.9166666666666666
 40
0.9166666666666666
 40
0.9166666666666666
 40
1.0
 40
1.0
 40
1.0
 40
1.0
 10
10.0162
 20
7.5948
 30
0.0
 10
10.0162
 20
7.5948
 30
0.0
 10
12.186
 20
8.2025
 30
0.0
 10
12.186
 20
8.2025
 30
0.0
 10
12.186
 20
8.2025
 30
0.0
 10
12.186
 20
8.2025
 30
0.0
 10
12.2414
 20
8.2214
 30
0.0
 10
12.2414
 20
8.2214
 30
0.0
 10
12.2414
 20
8.2214
 30
0.0
 10
12.2414
 20
8.2214
 30
0.0
 10
12.2951
 20
8.2465
 30
0.0
 10
12.2951
 20
8.2465
 30
0.0
 10
12.2951
 20
8.2465
 30
0.0
 10
12.2951
 20
8.2465
 30
0.0
 10
12.3466
 20
8.2775
 30
0.0
 10
12.3466
 20
8.2775
 30
0.0
 10
12.3466
 20
8.2775
 30
0.0
 10
12.3466
 20
8.2775
 30
0.0
 10
12.3954
 20
8.3143
 30
0.0
 10
12.3954
 20
8.3143
 30
0.0
 10
12.3954
 20
8.3143
 30
0.0
 10
12.3954
 20
8.3143
 30
0.0
 10
12.4409
 20
8.3563
 30
0.0
 10
12.4409
 20
8.3563
 30
0.0
 10
12.4409
 20
8.3563
 30
0.0
 10
12.4409
 20
8.3563
 30
0.0
 10
12.4829
 20
8.4034
 30
0.0
 10
12.4829
 20
8.4034
 30
0.0
 10
12.4829
 20
8.4034
 30
0.0
 10
12.4829
 20
8.4034
 30
0.0
 10
12.521
 20
8.455
 30
0.0
 10
12.521
 20
8.455
 30
0.0
 10
12.521
 20
8.455
 30
0.0
 10
12.521
 20
8.455
 30
0.0
 10
12.5548
 20
8.5106
 30
0.0
 10
12.5548
 20
8.5106
 30
0.0
 10
12.5548
 20
8.5106
 30
0.0
 10
12.5548
 20
8.5106
 30
0.0
 10
12.5839
 20
8.5699
 30
0.0
 10
12.5839
 20
8.5699
 30
0.0
 10
12.5839
 20
8.5699
 30
0.0
 10
12.5839
 20
8.5699
 30
0.0
 10
12.6083
 20
8.6321
 30
0.0
 10
12.6083
 20
8.6321
 30
0.0
 10
12.6083
 20
8.6321
 30
0.0
 10
12.6083
 20
8.6321
 30
0.0
 10
12.6275
 20
8.6969
 30
0.0
 10
12.6275
 20
8.6969
 30
0.0
 10
12.6275
 20
8.6969
 30
0.0
 10
12.6275
 20
8.6969
 30
0.0
 10
12.6414
 20
8.7635
 30
0.0
 10
12.6414
 20
8.7635
 30
0.0
 10
12.6414
 20
8.7635
 30
0.0
 10
12.6414
 20
8.7635
 30
0.0
 10
12.7039
 20
9.029
 30
0.0
 10
12.7039
 20
9.029
 30
0.0
 10
12.7039
 20
9.029
 30
0.0
 10
12.7039
 20
9.029
 30
0.0
 10
12.7955
 20
9.1874
 30
0.0
 10
12.7955
 20
9.1874
 30
0.0
 10
12.7955
 20
9.1874
 30
0.0
 10
12.7955
 20
9.1874
 30
0.0
 10
12.9369
 20
9.2124
 30
0.0
 10
12.9369
 20
9.2124
 30
0.0
 10
12.9369
 20
9.2124
 30
0.0
 10
12.9369
 20
9.2124
 30
0.0
 10
13.0035
 20
9.1291
 30
0.0
 10
13.0035
 20
9.1291
 30
0.0
 10
13.0035
 20
9.1291
 30
0.0
 10
13.0035
 20
9.1291
 30
0.0
 10
13.0201
 20
8.979
 30
0.0
 10
13.0201
 20
8.979
 30
0.0
 10
13.0201
 20
8.979
 30
0.0
 10
13.0201
 20
8.979
 30
0.0
 10
13.0118
 20
8.7622
 30
0.0
 10
13.0118
 20
8.7622
 30
0.0
 10
13.0118
 20
8.7622
 30
0.0
 10
13.0118
 20
8.7622
 30
0.0
 10
12.9619
 20
8.5787
 30
0.0
 10
12.9619
 20
8.5787
 30
0.0
 10
12.9619
 20
8.5787
 30
0.0
 10
12.9619
 20
8.5787
 30
0.0
 10
12.8288
 20
8.362
 30
0.0
 10
12.8288
 20
8.362
 30
0.0
 10
12.8288
 20
8.362
 30
0.0
 10
12.8288
 20
8.362
 30
0.0
 10
12.6707
 20
8.1952
 30
0.0
 10
12.6707
 20
8.1952
 30
0.0
 10
12.6707
 20
8.1952
 30
0.0
 10
12.6707
 20
8.1952
 30
0.0
 10
10.4156
 20
7.5281
 30
0.0
 10
10.4156
 20
7.5281
 30
0.0
  0
SPLINE
  5
93
330
1F
100
AcDbEntity
  8
DEFAULT_1
 62
   250
100
AcDbSpline
210
0.0
220
0.0
230
1.0
 70
    11
 71
     3
 72
    92
 73
    88
 74
     0
 42
0.0000000001
 43
0.0000000001
 40
0.0
 40
0.0
 40
0.0
 40
0.0
 40
0.0434782608695652
 40
0.0434782608695652
 40
0.0434782608695652
 40
0.0434782608695652
 40
0.0869565217391304
 40
0.0869565217391304
 40
0.0869565217391304
 40
0.0869565217391304
 40
0.1304347826086956
 40
0.1304347826086956
 40
0.1304347826086956
 40
0.1304347826086956
 40
0.1739130434782609
 40
0.1739130434782609
 40
0.1739130434782609
 40
0.1739130434782609
 40
0.2173913043478261
 40
0.2173913043478261
 40
0.2173913043478261
 40
0.2173913043478261
 40
0.2608695652173913
 40
0.2608695652173913
 40
0.2608695652173913
 40
0.2608695652173913
 40
0.3043478260869565
 40
0.3043478260869565
 40
0.3043478260869565
 40
0.3043478260869565
 40
0.3478260869565217
 40
0.3478260869565217
 40
0.3478260869565217
 40
0.3478260869565217
 40
0.391304347826087
 40
0.391304347826087
 40
0.391304347826087
 40
0.391304347826087
 40
0.4347826086956522
 40
0.4347826086956522
 40
0.4347826086956522
 40
0.4347826086956522
 40
0.4782608695652174
 40
0.4782608695652174
 40
0.4782608695652174
 40
0.4782608695652174
 40
0.5217391304347826
 40
0.5217391304347826
 40
0.5217391304347826
 40
0.5217391304347826
 40
0.5652173913043478
 40
0.5652173913043478
 40
0.5652173913043478
 40
0.5652173913043478
 40
0.6086956521739131
 40
0.6086956521739131
 40
0.6086956521739131
 40
0.6086956521739131
 40
0.6521739130434783
 40
0.6521739130434783
 40
0.6521739130434783
 40
0.6521739130434783
 40
0.6956521739130435
 40
0.6956521739130435
 40
0.6956521739130435
 40
0.6956521739130435
 40
0.7391304347826086
 40
0.7391304347826086
 40
0.7391304347826086
 40
0.7391304347826086
 40
0.782608695652174
 40
0.782608695652174
 40
0.782608695652174
 40
0.782608695652174
 40
0.8260869565217391
 40
0.8260869565217391
 40
0.8260869565217391
 40
0.8260869565217391
 40
0.8695652173913043
 40
0.8695652173913043
 40
0.8695652173913043
 40
0.8695652173913043
 40
0.9130434782608695
 40
0.9130434782608695
 40
0.9130434782608695
 40
0.9130434782608695
 40
1.0
 40
1.0
 40
1.0
 40
1.0
 10
-16.2337
 20
-7.0638
 30
0.0
 10
-16.2337
 20
-7.0638
 30
0.0
 10
-16.2558
 20
-6.8032
 30
0.0
 10
-16.2558
 20
-6.8032
 30
0.0
 10
-16.2558
 20
-6.8032
 30
0.0
 10
-16.1288
 20
-6.7839
 30
0.0
 10
-16.0338
 20
-6.7392
 30
0.0
 10
-15.9698
 20
-6.6691
 30
0.0
 10
-15.9698
 20
-6.6691
 30
0.0
 10
-15.9058
 20
-6.5986
 30
0.0
 10
-15.8738
 20
-6.5139
 30
0.0
 10
-15.8738
 20
-6.4147
 30
0.0
 10
-15.8738
 20
-6.4147
 30
0.0
 10
-15.8738
 20
-6.2952
 30
0.0
 10
-15.919
 20
-6.1941
 30
0.0
 10
-16.0088
 20
-6.1118
 30
0.0
 10
-16.0088
 20
-6.1118
 30
0.0
 10
-16.0991
 20
-6.029
 30
0.0
 10
-16.2186
 20
-5.9876
 30
0.0
 10
-16.3672
 20
-5.9876
 30
0.0
 10
-16.3672
 20
-5.9876
 30
0.0
 10
-16.5088
 20
-5.9876
 30
0.0
 10
-16.6203
 20
-6.0271
 30
0.0
 10
-16.7021
 20
-6.1066
 30
0.0
 10
-16.7021
 20
-6.1066
 30
0.0
 10
-16.784
 20
-6.1861
 30
0.0
 10
-16.8249
 20
-6.29
 30
0.0
 10
-16.8249
 20
-6.4189
 30
0.0
 10
-16.8249
 20
-6.4189
 30
0.0
 10
-16.8249
 20
-6.4989
 30
0.0
 10
-16.8066
 20
-6.5708
 30
0.0
 10
-16.7704
 20
-6.6353
 30
0.0
 10
-16.7704
 20
-6.6353
 30
0.0
 10
-16.7341
 20
-6.6997
 30
0.0
 10
-16.6871
 20
-6.75
 30
0.0
 10
-16.6292
 20
-6.7867
 30
0.0
 10
-16.6292
 20
-6.7867
 30
0.0
 10
-16.6292
 20
-6.7867
 30
0.0
 10
-16.6593
 20
-7.0196
 30
0.0
 10
-16.6593
 20
-7.0196
 30
0.0
 10
-16.6593
 20
-7.0196
 30
0.0
 10
-16.6593
 20
-7.0196
 30
0.0
 10
-17.697
 20
-6.8239
 30
0.0
 10
-17.697
 20
-6.8239
 30
0.0
 10
-17.697
 20
-6.8239
 30
0.0
 10
-17.697
 20
-6.8239
 30
0.0
 10
-17.697
 20
-5.8192
 30
0.0
 10
-17.697
 20
-5.8192
 30
0.0
 10
-17.697
 20
-5.8192
 30
0.0
 10
-17.697
 20
-5.8192
 30
0.0
 10
-17.4599
 20
-5.8192
 30
0.0
 10
-17.4599
 20
-5.8192
 30
0.0
 10
-17.4599
 20
-5.8192
 30
0.0
 10
-17.4599
 20
-5.8192
 30
0.0
 10
-17.4599
 20
-6.6254
 30
0.0
 10
-17.4599
 20
-6.6254
 30
0.0
 10
-17.4599
 20
-6.6254
 30
0.0
 10
-17.4599
 20
-6.6254
 30
0.0
 10
-16.9171
 20
-6.7345
 30
0.0
 10
-16.9171
 20
-6.7345
 30
0.0
 10
-16.9171
 20
-6.7345
 30
0.0
 10
-17.0018
 20
-6.6132
 30
0.0
 10
-17.0441
 20
-6.4857
 30
0.0
 10
-17.0441
 20
-6.3526
 30
0.0
 10
-17.0441
 20
-6.3526
 30
0.0
 10
-17.0441
 20
-6.1762
 30
0.0
 10
-16.983
 20
-6.0276
 30
0.0
 10
-16.8607
 20
-5.9062
 30
0.0
 10
-16.8607
 20
-5.9062
 30
0.0
 10
-16.7384
 20
-5.7849
 30
0.0
 10
-16.5813
 20
-5.7242
 30
0.0
 10
-16.3894
 20
-5.7242
 30
0.0
 10
-16.3894
 20
-5.7242
 30
0.0
 10
-16.2064
 20
-5.7242
 30
0.0
 10
-16.0483
 20
-5.7778
 30
0.0
 10
-15.9152
 20
-5.8841
 30
0.0
 10
-15.9152
 20
-5.8841
 30
0.0
 10
-15.752
 20
-6.0139
 30
0.0
 10
-15.6702
 20
-6.1908
 30
0.0
 10
-15.6702
 20
-6.4147
 30
0.0
 10
-15.6702
 20
-6.4147
 30
0.0
 10
-15.6702
 20
-6.5986
 30
0.0
 10
-15.7214
 20
-6.7486
 30
0.0
 10
-15.8244
 20
-6.8648
 30
0.0
 10
-15.8244
 20
-6.8648
 30
0.0
 10
-15.9275
 20
-6.981
 30
0.0
 10
-16.0639
 20
-7.0473
 30
0.0
 10
-16.2337
 20
-7.0638
 30
0.0
  0
SPLINE
  5
94
330
1F
100
AcDbEntity
  8
DEFAULT_1
 62
   250
100
AcDbSpline
210
0.0
220
0.0
230
1.0
 70
    11
 71
     3
 72
    48
 73
    44
 74
     0
 42
0.0000000001
 43
0.0000000001
 40
0.0
 40
0.0
 40
0.0
 40
0.0
 40
0.0833333333333333
 40
0.0833333333333333
 40
0.0833333333333333
 40
0.0833333333333333
 40
0.1666666666666667
 40
0.1666666666666667
 40
0.1666666666666667
 40
0.1666666666666667
 40
0.25
 40
0.25
 40
0.25
 40
0.25
 40
0.3333333333333333
 40
0.3333333333333333
 40
0.3333333333333333
 40
0.3333333333333333
 40
0.4166666666666667
 40
0.4166666666666667
 40
0.4166666666666667
 40
0.4166666666666667
 40
0.5
 40
0.5
 40
0.5
 40
0.5
 40
0.5833333333333334
 40
0.5833333333333334
 40
0.5833333333333334
 40
0.5833333333333334
 40
0.6666666666666666
 40
0.6666666666666666
 40
0.6666666666666666
 40
0.6666666666666666
 40
0.75
 40
0.75
 40
0.75
 40
0.75
 40
0.8333333333333334
 40
0.8333333333333334
 40
0.8333333333333334
 40
0.8333333333333334
 40
1.0
 40
1.0
 40
1.0
 40
1.0
 10
-17.4599
 20
-5.4777
 30
0.0
 10
-17.4599
 20
-5.4777
 30
0.0
 10
-17.6984
 20
-5.4777
 30
0.0
 10
-17.6984
 20
-5.4777
 30
0.0
 10
-17.6984
 20
-5.4777
 30
0.0
 10
-17.6984
 20
-5.4777
 30
0.0
 10
-17.6984
 20
-4.1701
 30
0.0
 10
-17.6984
 20
-4.1701
 30
0.0
 10
-17.6984
 20
-4.1701
 30
0.0
 10
-17.6984
 20
-4.1701
 30
0.0
 10
-17.5055
 20
-4.1701
 30
0.0
 10
-17.5055
 20
-4.1701
 30
0.0
 10
-17.5055
 20
-4.1701
 30
0.0
 10
-17.3687
 20
-4.2985
 30
0.0
 10
-17.1866
 20
-4.426
 30
0.0
 10
-16.9599
 20
-4.5525
 30
0.0
 10
-16.9599
 20
-4.5525
 30
0.0
 10
-16.7332
 20
-4.6786
 30
0.0
 10
-16.4994
 20
-4.7764
 30
0.0
 10
-16.26
 20
-4.8451
 30
0.0
 10
-16.26
 20
-4.8451
 30
0.0
 10
-16.0907
 20
-4.8949
 30
0.0
 10
-15.9058
 20
-4.9264
 30
0.0
 10
-15.7045
 20
-4.9401
 30
0.0
 10
-15.7045
 20
-4.9401
 30
0.0
 10
-15.7045
 20
-4.9401
 30
0.0
 10
-15.7045
 20
-5.195
 30
0.0
 10
-15.7045
 20
-5.195
 30
0.0
 10
-15.7045
 20
-5.195
 30
0.0
 10
-15.8635
 20
-5.1922
 30
0.0
 10
-16.0554
 20
-5.1612
 30
0.0
 10
-16.2807
 20
-5.1014
 30
0.0
 10
-16.2807
 20
-5.1014
 30
0.0
 10
-16.5055
 20
-5.0417
 30
0.0
 10
-16.7228
 20
-4.9561
 30
0.0
 10
-16.9317
 20
-4.8446
 30
0.0
 10
-16.9317
 20
-4.8446
 30
0.0
 10
-17.1405
 20
-4.7327
 30
0.0
 10
-17.3169
 20
-4.6141
 30
0.0
 10
-17.4599
 20
-4.4881
 30
0.0
 10
-17.4599
 20
-4.4881
 30
0.0
 10
-17.4599
 20
-4.4881
 30
0.0
 10
-17.4599
 20
-5.4777
 30
0.0
 10
-17.4599
 20
-5.4777
 30
0.0
  0
ENDSEC
  0
SECTION
  2
OBJECTS
  0
DICTIONARY
  5
C
330
0
100
AcDbDictionary
  3
ACAD_GROUP
350
D
  3
ACAD_LAYOUT
350
1A
  3
ACAD_MATERIAL
350
3B
  3
ACAD_MLEADERSTYLE
350
B7
  3
ACAD_MLINESTYLE
350
17
  3
ACAD_PLOTSETTINGS
350
19
  3
ACAD_VISUALSTYLE
350
2A
  3
ACDBHEADERROUNDTRIPXREC
350
95
  3
ACDBVARIABLEDICTIONARY
350
B5
  0
DICTIONARY
  5
D
102
{ACAD_REACTORS
330
C
102
}
330
C
100
AcDbDictionary
  0
DICTIONARY
  5
1A
102
{ACAD_REACTORS
330
C
102
}
330
C
100
AcDbDictionary
  0
DICTIONARY
  5
3B
102
{ACAD_REACTORS
330
C
102
}
330
C
100
AcDbDictionary
  3
BYBLOCK
350
3D
  3
BYLAYER
350
3C
  3
GLOBAL
350
3E
  0
DICTIONARY
  5
B7
102
{ACAD_REACTORS
330
C
102
}
330
C
100
AcDbDictionary
  0
DICTIONARY
  5
17
102
{ACAD_REACTORS
330
C
102
}
330
C
100
AcDbDictionary
  3
STANDARD
350
18
  0
DICTIONARY
  5
19
102
{ACAD_REACTORS
330
C
102
}
330
C
100
AcDbDictionary
  0
DICTIONARY
  5
2A
102
{ACAD_REACTORS
330
C
102
}
330
C
100
AcDbDictionary
  3
2DWIREFRAME
350
2F
  3
3D_HIDDEN
350
31
  3
3DWIREFRAME
350
30
  3
BASIC
350
32
  3
BRIGHTEN
350
36
  3
COLORCHANGE
350
3A
  3
CONCEPTUAL
350
34
  3
DIM
350
35
  3
FACEPATTERN
350
39
  3
FLAT
350
2B
  3
FLATWITHEDGES
350
2C
  3
GOURAUD
350
2D
  3
GOURAUDWITHEDGES
350
2E
  3
LINEPATTERN
350
38
  3
REALISTIC
350
33
  3
THICKEN
350
37
  0
DICTIONARY
  5
95
102
{ACAD_REACTORS
330
C
102
}
330
C
100
AcDbDictionary
  3
CEPSNTYPE
350
9E
  3
DIMSTYLEDATA
350
B4
  3
FINGERPRINTGUID
350
9F
  3
HYPERLINKBASE
350
98
  3
INSUNITS
350
9D
  3
LAYOUTDICT
350
9A
  3
LWETCUNION
350
9C
  3
PLOTSETDICT
350
9B
  3
PSVPSCALE
350
A1
  3
PUCSBASE
350
A4
  3
PUCSORGBACK
350
AA
  3
PUCSORGBOTTOM
350
A6
  3
PUCSORGFRONT
350
A9
  3
PUCSORGLEFT
350
A7
  3
PUCSORGRIGHT
350
A8
  3
PUCSORGTOP
350
A5
  3
PUCSORTHOREF
350
A2
  3
PUCSORTHOVIEW
350
A3
  3
STYLESHEET
350
99
  3
TSTACKALIGN
350
96
  3
TSTACKSIZE
350
97
  3
UCSBASE
350
AD
  3
UCSORGBACK
350
B3
  3
UCSORGBOTTOM
350
AF
  3
UCSORGFRONT
350
B2
  3
UCSORGLEFT
350
B0
  3
UCSORGRIGHT
350
B1
  3
UCSORGTOP
350
AE
  3
UCSORTHOREF
350
AB
  3
UCSORTHOVIEW
350
AC
  3
VERSIONGUID
350
A0
  0
DICTIONARY
  5
B5
102
{ACAD_REACTORS
330
C
102
}
330
C
100
AcDbDictionary
  3
DIMASSOC
350
B8
  3
HIDETEXT
350
B9
  0
MATERIAL
  5
3D
102
{ACAD_REACTORS
330
3B
102
}
102
{ACAD_XDICTIONARY
360
BC
102
}
330
3B
100
AcDbMaterial
  1
ByBlock
  0
MATERIAL
  5
3C
102
{ACAD_REACTORS
330
3B
102
}
102
{ACAD_XDICTIONARY
360
BA
102
}
330
3B
100
AcDbMaterial
  1
ByLayer
  0
MATERIAL
  5
3E
102
{ACAD_REACTORS
330
3B
102
}
102
{ACAD_XDICTIONARY
360
BE
102
}
330
3B
100
AcDbMaterial
  1
Global
  0
MLINESTYLE
  5
18
102
{ACAD_REACTORS
330
17
102
}
330
17
100
AcDbMlineStyle
  2
Standard
 70
     0
  3

 62
   256
 51
90.0
 52
90.0
 71
     2
 49
0.5
 62
   256
  6
BYLAYER
 49
-0.5
 62
   256
  6
BYLAYER
  0
ACAD_PROXY_OBJECT
  5
2F
102
{ACAD_REACTORS
330
2A
102
}
330
2A
100
AcDbProxyObject
 90
      499
 91
      501
 93
      436
310
42CC9915DA5C99599C985B595049028333333333333E3BF0000000000000FB0107901411070040501600405405064090741402480A0340
1001
ACAD
1000
AcDbSavedByObjectVersion
1070
     0
  0
ACAD_PROXY_OBJECT
  5
31
102
{ACAD_REACTORS
330
2A
102
}
330
2A
100
AcDbProxyObject
 90
      499
 91
      501
 93
      500
310
424CD108121A5919195B90640502408333333333333E3BF0000000000000FB01079024090700405020000000000001110200405405064090740C02480A0340
1001
ACAD
1000
AcDbSavedByObjectVersion
1070
     0
  0
ACAD_PROXY_OBJECT
  5
30
102
{ACAD_REACTORS
330
2A
102
}
330
2A
100
AcDbProxyObject
 90
      499
 91
      501
 93
      436
310
42CCD915DA5C99599C985B595059028333333333333E3BF0000000000000FB0107901411070040501600405405064090741402480A0340
1001
ACAD
1000
AcDbSavedByObjectVersion
1070
     0
  0
ACAD_PROXY_OBJECT
  5
32
102
{ACAD_REACTORS
330
2A
102
}
330
2A
100
AcDbProxyObject
 90
      499
 91
      501
 93
      388
310
4150985CDA58D07406404333333333333E3BF0000000000000FB0107A41107004050150841D405064090741402480A0350
1001
ACAD
1000
AcDbSavedByObjectVersion
1070
     0
  0
ACAD_PROXY_OBJECT
  5
36
102
{ACAD_REACTORS
330
2A
102
}
330
2A
100
AcDbProxyObject
 90
      499
 91
      501
 93
      428
310
42109C9A59DA1D195B90C409028333333333333E3BF0000000000000FB010790141107004050150841D405064090741402480A029950
1001
ACAD
1000
AcDbSavedByObjectVersion
1070
     0
  0
ACAD_PROXY_OBJECT
  5
3A
102
{ACAD_REACTORS
330
2A
102
}
330
2A
100
AcDbProxyObject
 90
      499
 91
      501
 93
      452
310
42D0DBDB1BDC90DA185B99D95104090240C333333333333E3BF0000000000000FB0108901411070040501508421405064090741402480A0350
1001
ACAD
1000
AcDbSavedByObjectVersion
1070
     0
  0
ACAD_PROXY_OBJECT
  5
34
102
{ACAD_REACTORS
330
2A
102
}
330
2A
100
AcDbProxyObject
 90
      499
 91
      501
 93
      500
310
4290DBDB98D95C1D1D585B10940D028333333333333E3BF0000000000000FB0107902409070040501000000000000111010841D405064090740C02480A0340
1001
ACAD
1000
AcDbSavedByObjectVersion
1070
     0
  0
ACAD_PROXY_OBJECT
  5
35
102
{ACAD_REACTORS
330
2A
102
}
330
2A
100
AcDbProxyObject
 90
      499
 91
      501
 93
      412
310
40D11A5B50B409028333333333333E3BF0000000000000FB010790141107004050150841D405064090741402480A02677FFFFFD0
1001
ACAD
1000
AcDbSavedByObjectVersion
1070
     0
  0
ACAD_PROXY_OBJECT
  5
39
102
{ACAD_REACTORS
330
2A
102
}
330
2A
100
AcDbProxyObject
 90
      499
 91
      501
 93
      444
310
42D19858D95C185D1D195C9B90F409028333333333333E3BF0000000000000FB010790141107004050150841D405064090741402480A0350
1001
ACAD
1000
AcDbSavedByObjectVersion
1070
     0
  0
ACAD_PROXY_OBJECT
  5
2B
102
{ACAD_REACTORS
330
2A
102
}
330
2A
100
AcDbProxyObject
 90
      499
 91
      501
 93
      388
310
41119B185D240901404333333333333E3BF0000000000000F9010740A41107004050150841D405064090741402480A1B50
1001
ACAD
1000
AcDbSavedByObjectVersion
1070
     0
  0
ACAD_PROXY_OBJECT
  5
2C
102
{ACAD_REACTORS
330
2A
102
}
330
2A
100
AcDbProxyObject
 90
      499
 91
      501
 93
      476
310
43519B185D15DA5D1A115919D95CD0140901404333333333333E3BF0000000000000F9010740901411070040501600405405064090741402480A1B50
1001
ACAD
1000
AcDbSavedByObjectVersion
1070
     0
  0
ACAD_PROXY_OBJECT
  5
2D
102
{ACAD_REACTORS
330
2A
102
}
330
2A
100
AcDbProxyObject
 90
      499
 91
      501
 93
      412
310
41D1DBDD5C985D5910240902404333333333333E3BF0000000000000F9010740A411070040501641D405064090741402480A1B50
1001
ACAD
1000
AcDbSavedByObjectVersion
1070
     0
  0
ACAD_PROXY_OBJECT
  5
2E
102
{ACAD_REACTORS
330
2A
102
}
330
2A
100
AcDbProxyObject
 90
      499
 91
      501
 93
      500
310
4411DBDD5C985D5915DA5D1A115919D95CD0340902404333333333333E3BF0000000000000F9010740901411070040501600405405064090741402480A1B50
1001
ACAD
1000
AcDbSavedByObjectVersion
1070
     0
  0
ACAD_PROXY_OBJECT
  5
38
102
{ACAD_REACTORS
330
2A
102
}
330
2A
100
AcDbProxyObject
 90
      499
 91
      501
 93
      444
310
42D31A5B995C185D1D195C9B90E409028333333333333E3BF0000000000000FB010790141107004050750841D405064090741402483A0350
1001
ACAD
1000
AcDbSavedByObjectVersion
1070
     0
  0
ACAD_PROXY_OBJECT
  5
33
102
{ACAD_REACTORS
330
2A
102
}
330
2A
100
AcDbProxyObject
 90
      499
 91
      501
 93
      420
310
425499585B1A5CDD1A58D08409028333333333333E3BF0000000000000FB01079019070040501508421405064090741402480A1B40
1001
ACAD
1000
AcDbSavedByObjectVersion
1070
     0
  0
ACAD_PROXY_OBJECT
  5
37
102
{ACAD_REACTORS
330
2A
102
}
330
2A
100
AcDbProxyObject
 90
      499
 91
      501
 93
      412
310
41D51A1A58DAD95B90D409028333333333333E3BF0000000000000FB010790141107004050150C41D405064090741402480A0350
1001
ACAD
1000
AcDbSavedByObjectVersion
1070
     0
  0
XRECORD
  5
9E
102
{ACAD_REACTORS
330
95
102
}
330
95
100
AcDbXrecord
 90
        0
  0
XRECORD
  5
B4
102
{ACAD_REACTORS
330
95
102
}
330
95
100
AcDbXrecord
1000
DSTYLE
1002
{
1070
   340
340
11
1002
}
  0
XRECORD
  5
9F
102
{ACAD_REACTORS
330
95
102
}
330
95
100
AcDbXrecord
  1
{54C7B0FC-51B6-45C4-A70C-07810E3D5FC8}
  0
XRECORD
  5
98
102
{ACAD_REACTORS
330
95
102
}
330
95
100
AcDbXrecord
  1

  0
XRECORD
  5
9D
102
{ACAD_REACTORS
330
95
102
}
330
95
100
AcDbXrecord
 90
        4
  0
XRECORD
  5
9A
102
{ACAD_REACTORS
330
95
102
}
330
95
100
AcDbXrecord
340
1A
  0
XRECORD
  5
9C
102
{ACAD_REACTORS
330
95
102
}
330
95
100
AcDbXrecord
 90
    10781
  0
XRECORD
  5
9B
102
{ACAD_REACTORS
330
95
102
}
330
95
100
AcDbXrecord
340
19
  0
XRECORD
  5
A1
102
{ACAD_REACTORS
330
95
102
}
330
95
100
AcDbXrecord
 40
0.0
  0
XRECORD
  5
A4
102
{ACAD_REACTORS
330
95
102
}
330
95
100
AcDbXrecord
340
0
  0
XRECORD
  5
AA
102
{ACAD_REACTORS
330
95
102
}
330
95
100
AcDbXrecord
 10
0.0
 20
0.0
 30
0.0
  0
XRECORD
  5
A6
102
{ACAD_REACTORS
330
95
102
}
330
95
100
AcDbXrecord
 10
0.0
 20
0.0
 30
0.0
  0
XRECORD
  5
A9
102
{ACAD_REACTORS
330
95
102
}
330
95
100
AcDbXrecord
 10
0.0
 20
0.0
 30
0.0
  0
XRECORD
  5
A7
102
{ACAD_REACTORS
330
95
102
}
330
95
100
AcDbXrecord
 10
0.0
 20
0.0
 30
0.0
  0
XRECORD
  5
A8
102
{ACAD_REACTORS
330
95
102
}
330
95
100
AcDbXrecord
 10
0.0
 20
0.0
 30
0.0
  0
XRECORD
  5
A5
102
{ACAD_REACTORS
330
95
102
}
330
95
100
AcDbXrecord
 10
0.0
 20
0.0
 30
0.0
  0
XRECORD
  5
A2
102
{ACAD_REACTORS
330
95
102
}
330
95
100
AcDbXrecord
340
0
  0
XRECORD
  5
A3
102
{ACAD_REACTORS
330
95
102
}
330
95
100
AcDbXrecord
 70
     0
  0
XRECORD
  5
99
102
{ACAD_REACTORS
330
95
102
}
330
95
100
AcDbXrecord
  1

  0
XRECORD
  5
96
102
{ACAD_REACTORS
330
95
102
}
330
95
100
AcDbXrecord
 90
        1
  0
XRECORD
  5
97
102
{ACAD_REACTORS
330
95
102
}
330
95
100
AcDbXrecord
 90
       70
  0
XRECORD
  5
AD
102
{ACAD_REACTORS
330
95
102
}
330
95
100
AcDbXrecord
340
0
  0
XRECORD
  5
B3
102
{ACAD_REACTORS
330
95
102
}
330
95
100
AcDbXrecord
 10
0.0
 20
0.0
 30
0.0
  0
XRECORD
  5
AF
102
{ACAD_REACTORS
330
95
102
}
330
95
100
AcDbXrecord
 10
0.0
 20
0.0
 30
0.0
  0
XRECORD
  5
B2
102
{ACAD_REACTORS
330
95
102
}
330
95
100
AcDbXrecord
 10
0.0
 20
0.0
 30
0.0
  0
XRECORD
  5
B0
102
{ACAD_REACTORS
330
95
102
}
330
95
100
AcDbXrecord
 10
0.0
 20
0.0
 30
0.0
  0
XRECORD
  5
B1
102
{ACAD_REACTORS
330
95
102
}
330
95
100
AcDbXrecord
 10
0.0
 20
0.0
 30
0.0
  0
XRECORD
  5
AE
102
{ACAD_REACTORS
330
95
102
}
330
95
100
AcDbXrecord
 10
0.0
 20
0.0
 30
0.0
  0
XRECORD
  5
AB
102
{ACAD_REACTORS
330
95
102
}
330
95
100
AcDbXrecord
340
0
  0
XRECORD
  5
AC
102
{ACAD_REACTORS
330
95
102
}
330
95
100
AcDbXrecord
 70
     0
  0
XRECORD
  5
A0
102
{ACAD_REACTORS
330
95
102
}
330
95
100
AcDbXrecord
  1
{FAEB1C32-E019-11D5-929B-00C0DF256EC4}
  0
DICTIONARYVAR
  5
B8
102
{ACAD_REACTORS
330
B5
102
}
330
B5
100
DictionaryVariables
280
     0
  1
2
  0
DICTIONARYVAR
  5
B9
102
{ACAD_REACTORS
330
B5
102
}
330
B5
100
DictionaryVariables
280
     0
  1
1
  0
DICTIONARY
  5
BC
330
3D
100
AcDbDictionary
280
     1
  3
ACAD_XREC_ROUNDTRIP
360
BD
  0
DICTIONARY
  5
BA
330
3C
100
AcDbDictionary
280
     1
  3
ACAD_XREC_ROUNDTRIP
360
BB
  0
DICTIONARY
  5
BE
330
3E
100
AcDbDictionary
280
     1
  3
ACAD_XREC_ROUNDTRIP
360
BF
  0
XRECORD
  5
BD
102
{ACAD_REACTORS
330
BC
102
}
330
BC
100
AcDbXrecord
102
MATERIAL
148
0.0
149
0.0
149
0.0
 93
        0
 94
      127
282
     0
 72
     1
 77
     1
171
     1
175
     1
179
     1
273
     0
  0
XRECORD
  5
BB
102
{ACAD_REACTORS
330
BA
102
}
330
BA
100
AcDbXrecord
102
MATERIAL
148
0.0
149
0.0
149
0.0
 93
        0
 94
      127
282
     0
 72
     1
 77
     1
171
     1
175
     1
179
     1
273
     0
  0
XRECORD
  5
BF
102
{ACAD_REACTORS
330
BE
102
}
330
BE
100
AcDbXrecord
102
MATERIAL
148
0.0
149
0.0
149
0.0
 93
        0
 94
      127
282
     0
 72
     1
 77
     1
171
     1
175
     1
179
     1
273
     0
  0
ENDSEC
  0
EOF
