  0
SECTION
  2
HEADER
  9
$ACADVER
  1
AC1014
  9
$ACADMAINTVER
 70
     9
  9
$DWGCODEPAGE
  3
ANSI_1250
  9
$INSBASE
 10
0.0
 20
0.0
 30
0.0
  9
$EXTMIN
 10
-21.3206
 20
-30.4582
 30
0.0
  9
$EXTMAX
 10
21.2663
 20
30.4582
 30
0.0
  9
$LIMMIN
 10
0.0
 20
0.0
  9
$LIMMAX
 10
12.0
 20
9.0
  9
$ORTHOMODE
 70
     0
  9
$REGENMODE
 70
     1
  9
$FILLMODE
 70
     1
  9
$QTEXTMODE
 70
     0
  9
$MIRRTEXT
 70
     1
  9
$DRAGMODE
 70
     2
  9
$LTSCALE
 40
1.0
  9
$OSMODE
 70
    37
  9
$ATTMODE
 70
     1
  9
$TEXTSIZE
 40
0.2
  9
$TRACEWID
 40
0.05
  9
$TEXTSTYLE
  7
STANDARD
  9
$CLAYER
  8
0
  9
$CELTYPE
  6
BYLAYER
  9
$CECOLOR
 62
   256
  9
$CELTSCALE
 40
1.0
  9
$DELOBJ
 70
     1
  9
$DISPSILH
 70
     0
  9
$DIMSCALE
 40
1.0
  9
$DIMASZ
 40
0.18
  9
$DIMEXO
 40
0.0625
  9
$DIMDLI
 40
0.38
  9
$DIMRND
 40
0.0
  9
$DIMDLE
 40
0.0
  9
$DIMEXE
 40
0.18
  9
$DIMTP
 40
0.0
  9
$DIMTM
 40
0.0
  9
$DIMTXT
 40
0.18
  9
$DIMCEN
 40
0.09
  9
$DIMTSZ
 40
0.0
  9
$DIMTOL
 70
     0
  9
$DIMLIM
 70
     0
  9
$DIMTIH
 70
     1
  9
$DIMTOH
 70
     1
  9
$DIMSE1
 70
     0
  9
$DIMSE2
 70
     0
  9
$DIMTAD
 70
     0
  9
$DIMZIN
 70
     0
  9
$DIMBLK
  1

  9
$DIMASO
 70
     1
  9
$DIMSHO
 70
     1
  9
$DIMPOST
  1

  9
$DIMAPOST
  1

  9
$DIMALT
 70
     0
  9
$DIMALTD
 70
     2
  9
$DIMALTF
 40
25.4
  9
$DIMLFAC
 40
1.0
  9
$DIMTOFL
 70
     0
  9
$DIMTVP
 40
0.0
  9
$DIMTIX
 70
     0
  9
$DIMSOXD
 70
     0
  9
$DIMSAH
 70
     0
  9
$DIMBLK1
  1

  9
$DIMBLK2
  1

  9
$DIMSTYLE
  2
STANDARD
  9
$DIMCLRD
 70
     0
  9
$DIMCLRE
 70
     0
  9
$DIMCLRT
 70
     0
  9
$DIMTFAC
 40
1.0
  9
$DIMGAP
 40
0.09
  9
$DIMJUST
 70
     0
  9
$DIMSD1
 70
     0
  9
$DIMSD2
 70
     0
  9
$DIMTOLJ
 70
     1
  9
$DIMTZIN
 70
     0
  9
$DIMALTZ
 70
     0
  9
$DIMALTTZ
 70
     0
  9
$DIMFIT
 70
     3
  9
$DIMUPT
 70
     0
  9
$DIMUNIT
 70
     2
  9
$DIMDEC
 70
     4
  9
$DIMTDEC
 70
     4
  9
$DIMALTU
 70
     2
  9
$DIMALTTD
 70
     2
  9
$DIMTXSTY
  7
STANDARD
  9
$DIMAUNIT
 70
     0
  9
$LUNITS
 70
     2
  9
$LUPREC
 70
     4
  9
$SKETCHINC
 40
0.1
  9
$FILLETRAD
 40
0.5
  9
$AUNITS
 70
     0
  9
$AUPREC
 70
     0
  9
$MENU
  1
.
  9
$ELEVATION
 40
0.0
  9
$PELEVATION
 40
0.0
  9
$THICKNESS
 40
0.0
  9
$LIMCHECK
 70
     0
  9
$CHAMFERA
 40
0.5
  9
$CHAMFERB
 40
0.5
  9
$CHAMFERC
 40
1.0
  9
$CHAMFERD
 40
0.0
  9
$SKPOLY
 70
     0
  9
$TDCREATE
 40
2456266.385110289
  9
$TDUPDATE
 40
2456266.385110301
  9
$TDINDWG
 40
0.0000000116
  9
$TDUSRTIMER
 40
0.0000000116
  9
$USRTIMER
 70
     1
  9
$ANGBASE
 50
0.0
  9
$ANGDIR
 70
     0
  9
$PDMODE
 70
     0
  9
$PDSIZE
 40
0.0
  9
$PLINEWID
 40
0.0
  9
$COORDS
 70
     1
  9
$SPLFRAME
 70
     0
  9
$SPLINETYPE
 70
     6
  9
$SPLINESEGS
 70
     8
  9
$ATTDIA
 70
     0
  9
$ATTREQ
 70
     1
  9
$HANDLING
 70
     1
  9
$HANDSEED
  5
16E
  9
$SURFTAB1
 70
     6
  9
$SURFTAB2
 70
     6
  9
$SURFTYPE
 70
     6
  9
$SURFU
 70
     6
  9
$SURFV
 70
     6
  9
$UCSNAME
  2

  9
$UCSORG
 10
0.0
 20
0.0
 30
0.0
  9
$UCSXDIR
 10
1.0
 20
0.0
 30
0.0
  9
$UCSYDIR
 10
0.0
 20
1.0
 30
0.0
  9
$PUCSNAME
  2

  9
$PUCSORG
 10
0.0
 20
0.0
 30
0.0
  9
$PUCSXDIR
 10
1.0
 20
0.0
 30
0.0
  9
$PUCSYDIR
 10
0.0
 20
1.0
 30
0.0
  9
$USERI1
 70
     0
  9
$USERI2
 70
     0
  9
$USERI3
 70
     0
  9
$USERI4
 70
     0
  9
$USERI5
 70
     0
  9
$USERR1
 40
0.0
  9
$USERR2
 40
0.0
  9
$USERR3
 40
0.0
  9
$USERR4
 40
0.0
  9
$USERR5
 40
0.0
  9
$WORLDVIEW
 70
     1
  9
$SHADEDGE
 70
     3
  9
$SHADEDIF
 70
    70
  9
$TILEMODE
 70
     1
  9
$MAXACTVP
 70
    64
  9
$PINSBASE
 10
0.0
 20
0.0
 30
0.0
  9
$PLIMCHECK
 70
     0
  9
$PEXTMIN
 10
1.000000000000000E+20
 20
1.000000000000000E+20
 30
1.000000000000000E+20
  9
$PEXTMAX
 10
-1.000000000000000E+20
 20
-1.000000000000000E+20
 30
-1.000000000000000E+20
  9
$PLIMMIN
 10
0.0
 20
0.0
  9
$PLIMMAX
 10
12.0
 20
9.0
  9
$UNITMODE
 70
     0
  9
$VISRETAIN
 70
     1
  9
$PLINEGEN
 70
     0
  9
$PSLTSCALE
 70
     1
  9
$TREEDEPTH
 70
  3020
  9
$PICKSTYLE
 70
     1
  9
$CMLSTYLE
  2
STANDARD
  9
$CMLJUST
 70
     0
  9
$CMLSCALE
 40
1.0
  9
$PROXYGRAPHICS
 70
     1
  9
$MEASUREMENT
 70
     0
  0
ENDSEC
  0
SECTION
  2
CLASSES
  0
CLASS
  1
ACDBDICTIONARYWDFLT
  2
AcDbDictionaryWithDefault
  3
ObjectDBX Classes
 90
        0
280
     0
281
     0
  0
CLASS
  1
VISUALSTYLE
  2
AcDbVisualStyle
  3
ObjectDBX Classes
 90
     4095
280
     0
281
     0
  0
CLASS
  1
MATERIAL
  2
AcDbMaterial
  3
ObjectDBX Classes
 90
     1153
280
     0
281
     0
  0
CLASS
  1
DICTIONARYVAR
  2
AcDbDictionaryVar
  3
ObjectDBX Classes
 90
        0
280
     0
281
     0
  0
CLASS
  1
XRECORD
  2
AcDbXrecord
  3
AutoCAD 2000
 90
        0
280
     0
281
     0
  0
CLASS
  1
LWPOLYLINE
  2
AcDbPolyline
  3
AutoCAD 2000
 90
        0
280
     0
281
     1
  0
CLASS
  1
HATCH
  2
AcDbHatch
  3
AutoCAD 2000
 90
        0
280
     0
281
     1
  0
CLASS
  1
ACDBPLACEHOLDER
  2
AcDbPlaceHolder
  3
ObjectDBX Classes
 90
        0
280
     0
281
     0
  0
CLASS
  1
LAYOUT
  2
AcDbLayout
  3
ObjectDBX Classes
 90
        0
280
     0
281
     0
  0
ENDSEC
  0
SECTION
  2
TABLES
  0
TABLE
  2
VPORT
  5
8
330
0
100
AcDbSymbolTable
 70
     1
  0
VPORT
  5
29
330
8
100
AcDbSymbolTableRecord
100
AcDbViewportTableRecord
  2
*ACTIVE
 70
     0
 10
0.0
 20
0.0
 11
1.0
 21
1.0
 12
10.42990654205607
 22
4.5
 13
0.0
 23
0.0
 14
0.5
 24
0.5
 15
0.5
 25
0.5
 16
0.0
 26
0.0
 36
1.0
 17
0.0
 27
0.0
 37
0.0
 40
9.0
 41
1.972972972850329
 42
50.0
 43
0.0
 44
0.0
 50
0.0
 51
0.0
 71
     0
 72
   100
 73
     1
 74
     3
 75
     0
 76
     0
 77
     0
 78
     0
  0
ENDTAB
  0
TABLE
  2
LTYPE
  5
5
330
0
100
AcDbSymbolTable
 70
     6
  0
LTYPE
  5
14
330
5
100
AcDbSymbolTableRecord
100
AcDbLinetypeTableRecord
  2
BYBLOCK
 70
     0
  3

 72
    65
 73
     0
 40
0.0
  0
LTYPE
  5
15
330
5
100
AcDbSymbolTableRecord
100
AcDbLinetypeTableRecord
  2
BYLAYER
 70
     0
  3

 72
    65
 73
     0
 40
0.0
  0
LTYPE
  5
16
330
5
100
AcDbSymbolTableRecord
100
AcDbLinetypeTableRecord
  2
CONTINUOUS
 70
     0
  3
Solid line
 72
    65
 73
     0
 40
0.0
  0
LTYPE
  5
112
330
5
100
AcDbSymbolTableRecord
100
AcDbLinetypeTableRecord
  2
NEW_LINE1
 70
     0
  3

 72
    65
 73
     4
 40
1.2
 49
0.5
 74
     4
 75
     0
340
0
 46
1.0
 50
0.0
 44
0.0
 45
0.0
 49
-0.3
 74
     4
 75
     0
340
0
 46
1.0
 50
0.0
 44
0.0
 45
0.0
 49
0.1
 74
     4
 75
     0
340
0
 46
1.0
 50
0.0
 44
0.0
 45
0.0
 49
-0.3
 74
     4
 75
     0
340
0
 46
1.0
 50
0.0
 44
0.0
 45
0.0
  0
LTYPE
  5
114
330
5
100
AcDbSymbolTableRecord
100
AcDbLinetypeTableRecord
  2
NEW_LINE2
 70
     0
  3

 72
    65
 73
     4
 40
1.2
 49
0.5
 74
     4
 75
     0
340
0
 46
1.0
 50
0.0
 44
0.0
 45
0.0
 49
-0.3
 74
     4
 75
     0
340
0
 46
1.0
 50
0.0
 44
0.0
 45
0.0
 49
0.1
 74
     4
 75
     0
340
0
 46
1.0
 50
0.0
 44
0.0
 45
0.0
 49
-0.3
 74
     4
 75
     0
340
0
 46
1.0
 50
0.0
 44
0.0
 45
0.0
  0
LTYPE
  5
116
330
5
100
AcDbSymbolTableRecord
100
AcDbLinetypeTableRecord
  2
NEW_LINE3
 70
     0
  3

 72
    65
 73
     4
 40
1.2
 49
0.5
 74
     4
 75
     0
340
0
 46
1.0
 50
0.0
 44
0.0
 45
0.0
 49
-0.3
 74
     4
 75
     0
340
0
 46
1.0
 50
0.0
 44
0.0
 45
0.0
 49
0.1
 74
     4
 75
     0
340
0
 46
1.0
 50
0.0
 44
0.0
 45
0.0
 49
-0.3
 74
     4
 75
     0
340
0
 46
1.0
 50
0.0
 44
0.0
 45
0.0
  0
LTYPE
  5
118
330
5
100
AcDbSymbolTableRecord
100
AcDbLinetypeTableRecord
  2
NEW_LINE4
 70
     0
  3

 72
    65
 73
     4
 40
1.2
 49
0.5
 74
     4
 75
     0
340
0
 46
1.0
 50
0.0
 44
0.0
 45
0.0
 49
-0.3
 74
     4
 75
     0
340
0
 46
1.0
 50
0.0
 44
0.0
 45
0.0
 49
0.1
 74
     4
 75
     0
340
0
 46
1.0
 50
0.0
 44
0.0
 45
0.0
 49
-0.3
 74
     4
 75
     0
340
0
 46
1.0
 50
0.0
 44
0.0
 45
0.0
  0
LTYPE
  5
11A
330
5
100
AcDbSymbolTableRecord
100
AcDbLinetypeTableRecord
  2
NEW_LINE5
 70
     0
  3

 72
    65
 73
     4
 40
1.2
 49
0.5
 74
     4
 75
     0
340
0
 46
1.0
 50
0.0
 44
0.0
 45
0.0
 49
-0.3
 74
     4
 75
     0
340
0
 46
1.0
 50
0.0
 44
0.0
 45
0.0
 49
0.1
 74
     4
 75
     0
340
0
 46
1.0
 50
0.0
 44
0.0
 45
0.0
 49
-0.3
 74
     4
 75
     0
340
0
 46
1.0
 50
0.0
 44
0.0
 45
0.0
  0
ENDTAB
  0
TABLE
  2
LAYER
  5
2
330
0
100
AcDbSymbolTable
 70
     2
  0
LAYER
  5
10
330
2
100
AcDbSymbolTableRecord
100
AcDbLayerTableRecord
  2
0
 70
     0
 62
     7
  6
CONTINUOUS
  0
LAYER
  5
40
330
2
100
AcDbSymbolTableRecord
100
AcDbLayerTableRecord
  2
DEFAULT_1
 70
     0
 62
     7
  6
CONTINUOUS
  0
ENDTAB
  0
TABLE
  2
STYLE
  5
3
330
0
100
AcDbSymbolTable
 70
     1
  0
STYLE
  5
11
330
3
100
AcDbSymbolTableRecord
100
AcDbTextStyleTableRecord
  2
STANDARD
 70
     0
 40
0.0
 41
1.0
 50
0.0
 71
     0
 42
0.2
  3
txt
  4

  0
ENDTAB
  0
TABLE
  2
VIEW
  5
6
330
0
100
AcDbSymbolTable
 70
     0
  0
ENDTAB
  0
TABLE
  2
UCS
  5
7
330
0
100
AcDbSymbolTable
 70
     0
  0
ENDTAB
  0
TABLE
  2
APPID
  5
9
330
0
100
AcDbSymbolTable
 70
     2
  0
APPID
  5
12
330
9
100
AcDbSymbolTableRecord
100
AcDbRegAppTableRecord
  2
ACAD
 70
     0
  0
APPID
  5
3F
330
9
100
AcDbSymbolTableRecord
100
AcDbRegAppTableRecord
  2
ODA
 70
     0
  0
ENDTAB
  0
TABLE
  2
DIMSTYLE
  5
A
330
0
100
AcDbSymbolTable
 70
     1
  0
DIMSTYLE
105
27
330
A
100
AcDbSymbolTableRecord
100
AcDbDimStyleTableRecord
  2
STANDARD
 70
     0
  3

  4

  5

  6

  7

 40
1.0
 41
0.18
 42
0.0625
 43
0.38
 44
0.18
 45
0.0
 46
0.0
 47
0.0
 48
0.0
140
0.18
141
0.09
142
0.0
143
25.4
144
1.0
145
0.0
146
1.0
147
0.09
 71
     0
 72
     0
 73
     1
 74
     1
 75
     0
 76
     0
 77
     0
 78
     0
170
     0
171
     2
172
     0
173
     0
174
     0
175
     0
176
     0
177
     0
178
     0
270
     2
271
     4
272
     4
273
     2
274
     2
340
11
275
     0
280
     0
281
     0
282
     0
283
     1
284
     0
285
     0
286
     0
287
     3
288
     0
  0
ENDTAB
  0
TABLE
  2
BLOCK_RECORD
  5
1
330
0
100
AcDbSymbolTable
 70
     1
  0
BLOCK_RECORD
  5
1F
330
1
100
AcDbSymbolTableRecord
100
AcDbBlockTableRecord
  2
*MODEL_SPACE
  0
BLOCK_RECORD
  5
1B
330
1
100
AcDbSymbolTableRecord
100
AcDbBlockTableRecord
  2
*PAPER_SPACE
  0
ENDTAB
  0
ENDSEC
  0
SECTION
  2
BLOCKS
  0
BLOCK
  5
20
330
1F
100
AcDbEntity
  8
0
100
AcDbBlockBegin
  2
*MODEL_SPACE
 70
     0
 10
0.0
 20
0.0
 30
0.0
  3
*MODEL_SPACE
  1

  0
ENDBLK
  5
21
330
1F
100
AcDbEntity
  8
0
100
AcDbBlockEnd
  0
BLOCK
  5
1C
330
1B
100
AcDbEntity
 67
     1
  8
0
100
AcDbBlockBegin
  2
*PAPER_SPACE
 70
     0
 10
0.0
 20
0.0
 30
0.0
  3
*PAPER_SPACE
  1

  0
ENDBLK
  5
1D
330
1B
100
AcDbEntity
 67
     1
  8
0
100
AcDbBlockEnd
  0
ENDSEC
  0
SECTION
  2
ENTITIES
  0
SPLINE
  5
41
330
1F
100
AcDbEntity
  8
DEFAULT_1
 62
   250
100
AcDbSpline
210
0.0
220
0.0
230
1.0
 70
    24
 71
     3
 72
     8
 73
     4
 74
     0
 42
0.0000000001
 43
0.0000000001
 40
0.0
 40
0.0
 40
0.0
 40
0.0
 40
1.0
 40
1.0
 40
1.0
 40
1.0
 10
-8.7676
 20
20.3779
 30
0.0
 10
-8.7676
 20
20.3779
 30
0.0
 10
-8.7676
 20
23.5373
 30
0.0
 10
-8.7676
 20
23.5373
 30
0.0
  0
SPLINE
  5
42
330
1F
100
AcDbEntity
  8
DEFAULT_1
 62
   250
100
AcDbSpline
210
0.0
220
0.0
230
1.0
 70
    24
 71
     3
 72
     8
 73
     4
 74
     0
 42
0.0000000001
 43
0.0000000001
 40
0.0
 40
0.0
 40
0.0
 40
0.0
 40
1.0
 40
1.0
 40
1.0
 40
1.0
 10
-0.5867
 20
20.4489
 30
0.0
 10
-0.5867
 20
20.4489
 30
0.0
 10
-0.5867
 20
23.4663
 30
0.0
 10
-0.5867
 20
23.4663
 30
0.0
  0
SPLINE
  5
43
330
1F
100
AcDbEntity
  8
DEFAULT_1
 62
   250
100
AcDbSpline
210
0.0
220
0.0
230
1.0
 70
    24
 71
     3
 72
     8
 73
     4
 74
     0
 42
0.0000000001
 43
0.0000000001
 40
0.0
 40
0.0
 40
0.0
 40
0.0
 40
1.0
 40
1.0
 40
1.0
 40
1.0
 10
4.2263
 20
22.9405
 30
0.0
 10
4.2263
 20
22.9405
 30
0.0
 10
-13.6735
 20
22.9405
 30
0.0
 10
-13.6735
 20
22.9405
 30
0.0
  0
SPLINE
  5
44
330
1F
100
AcDbEntity
  8
DEFAULT_1
 62
   250
100
AcDbSpline
210
0.0
220
0.0
230
1.0
 70
    24
 71
     3
 72
     8
 73
     4
 74
     0
 42
0.0000000001
 43
0.0000000001
 40
0.0
 40
0.0
 40
0.0
 40
0.0
 40
1.0
 40
1.0
 40
1.0
 40
1.0
 10
0.055
 20
19.8488
 30
0.0
 10
0.055
 20
19.8488
 30
0.0
 10
20.9914
 20
19.8488
 30
0.0
 10
20.9914
 20
19.8488
 30
0.0
  0
SPLINE
  5
45
330
1F
100
AcDbEntity
  8
DEFAULT_1
 62
   250
100
AcDbSpline
210
0.0
220
0.0
230
1.0
 70
    24
 71
     3
 72
     8
 73
     4
 74
     0
 42
0.0000000001
 43
0.0000000001
 40
0.0
 40
0.0
 40
0.0
 40
0.0
 40
1.0
 40
1.0
 40
1.0
 40
1.0
 10
-0.749
 20
-25.4873
 30
0.0
 10
-0.749
 20
-25.4873
 30
0.0
 10
20.9914
 20
-25.4873
 30
0.0
 10
20.9914
 20
-25.4873
 30
0.0
  0
SPLINE
  5
46
330
1F
100
AcDbEntity
  8
DEFAULT_1
 62
   250
100
AcDbSpline
210
0.0
220
0.0
230
1.0
 70
    24
 71
     3
 72
     8
 73
     4
 74
     0
 42
0.0000000001
 43
0.0000000001
 40
0.0
 40
0.0
 40
0.0
 40
0.0
 40
1.0
 40
1.0
 40
1.0
 40
1.0
 10
20.6505
 20
-25.4873
 30
0.0
 10
20.6505
 20
-25.4873
 30
0.0
 10
20.6505
 20
18.9514
 30
0.0
 10
20.6505
 20
18.9514
 30
0.0
  0
SPLINE
  5
47
330
1F
100
AcDbEntity
  8
DEFAULT_1
 62
   250
100
AcDbSpline
210
0.0
220
0.0
230
1.0
 70
    24
 71
     3
 72
     8
 73
     4
 74
     0
 42
0.0000000001
 43
0.0000000001
 40
0.0
 40
0.0
 40
0.0
 40
0.0
 40
1.0
 40
1.0
 40
1.0
 40
1.0
 10
-20.9064
 20
6.0833
 30
0.0
 10
-20.9064
 20
6.0833
 30
0.0
 10
-20.9064
 20
28.8162
 30
0.0
 10
-20.9064
 20
28.8162
 30
0.0
  0
SPLINE
  5
48
330
1F
100
AcDbEntity
  8
DEFAULT_1
 62
   250
100
AcDbSpline
210
0.0
220
0.0
230
1.0
 70
    24
 71
     3
 72
     8
 73
     4
 74
     0
 42
0.0000000001
 43
0.0000000001
 40
0.0
 40
0.0
 40
0.0
 40
0.0
 40
1.0
 40
1.0
 40
1.0
 40
1.0
 10
11.5523
 20
6.0833
 30
0.0
 10
11.5523
 20
6.0833
 30
0.0
 10
11.5523
 20
28.7802
 30
0.0
 10
11.5523
 20
28.7802
 30
0.0
  0
SPLINE
  5
49
330
1F
100
AcDbEntity
  8
DEFAULT_1
 62
   250
100
AcDbSpline
210
0.0
220
0.0
230
1.0
 70
    24
 71
     3
 72
     8
 73
     4
 74
     0
 42
0.0000000001
 43
0.0000000001
 40
0.0
 40
0.0
 40
0.0
 40
0.0
 40
1.0
 40
1.0
 40
1.0
 40
1.0
 10
11.5522
 20
27.9792
 30
0.0
 10
11.5522
 20
27.9792
 30
0.0
 10
-19.9542
 20
27.9792
 30
0.0
 10
-19.9542
 20
27.9792
 30
0.0
  0
SPLINE
  5
4A
330
1F
100
AcDbEntity
  8
DEFAULT_1
 62
   250
100
AcDbSpline
210
0.0
220
0.0
230
1.0
 70
    24
 71
     3
 72
     8
 73
     4
 74
     0
 42
0.0000000001
 43
0.0000000001
 40
0.0
 40
0.0
 40
0.0
 40
0.0
 40
1.0
 40
1.0
 40
1.0
 40
1.0
 10
-8.0854
 20
-26.0207
 30
0.0
 10
-8.0854
 20
-26.0207
 30
0.0
 10
-8.0854
 20
-30.2807
 30
0.0
 10
-8.0854
 20
-30.2807
 30
0.0
  0
SPLINE
  5
4B
330
1F
100
AcDbEntity
  8
DEFAULT_1
 62
   250
100
AcDbSpline
210
0.0
220
0.0
230
1.0
 70
    24
 71
     3
 72
     8
 73
     4
 74
     0
 42
0.0000000001
 43
0.0000000001
 40
0.0
 40
0.0
 40
0.0
 40
0.0
 40
1.0
 40
1.0
 40
1.0
 40
1.0
 10
-1.2684
 20
-26.1627
 30
0.0
 10
-1.2684
 20
-26.1627
 30
0.0
 10
-1.2684
 20
-30.4582
 30
0.0
 10
-1.2684
 20
-30.4582
 30
0.0
  0
SPLINE
  5
4C
330
1F
100
AcDbEntity
  8
DEFAULT_1
 62
   250
100
AcDbSpline
210
0.0
220
0.0
230
1.0
 70
    24
 71
     3
 72
     8
 73
     4
 74
     0
 42
0.0000000001
 43
0.0000000001
 40
0.0
 40
0.0
 40
0.0
 40
0.0
 40
1.0
 40
1.0
 40
1.0
 40
1.0
 10
7.739
 20
-29.8293
 30
0.0
 10
7.739
 20
-29.8293
 30
0.0
 10
-12.556
 20
-29.8293
 30
0.0
 10
-12.556
 20
-29.8293
 30
0.0
  0
SPLINE
  5
4D
330
1F
100
AcDbEntity
  8
DEFAULT_1
 62
   250
100
AcDbSpline
210
0.0
220
0.0
230
1.0
 70
    24
 71
     3
 72
     8
 73
     4
 74
     0
 42
0.0000000001
 43
0.0000000001
 40
0.0
 40
0.0
 40
0.0
 40
0.0
 40
1.0
 40
1.0
 40
1.0
 40
1.0
 10
12.1476
 20
5.3201
 30
0.0
 10
12.1476
 20
5.3201
 30
0.0
 10
13.6422
 20
5.3201
 30
0.0
 10
13.6422
 20
5.3201
 30
0.0
  0
SPLINE
  5
4E
330
1F
100
AcDbEntity
  8
DEFAULT_1
 62
   250
100
AcDbSpline
210
0.0
220
0.0
230
1.0
 70
    24
 71
     3
 72
     8
 73
     4
 74
     0
 42
0.0000000001
 43
0.0000000001
 40
0.0
 40
0.0
 40
0.0
 40
0.0
 40
1.0
 40
1.0
 40
1.0
 40
1.0
 10
13.0726
 20
-25.4873
 30
0.0
 10
13.0726
 20
-25.4873
 30
0.0
 10
13.0726
 20
4.5744
 30
0.0
 10
13.0726
 20
4.5744
 30
0.0
  0
SPLINE
  5
4F
330
1F
100
AcDbEntity
  8
DEFAULT_1
 62
   250
100
AcDbSpline
210
0.0
220
0.0
230
1.0
 70
    24
 71
     3
 72
     8
 73
     4
 74
     0
 42
0.0000000001
 43
0.0000000001
 40
0.0
 40
0.0
 40
0.0
 40
0.0
 40
1.0
 40
1.0
 40
1.0
 40
1.0
 10
-1.5667
 20
-25.4873
 30
0.0
 10
-1.5667
 20
-25.4873
 30
0.0
 10
-7.7876
 20
-25.4873
 30
0.0
 10
-7.7876
 20
-25.4873
 30
0.0
  0
SPLINE
  5
50
330
1F
100
AcDbEntity
  8
DEFAULT_1
 62
   250
100
AcDbSpline
210
0.0
220
0.0
230
1.0
 70
    24
 71
     3
 72
     8
 73
     4
 74
     0
 42
0.0000000001
 43
0.0000000001
 40
0.0
 40
0.0
 40
0.0
 40
0.0
 40
1.0
 40
1.0
 40
1.0
 40
1.0
 10
-20.6158
 20
7.2405
 30
0.0
 10
-20.6158
 20
7.2405
 30
0.0
 10
-20.4288
 20
8.4256
 30
0.0
 10
-20.4288
 20
8.4256
 30
0.0
  0
SPLINE
  5
51
330
1F
100
AcDbEntity
  8
DEFAULT_1
 62
   250
100
AcDbSpline
210
0.0
220
0.0
230
1.0
 70
    24
 71
     3
 72
     8
 73
     4
 74
     0
 42
0.0000000001
 43
0.0000000001
 40
0.0
 40
0.0
 40
0.0
 40
0.0
 40
1.0
 40
1.0
 40
1.0
 40
1.0
 10
-20.9064
 20
6.0833
 30
0.0
 10
-20.9064
 20
6.0833
 30
0.0
 10
-20.6388
 20
7.2467
 30
0.0
 10
-20.6388
 20
7.2467
 30
0.0
  0
SPLINE
  5
52
330
1F
100
AcDbEntity
  8
DEFAULT_1
 62
   250
100
AcDbSpline
210
0.0
220
0.0
230
1.0
 70
    24
 71
     3
 72
     8
 73
     4
 74
     0
 42
0.0000000001
 43
0.0000000001
 40
0.0
 40
0.0
 40
0.0
 40
0.0
 40
1.0
 40
1.0
 40
1.0
 40
1.0
 10
-19.6012
 20
11.9093
 30
0.0
 10
-19.6012
 20
11.9093
 30
0.0
 10
-18.9175
 20
14.461
 30
0.0
 10
-18.9175
 20
14.461
 30
0.0
  0
SPLINE
  5
53
330
1F
100
AcDbEntity
  8
DEFAULT_1
 62
   250
100
AcDbSpline
210
0.0
220
0.0
230
1.0
 70
    24
 71
     3
 72
     8
 73
     4
 74
     0
 42
0.0000000001
 43
0.0000000001
 40
0.0
 40
0.0
 40
0.0
 40
0.0
 40
1.0
 40
1.0
 40
1.0
 40
1.0
 10
-21.1181
 20
5.7871
 30
0.0
 10
-21.1181
 20
5.7871
 30
0.0
 10
-21.1843
 20
5.5402
 30
0.0
 10
-21.1843
 20
5.5402
 30
0.0
  0
SPLINE
  5
54
330
1F
100
AcDbEntity
  8
DEFAULT_1
 62
   250
100
AcDbSpline
210
0.0
220
0.0
230
1.0
 70
    24
 71
     3
 72
     8
 73
     4
 74
     0
 42
0.0000000001
 43
0.0000000001
 40
0.0
 40
0.0
 40
0.0
 40
0.0
 40
1.0
 40
1.0
 40
1.0
 40
1.0
 10
-20.7423
 20
6.0393
 30
0.0
 10
-20.7423
 20
6.0393
 30
0.0
 10
-20.8383
 20
5.7121
 30
0.0
 10
-20.8383
 20
5.7121
 30
0.0
  0
SPLINE
  5
55
330
1F
100
AcDbEntity
  8
DEFAULT_1
 62
   250
100
AcDbSpline
210
0.0
220
0.0
230
1.0
 70
    24
 71
     3
 72
     8
 73
     4
 74
     0
 42
0.0000000001
 43
0.0000000001
 40
0.0
 40
0.0
 40
0.0
 40
0.0
 40
1.0
 40
1.0
 40
1.0
 40
1.0
 10
-20.1612
 20
9.589
 30
0.0
 10
-20.1612
 20
9.589
 30
0.0
 10
-20.1094
 20
10.7674
 30
0.0
 10
-20.1094
 20
10.7674
 30
0.0
  0
SPLINE
  5
56
330
1F
100
AcDbEntity
  8
DEFAULT_1
 62
   250
100
AcDbSpline
210
0.0
220
0.0
230
1.0
 70
    24
 71
     3
 72
     8
 73
     4
 74
     0
 42
0.0000000001
 43
0.0000000001
 40
0.0
 40
0.0
 40
0.0
 40
0.0
 40
1.0
 40
1.0
 40
1.0
 40
1.0
 10
-19.8952
 20
10.7529
 30
0.0
 10
-19.8952
 20
10.7529
 30
0.0
 10
-19.8339
 20
11.929
 30
0.0
 10
-19.8339
 20
11.929
 30
0.0
  0
SPLINE
  5
57
330
1F
100
AcDbEntity
  8
DEFAULT_1
 62
   250
100
AcDbSpline
210
0.0
220
0.0
230
1.0
 70
    24
 71
     3
 72
     8
 73
     4
 74
     0
 42
0.0000000001
 43
0.0000000001
 40
0.0
 40
0.0
 40
0.0
 40
0.0
 40
1.0
 40
1.0
 40
1.0
 40
1.0
 10
-20.3481
 20
8.404
 30
0.0
 10
-20.3481
 20
8.404
 30
0.0
 10
-20.2435
 20
9.6111
 30
0.0
 10
-20.2435
 20
9.6111
 30
0.0
  0
SPLINE
  5
58
330
1F
100
AcDbEntity
  8
DEFAULT_1
 62
   250
100
AcDbSpline
210
0.0
220
0.0
230
1.0
 70
    24
 71
     3
 72
     8
 73
     4
 74
     0
 42
0.0000000001
 43
0.0000000001
 40
0.0
 40
0.0
 40
0.0
 40
0.0
 40
1.0
 40
1.0
 40
1.0
 40
1.0
 10
-17.7315
 20
6.4677
 30
0.0
 10
-17.7315
 20
6.4677
 30
0.0
 10
-17.3008
 20
7.5874
 30
0.0
 10
-17.3008
 20
7.5874
 30
0.0
  0
SPLINE
  5
59
330
1F
100
AcDbEntity
  8
DEFAULT_1
 62
   250
100
AcDbSpline
210
0.0
220
0.0
230
1.0
 70
    24
 71
     3
 72
     8
 73
     4
 74
     0
 42
0.0000000001
 43
0.0000000001
 40
0.0
 40
0.0
 40
0.0
 40
0.0
 40
1.0
 40
1.0
 40
1.0
 40
1.0
 10
-17.3815
 20
7.609
 30
0.0
 10
-17.3815
 20
7.609
 30
0.0
 10
-16.8686
 20
8.7068
 30
0.0
 10
-16.8686
 20
8.7068
 30
0.0
  0
SPLINE
  5
5A
330
1F
100
AcDbEntity
  8
DEFAULT_1
 62
   250
100
AcDbSpline
210
0.0
220
0.0
230
1.0
 70
    24
 71
     3
 72
     8
 73
     4
 74
     0
 42
0.0000000001
 43
0.0000000001
 40
0.0
 40
0.0
 40
0.0
 40
0.0
 40
1.0
 40
1.0
 40
1.0
 40
1.0
 10
-16.5993
 20
9.8698
 30
0.0
 10
-16.5993
 20
9.8698
 30
0.0
 10
-16.0644
 20
10.9189
 30
0.0
 10
-16.0644
 20
10.9189
 30
0.0
  0
SPLINE
  5
5B
330
1F
100
AcDbEntity
  8
DEFAULT_1
 62
   250
100
AcDbSpline
210
0.0
220
0.0
230
1.0
 70
    24
 71
     3
 72
     8
 73
     4
 74
     0
 42
0.0000000001
 43
0.0000000001
 40
0.0
 40
0.0
 40
0.0
 40
0.0
 40
1.0
 40
1.0
 40
1.0
 40
1.0
 10
-16.9509
 20
8.7288
 30
0.0
 10
-16.9509
 20
8.7288
 30
0.0
 10
-16.4065
 20
9.7752
 30
0.0
 10
-16.4065
 20
9.7752
 30
0.0
  0
SPLINE
  5
5C
330
1F
100
AcDbEntity
  8
DEFAULT_1
 62
   250
100
AcDbSpline
210
0.0
220
0.0
230
1.0
 70
    24
 71
     3
 72
     8
 73
     4
 74
     0
 42
0.0000000001
 43
0.0000000001
 40
0.0
 40
0.0
 40
0.0
 40
0.0
 40
1.0
 40
1.0
 40
1.0
 40
1.0
 10
-18.2225
 20
5.3641
 30
0.0
 10
-18.2225
 20
5.3641
 30
0.0
 10
-18.303
 20
5.0328
 30
0.0
 10
-18.303
 20
5.0328
 30
0.0
  0
SPLINE
  5
5D
330
1F
100
AcDbEntity
  8
DEFAULT_1
 62
   250
100
AcDbSpline
210
0.0
220
0.0
230
1.0
 70
    24
 71
     3
 72
     8
 73
     4
 74
     0
 42
0.0000000001
 43
0.0000000001
 40
0.0
 40
0.0
 40
0.0
 40
0.0
 40
1.0
 40
1.0
 40
1.0
 40
1.0
 10
-18.0231
 20
4.9578
 30
0.0
 10
-18.0231
 20
4.9578
 30
0.0
 10
-18.0893
 20
4.7108
 30
0.0
 10
-18.0893
 20
4.7108
 30
0.0
  0
SPLINE
  5
5E
330
1F
100
AcDbEntity
  8
DEFAULT_1
 62
   250
100
AcDbSpline
210
0.0
220
0.0
230
1.0
 70
    24
 71
     3
 72
     8
 73
     4
 74
     0
 42
0.0000000001
 43
0.0000000001
 40
0.0
 40
0.0
 40
0.0
 40
0.0
 40
1.0
 40
1.0
 40
1.0
 40
1.0
 10
-16.2757
 20
11.0182
 30
0.0
 10
-16.2757
 20
11.0182
 30
0.0
 10
-16.0993
 20
11.6767
 30
0.0
 10
-16.0993
 20
11.6767
 30
0.0
  0
SPLINE
  5
5F
330
1F
100
AcDbEntity
  8
DEFAULT_1
 62
   250
100
AcDbSpline
210
0.0
220
0.0
230
1.0
 70
    24
 71
     3
 72
     8
 73
     4
 74
     0
 42
0.0000000001
 43
0.0000000001
 40
0.0
 40
0.0
 40
0.0
 40
0.0
 40
1.0
 40
1.0
 40
1.0
 40
1.0
 10
-14.2122
 20
15.2294
 30
0.0
 10
-14.2122
 20
15.2294
 30
0.0
 10
-15.2267
 20
11.4429
 30
0.0
 10
-15.2267
 20
11.4429
 30
0.0
  0
SPLINE
  5
60
330
1F
100
AcDbEntity
  8
DEFAULT_1
 62
   250
100
AcDbSpline
210
0.0
220
0.0
230
1.0
 70
    24
 71
     3
 72
     8
 73
     4
 74
     0
 42
0.0000000001
 43
0.0000000001
 40
0.0
 40
0.0
 40
0.0
 40
0.0
 40
1.0
 40
1.0
 40
1.0
 40
1.0
 10
-13.6403
 20
16.0466
 30
0.0
 10
-13.6403
 20
16.0466
 30
0.0
 10
-15.1401
 20
10.4492
 30
0.0
 10
-15.1401
 20
10.4492
 30
0.0
  0
SPLINE
  5
61
330
1F
100
AcDbEntity
  8
DEFAULT_1
 62
   250
100
AcDbSpline
210
0.0
220
0.0
230
1.0
 70
    24
 71
     3
 72
     8
 73
     4
 74
     0
 42
0.0000000001
 43
0.0000000001
 40
0.0
 40
0.0
 40
0.0
 40
0.0
 40
1.0
 40
1.0
 40
1.0
 40
1.0
 10
-18.0584
 20
5.3201
 30
0.0
 10
-18.0584
 20
5.3201
 30
0.0
 10
-17.7084
 20
6.4615
 30
0.0
 10
-17.7084
 20
6.4615
 30
0.0
  0
SPLINE
  5
62
330
1F
100
AcDbEntity
  8
DEFAULT_1
 62
   250
100
AcDbSpline
210
0.0
220
0.0
230
1.0
 70
    24
 71
     3
 72
     8
 73
     4
 74
     0
 42
0.0000000001
 43
0.0000000001
 40
0.0
 40
0.0
 40
0.0
 40
0.0
 40
1.0
 40
1.0
 40
1.0
 40
1.0
 10
-7.7876
 20
-25.4873
 30
0.0
 10
-7.7876
 20
-25.4873
 30
0.0
 10
-8.0858
 20
-24.9707
 30
0.0
 10
-8.0858
 20
-24.9707
 30
0.0
  0
SPLINE
  5
63
330
1F
100
AcDbEntity
  8
DEFAULT_1
 62
   250
100
AcDbSpline
210
0.0
220
0.0
230
1.0
 70
    24
 71
     3
 72
     8
 73
     4
 74
     0
 42
0.0000000001
 43
0.0000000001
 40
0.0
 40
0.0
 40
0.0
 40
0.0
 40
1.0
 40
1.0
 40
1.0
 40
1.0
 10
-13.2008
 20
16.3697
 30
0.0
 10
-13.2008
 20
16.3697
 30
0.0
 10
-13.2228
 20
16.2876
 30
0.0
 10
-13.2228
 20
16.2876
 30
0.0
  0
SPLINE
  5
64
330
1F
100
AcDbEntity
  8
DEFAULT_1
 62
   250
100
AcDbSpline
210
0.0
220
0.0
230
1.0
 70
    24
 71
     3
 72
     8
 73
     4
 74
     0
 42
0.0000000001
 43
0.0000000001
 40
0.0
 40
0.0
 40
0.0
 40
0.0
 40
1.0
 40
1.0
 40
1.0
 40
1.0
 10
-14.921
 20
9.9497
 30
0.0
 10
-14.921
 20
9.9497
 30
0.0
 10
-14.8991
 20
10.0317
 30
0.0
 10
-14.8991
 20
10.0317
 30
0.0
  0
SPLINE
  5
65
330
1F
100
AcDbEntity
  8
DEFAULT_1
 62
   250
100
AcDbSpline
210
0.0
220
0.0
230
1.0
 70
    24
 71
     3
 72
     8
 73
     4
 74
     0
 42
0.0000000001
 43
0.0000000001
 40
0.0
 40
0.0
 40
0.0
 40
0.0
 40
1.0
 40
1.0
 40
1.0
 40
1.0
 10
-12.941
 20
9.437
 30
0.0
 10
-12.941
 20
9.437
 30
0.0
 10
-12.7528
 20
10.1395
 30
0.0
 10
-12.7528
 20
10.1395
 30
0.0
  0
SPLINE
  5
66
330
1F
100
AcDbEntity
  8
DEFAULT_1
 62
   250
100
AcDbSpline
210
0.0
220
0.0
230
1.0
 70
    24
 71
     3
 72
     8
 73
     4
 74
     0
 42
0.0000000001
 43
0.0000000001
 40
0.0
 40
0.0
 40
0.0
 40
0.0
 40
1.0
 40
1.0
 40
1.0
 40
1.0
 10
-12.6126
 20
10.6626
 30
0.0
 10
-12.6126
 20
10.6626
 30
0.0
 10
-12.1736
 20
12.3011
 30
0.0
 10
-12.1736
 20
12.3011
 30
0.0
  0
SPLINE
  5
67
330
1F
100
AcDbEntity
  8
DEFAULT_1
 62
   250
100
AcDbSpline
210
0.0
220
0.0
230
1.0
 70
    24
 71
     3
 72
     8
 73
     4
 74
     0
 42
0.0000000001
 43
0.0000000001
 40
0.0
 40
0.0
 40
0.0
 40
0.0
 40
1.0
 40
1.0
 40
1.0
 40
1.0
 10
-11.9971
 20
12.9596
 30
0.0
 10
-11.9971
 20
12.9596
 30
0.0
 10
-11.5427
 20
14.6555
 30
0.0
 10
-11.5427
 20
14.6555
 30
0.0
  0
SPLINE
  5
68
330
1F
100
AcDbEntity
  8
DEFAULT_1
 62
   250
100
AcDbSpline
210
0.0
220
0.0
230
1.0
 70
    24
 71
     3
 72
     8
 73
     4
 74
     0
 42
0.0000000001
 43
0.0000000001
 40
0.0
 40
0.0
 40
0.0
 40
0.0
 40
1.0
 40
1.0
 40
1.0
 40
1.0
 10
-11.418
 20
15.1212
 30
0.0
 10
-11.418
 20
15.1212
 30
0.0
 10
-11.2297
 20
15.8237
 30
0.0
 10
-11.2297
 20
15.8237
 30
0.0
  0
SPLINE
  5
69
330
1F
100
AcDbEntity
  8
DEFAULT_1
 62
   250
100
AcDbSpline
210
0.0
220
0.0
230
1.0
 70
    24
 71
     3
 72
     8
 73
     4
 74
     0
 42
0.0000000001
 43
0.0000000001
 40
0.0
 40
0.0
 40
0.0
 40
0.0
 40
1.0
 40
1.0
 40
1.0
 40
1.0
 10
-12.4517
 20
9.2877
 30
0.0
 10
-12.4517
 20
9.2877
 30
0.0
 10
-10.7313
 20
15.7083
 30
0.0
 10
-10.7313
 20
15.7083
 30
0.0
  0
SPLINE
  5
6A
330
1F
100
AcDbEntity
  8
DEFAULT_1
 62
   250
100
AcDbSpline
210
0.0
220
0.0
230
1.0
 70
    24
 71
     3
 72
     8
 73
     4
 74
     0
 42
0.0000000001
 43
0.0000000001
 40
0.0
 40
0.0
 40
0.0
 40
0.0
 40
1.0
 40
1.0
 40
1.0
 40
1.0
 10
-10.5454
 20
15.085
 30
0.0
 10
-10.5454
 20
15.085
 30
0.0
 10
-11.9791
 20
9.7346
 30
0.0
 10
-11.9791
 20
9.7346
 30
0.0
  0
SPLINE
  5
6B
330
1F
100
AcDbEntity
  8
DEFAULT_1
 62
   250
100
AcDbSpline
210
0.0
220
0.0
230
1.0
 70
    24
 71
     3
 72
     8
 73
     4
 74
     0
 42
0.0000000001
 43
0.0000000001
 40
0.0
 40
0.0
 40
0.0
 40
0.0
 40
1.0
 40
1.0
 40
1.0
 40
1.0
 10
-9.3641
 20
17.8036
 30
0.0
 10
-9.3641
 20
17.8036
 30
0.0
 10
-9.3641
 20
19.8488
 30
0.0
 10
-9.3641
 20
19.8488
 30
0.0
  0
SPLINE
  5
6C
330
1F
100
AcDbEntity
  8
DEFAULT_1
 62
   250
100
AcDbSpline
210
0.0
220
0.0
230
1.0
 70
    24
 71
     3
 72
     8
 73
     4
 74
     0
 42
0.0000000001
 43
0.0000000001
 40
0.0
 40
0.0
 40
0.0
 40
0.0
 40
1.0
 40
1.0
 40
1.0
 40
1.0
 10
-9.2789
 20
17.4627
 30
0.0
 10
-9.2789
 20
17.4627
 30
0.0
 10
-9.2789
 20
17.8036
 30
0.0
 10
-9.2789
 20
17.8036
 30
0.0
  0
SPLINE
  5
6D
330
1F
100
AcDbEntity
  8
DEFAULT_1
 62
   250
100
AcDbSpline
210
0.0
220
0.0
230
1.0
 70
    24
 71
     3
 72
     8
 73
     4
 74
     0
 42
0.0000000001
 43
0.0000000001
 40
0.0
 40
0.0
 40
0.0
 40
0.0
 40
1.0
 40
1.0
 40
1.0
 40
1.0
 10
-9.2662
 20
18.1444
 30
0.0
 10
-9.2662
 20
18.1444
 30
0.0
 10
-9.2662
 20
19.3375
 30
0.0
 10
-9.2662
 20
19.3375
 30
0.0
  0
SPLINE
  5
6E
330
1F
100
AcDbEntity
  8
DEFAULT_1
 62
   250
100
AcDbSpline
210
0.0
220
0.0
230
1.0
 70
    24
 71
     3
 72
     8
 73
     4
 74
     0
 42
0.0000000001
 43
0.0000000001
 40
0.0
 40
0.0
 40
0.0
 40
0.0
 40
1.0
 40
1.0
 40
1.0
 40
1.0
 10
-8.2236
 20
19.3375
 30
0.0
 10
-8.2236
 20
19.3375
 30
0.0
 10
-8.2236
 20
18.1444
 30
0.0
 10
-8.2236
 20
18.1444
 30
0.0
  0
SPLINE
  5
6F
330
1F
100
AcDbEntity
  8
DEFAULT_1
 62
   250
100
AcDbSpline
210
0.0
220
0.0
230
1.0
 70
    24
 71
     3
 72
     8
 73
     4
 74
     0
 42
0.0000000001
 43
0.0000000001
 40
0.0
 40
0.0
 40
0.0
 40
0.0
 40
1.0
 40
1.0
 40
1.0
 40
1.0
 10
-8.0858
 20
17.1218
 30
0.0
 10
-8.0858
 20
17.1218
 30
0.0
 10
-8.0858
 20
14.0731
 30
0.0
 10
-8.0858
 20
14.0731
 30
0.0
  0
SPLINE
  5
70
330
1F
100
AcDbEntity
  8
DEFAULT_1
 62
   250
100
AcDbSpline
210
0.0
220
0.0
230
1.0
 70
    24
 71
     3
 72
     8
 73
     4
 74
     0
 42
0.0000000001
 43
0.0000000001
 40
0.0
 40
0.0
 40
0.0
 40
0.0
 40
1.0
 40
1.0
 40
1.0
 40
1.0
 10
-8.0858
 20
9.0443
 30
0.0
 10
-8.0858
 20
9.0443
 30
0.0
 10
-8.0858
 20
-24.9707
 30
0.0
 10
-8.0858
 20
-24.9707
 30
0.0
  0
SPLINE
  5
71
330
1F
100
AcDbEntity
  8
DEFAULT_1
 62
   250
100
AcDbSpline
210
0.0
220
0.0
230
1.0
 70
    24
 71
     3
 72
     8
 73
     4
 74
     0
 42
0.0000000001
 43
0.0000000001
 40
0.0
 40
0.0
 40
0.0
 40
0.0
 40
1.0
 40
1.0
 40
1.0
 40
1.0
 10
-7.7415
 20
19.3375
 30
0.0
 10
-7.7415
 20
19.3375
 30
0.0
 10
-7.7415
 20
18.1444
 30
0.0
 10
-7.7415
 20
18.1444
 30
0.0
  0
SPLINE
  5
72
330
1F
100
AcDbEntity
  8
DEFAULT_1
 62
   250
100
AcDbSpline
210
0.0
220
0.0
230
1.0
 70
    24
 71
     3
 72
     8
 73
     4
 74
     0
 42
0.0000000001
 43
0.0000000001
 40
0.0
 40
0.0
 40
0.0
 40
0.0
 40
1.0
 40
1.0
 40
1.0
 40
1.0
 10
-5.018
 20
19.3375
 30
0.0
 10
-5.018
 20
19.3375
 30
0.0
 10
-5.018
 20
18.1444
 30
0.0
 10
-5.018
 20
18.1444
 30
0.0
  0
SPLINE
  5
73
330
1F
100
AcDbEntity
  8
DEFAULT_1
 62
   250
100
AcDbSpline
210
0.0
220
0.0
230
1.0
 70
    24
 71
     3
 72
     8
 73
     4
 74
     0
 42
0.0000000001
 43
0.0000000001
 40
0.0
 40
0.0
 40
0.0
 40
0.0
 40
1.0
 40
1.0
 40
1.0
 40
1.0
 10
-4.3362
 20
19.3375
 30
0.0
 10
-4.3362
 20
19.3375
 30
0.0
 10
-4.3362
 20
18.1444
 30
0.0
 10
-4.3362
 20
18.1444
 30
0.0
  0
SPLINE
  5
74
330
1F
100
AcDbEntity
  8
DEFAULT_1
 62
   250
100
AcDbSpline
210
0.0
220
0.0
230
1.0
 70
    24
 71
     3
 72
     8
 73
     4
 74
     0
 42
0.0000000001
 43
0.0000000001
 40
0.0
 40
0.0
 40
0.0
 40
0.0
 40
1.0
 40
1.0
 40
1.0
 40
1.0
 10
-1.6731
 20
18.1444
 30
0.0
 10
-1.6731
 20
18.1444
 30
0.0
 10
-1.6731
 20
19.3375
 30
0.0
 10
-1.6731
 20
19.3375
 30
0.0
  0
SPLINE
  5
75
330
1F
100
AcDbEntity
  8
DEFAULT_1
 62
   250
100
AcDbSpline
210
0.0
220
0.0
230
1.0
 70
    24
 71
     3
 72
     8
 73
     4
 74
     0
 42
0.0000000001
 43
0.0000000001
 40
0.0
 40
0.0
 40
0.0
 40
0.0
 40
1.0
 40
1.0
 40
1.0
 40
1.0
 10
-1.2684
 20
17.1218
 30
0.0
 10
-1.2684
 20
17.1218
 30
0.0
 10
-1.2684
 20
14.0731
 30
0.0
 10
-1.2684
 20
14.0731
 30
0.0
  0
SPLINE
  5
76
330
1F
100
AcDbEntity
  8
DEFAULT_1
 62
   250
100
AcDbSpline
210
0.0
220
0.0
230
1.0
 70
    24
 71
     3
 72
     8
 73
     4
 74
     0
 42
0.0000000001
 43
0.0000000001
 40
0.0
 40
0.0
 40
0.0
 40
0.0
 40
1.0
 40
1.0
 40
1.0
 40
1.0
 10
-1.2684
 20
9.0443
 30
0.0
 10
-1.2684
 20
9.0443
 30
0.0
 10
-1.2684
 20
-24.9707
 30
0.0
 10
-1.2684
 20
-24.9707
 30
0.0
  0
SPLINE
  5
77
330
1F
100
AcDbEntity
  8
DEFAULT_1
 62
   250
100
AcDbSpline
210
0.0
220
0.0
230
1.0
 70
    24
 71
     3
 72
     8
 73
     4
 74
     0
 42
0.0000000001
 43
0.0000000001
 40
0.0
 40
0.0
 40
0.0
 40
0.0
 40
1.0
 40
1.0
 40
1.0
 40
1.0
 10
11.8301
 20
5.5402
 30
0.0
 10
11.8301
 20
5.5402
 30
0.0
 10
8.735
 20
4.7108
 30
0.0
 10
8.735
 20
4.7108
 30
0.0
  0
SPLINE
  5
78
330
1F
100
AcDbEntity
  8
DEFAULT_1
 62
   250
100
AcDbSpline
210
0.0
220
0.0
230
1.0
 70
    24
 71
     3
 72
     8
 73
     4
 74
     0
 42
0.0000000001
 43
0.0000000001
 40
0.0
 40
0.0
 40
0.0
 40
0.0
 40
1.0
 40
1.0
 40
1.0
 40
1.0
 10
11.7639
 20
5.7871
 30
0.0
 10
11.7639
 20
5.7871
 30
0.0
 10
8.6689
 20
4.9578
 30
0.0
 10
8.6689
 20
4.9578
 30
0.0
  0
SPLINE
  5
79
330
1F
100
AcDbEntity
  8
DEFAULT_1
 62
   250
100
AcDbSpline
210
0.0
220
0.0
230
1.0
 70
    24
 71
     3
 72
     8
 73
     4
 74
     0
 42
0.0000000001
 43
0.0000000001
 40
0.0
 40
0.0
 40
0.0
 40
0.0
 40
1.0
 40
1.0
 40
1.0
 40
1.0
 10
11.5522
 20
6.0833
 30
0.0
 10
11.5522
 20
6.0833
 30
0.0
 10
8.7041
 20
5.3201
 30
0.0
 10
8.7041
 20
5.3201
 30
0.0
  0
SPLINE
  5
7A
330
1F
100
AcDbEntity
  8
DEFAULT_1
 62
   250
100
AcDbSpline
210
0.0
220
0.0
230
1.0
 70
    24
 71
     3
 72
     8
 73
     4
 74
     0
 42
0.0000000001
 43
0.0000000001
 40
0.0
 40
0.0
 40
0.0
 40
0.0
 40
1.0
 40
1.0
 40
1.0
 40
1.0
 10
-18.0893
 20
4.7108
 30
0.0
 10
-18.0893
 20
4.7108
 30
0.0
 10
-21.1843
 20
5.5402
 30
0.0
 10
-21.1843
 20
5.5402
 30
0.0
  0
SPLINE
  5
7B
330
1F
100
AcDbEntity
  8
DEFAULT_1
 62
   250
100
AcDbSpline
210
0.0
220
0.0
230
1.0
 70
    24
 71
     3
 72
     8
 73
     4
 74
     0
 42
0.0000000001
 43
0.0000000001
 40
0.0
 40
0.0
 40
0.0
 40
0.0
 40
1.0
 40
1.0
 40
1.0
 40
1.0
 10
-18.0231
 20
4.9578
 30
0.0
 10
-18.0231
 20
4.9578
 30
0.0
 10
-21.1181
 20
5.7871
 30
0.0
 10
-21.1181
 20
5.7871
 30
0.0
  0
SPLINE
  5
7C
330
1F
100
AcDbEntity
  8
DEFAULT_1
 62
   250
100
AcDbSpline
210
0.0
220
0.0
230
1.0
 70
    24
 71
     3
 72
     8
 73
     4
 74
     0
 42
0.0000000001
 43
0.0000000001
 40
0.0
 40
0.0
 40
0.0
 40
0.0
 40
1.0
 40
1.0
 40
1.0
 40
1.0
 10
-20.9064
 20
6.0833
 30
0.0
 10
-20.9064
 20
6.0833
 30
0.0
 10
-18.0584
 20
5.3201
 30
0.0
 10
-18.0584
 20
5.3201
 30
0.0
  0
SPLINE
  5
7D
330
1F
100
AcDbEntity
  8
DEFAULT_1
 62
   250
100
AcDbSpline
210
0.0
220
0.0
230
1.0
 70
    24
 71
     3
 72
     8
 73
     4
 74
     0
 42
0.0000000001
 43
0.0000000001
 40
0.0
 40
0.0
 40
0.0
 40
0.0
 40
1.0
 40
1.0
 40
1.0
 40
1.0
 10
-0.088
 20
18.1444
 30
0.0
 10
-0.088
 20
18.1444
 30
0.0
 10
-0.088
 20
19.3375
 30
0.0
 10
-0.088
 20
19.3375
 30
0.0
  0
SPLINE
  5
7E
330
1F
100
AcDbEntity
  8
DEFAULT_1
 62
   250
100
AcDbSpline
210
0.0
220
0.0
230
1.0
 70
    24
 71
     3
 72
     8
 73
     4
 74
     0
 42
0.0000000001
 43
0.0000000001
 40
0.0
 40
0.0
 40
0.0
 40
0.0
 40
1.0
 40
1.0
 40
1.0
 40
1.0
 10
-0.0753
 20
17.4627
 30
0.0
 10
-0.0753
 20
17.4627
 30
0.0
 10
-0.0753
 20
17.8036
 30
0.0
 10
-0.0753
 20
17.8036
 30
0.0
  0
SPLINE
  5
7F
330
1F
100
AcDbEntity
  8
DEFAULT_1
 62
   250
100
AcDbSpline
210
0.0
220
0.0
230
1.0
 70
    24
 71
     3
 72
     8
 73
     4
 74
     0
 42
0.0000000001
 43
0.0000000001
 40
0.0
 40
0.0
 40
0.0
 40
0.0
 40
1.0
 40
1.0
 40
1.0
 40
1.0
 10
0.0099
 20
17.8036
 30
0.0
 10
0.0099
 20
17.8036
 30
0.0
 10
0.0099
 20
19.8488
 30
0.0
 10
0.0099
 20
19.8488
 30
0.0
  0
SPLINE
  5
80
330
1F
100
AcDbEntity
  8
DEFAULT_1
 62
   250
100
AcDbSpline
210
0.0
220
0.0
230
1.0
 70
    24
 71
     3
 72
     8
 73
     4
 74
     0
 42
0.0000000001
 43
0.0000000001
 40
0.0
 40
0.0
 40
0.0
 40
0.0
 40
1.0
 40
1.0
 40
1.0
 40
1.0
 10
11.2846
 20
7.2467
 30
0.0
 10
11.2846
 20
7.2467
 30
0.0
 10
8.3542
 20
6.4615
 30
0.0
 10
8.3542
 20
6.4615
 30
0.0
  0
SPLINE
  5
81
330
1F
100
AcDbEntity
  8
DEFAULT_1
 62
   250
100
AcDbSpline
210
0.0
220
0.0
230
1.0
 70
    24
 71
     3
 72
     8
 73
     4
 74
     0
 42
0.0000000001
 43
0.0000000001
 40
0.0
 40
0.0
 40
0.0
 40
0.0
 40
1.0
 40
1.0
 40
1.0
 40
1.0
 10
11.0746
 20
8.4256
 30
0.0
 10
11.0746
 20
8.4256
 30
0.0
 10
7.9466
 20
7.5874
 30
0.0
 10
7.9466
 20
7.5874
 30
0.0
  0
SPLINE
  5
82
330
1F
100
AcDbEntity
  8
DEFAULT_1
 62
   250
100
AcDbSpline
210
0.0
220
0.0
230
1.0
 70
    24
 71
     3
 72
     8
 73
     4
 74
     0
 42
0.0000000001
 43
0.0000000001
 40
0.0
 40
0.0
 40
0.0
 40
0.0
 40
1.0
 40
1.0
 40
1.0
 40
1.0
 10
-20.6388
 20
7.2467
 30
0.0
 10
-20.6388
 20
7.2467
 30
0.0
 10
-17.7084
 20
6.4615
 30
0.0
 10
-17.7084
 20
6.4615
 30
0.0
  0
SPLINE
  5
83
330
1F
100
AcDbEntity
  8
DEFAULT_1
 62
   250
100
AcDbSpline
210
0.0
220
0.0
230
1.0
 70
    24
 71
     3
 72
     8
 73
     4
 74
     0
 42
0.0000000001
 43
0.0000000001
 40
0.0
 40
0.0
 40
0.0
 40
0.0
 40
1.0
 40
1.0
 40
1.0
 40
1.0
 10
-20.4288
 20
8.4256
 30
0.0
 10
-20.4288
 20
8.4256
 30
0.0
 10
-17.3008
 20
7.5874
 30
0.0
 10
-17.3008
 20
7.5874
 30
0.0
  0
SPLINE
  5
84
330
1F
100
AcDbEntity
  8
DEFAULT_1
 62
   250
100
AcDbSpline
210
0.0
220
0.0
230
1.0
 70
    24
 71
     3
 72
     8
 73
     4
 74
     0
 42
0.0000000001
 43
0.0000000001
 40
0.0
 40
0.0
 40
0.0
 40
0.0
 40
1.0
 40
1.0
 40
1.0
 40
1.0
 10
10.8892
 20
9.6111
 30
0.0
 10
10.8892
 20
9.6111
 30
0.0
 10
7.5144
 20
8.7068
 30
0.0
 10
7.5144
 20
8.7068
 30
0.0
  0
SPLINE
  5
85
330
1F
100
AcDbEntity
  8
DEFAULT_1
 62
   250
100
AcDbSpline
210
0.0
220
0.0
230
1.0
 70
    24
 71
     3
 72
     8
 73
     4
 74
     0
 42
0.0000000001
 43
0.0000000001
 40
0.0
 40
0.0
 40
0.0
 40
0.0
 40
1.0
 40
1.0
 40
1.0
 40
1.0
 10
-20.2435
 20
9.6111
 30
0.0
 10
-20.2435
 20
9.6111
 30
0.0
 10
-16.8686
 20
8.7068
 30
0.0
 10
-16.8686
 20
8.7068
 30
0.0
  0
SPLINE
  5
86
330
1F
100
AcDbEntity
  8
DEFAULT_1
 62
   250
100
AcDbSpline
210
0.0
220
0.0
230
1.0
 70
    24
 71
     3
 72
     8
 73
     4
 74
     0
 42
0.0000000001
 43
0.0000000001
 40
0.0
 40
0.0
 40
0.0
 40
0.0
 40
1.0
 40
1.0
 40
1.0
 40
1.0
 10
10.7552
 20
10.7674
 30
0.0
 10
10.7552
 20
10.7674
 30
0.0
 10
7.0523
 20
9.7752
 30
0.0
 10
7.0523
 20
9.7752
 30
0.0
  0
SPLINE
  5
87
330
1F
100
AcDbEntity
  8
DEFAULT_1
 62
   250
100
AcDbSpline
210
0.0
220
0.0
230
1.0
 70
    24
 71
     3
 72
     8
 73
     4
 74
     0
 42
0.0000000001
 43
0.0000000001
 40
0.0
 40
0.0
 40
0.0
 40
0.0
 40
1.0
 40
1.0
 40
1.0
 40
1.0
 10
5.5645
 20
9.9488
 30
0.0
 10
5.5645
 20
9.9488
 30
0.0
 10
3.0974
 20
9.2877
 30
0.0
 10
3.0974
 20
9.2877
 30
0.0
  0
SPLINE
  5
88
330
1F
100
AcDbEntity
  8
DEFAULT_1
 62
   250
100
AcDbSpline
210
0.0
220
0.0
230
1.0
 70
    24
 71
     3
 72
     8
 73
     4
 74
     0
 42
0.0000000001
 43
0.0000000001
 40
0.0
 40
0.0
 40
0.0
 40
0.0
 40
1.0
 40
1.0
 40
1.0
 40
1.0
 10
5.2109
 20
9.9609
 30
0.0
 10
5.2109
 20
9.9609
 30
0.0
 10
3.5646
 20
9.5198
 30
0.0
 10
3.5646
 20
9.5198
 30
0.0
  0
SPLINE
  5
89
330
1F
100
AcDbEntity
  8
DEFAULT_1
 62
   250
100
AcDbSpline
210
0.0
220
0.0
230
1.0
 70
    24
 71
     3
 72
     8
 73
     4
 74
     0
 42
0.0000000001
 43
0.0000000001
 40
0.0
 40
0.0
 40
0.0
 40
0.0
 40
1.0
 40
1.0
 40
1.0
 40
1.0
 10
2.6248
 20
9.7346
 30
0.0
 10
2.6248
 20
9.7346
 30
0.0
 10
2.9541
 20
9.8228
 30
0.0
 10
2.9541
 20
9.8228
 30
0.0
  0
SPLINE
  5
8A
330
1F
100
AcDbEntity
  8
DEFAULT_1
 62
   250
100
AcDbSpline
210
0.0
220
0.0
230
1.0
 70
    24
 71
     3
 72
     8
 73
     4
 74
     0
 42
0.0000000001
 43
0.0000000001
 40
0.0
 40
0.0
 40
0.0
 40
0.0
 40
1.0
 40
1.0
 40
1.0
 40
1.0
 10
6.7317
 20
10.9673
 30
0.0
 10
6.7317
 20
10.9673
 30
0.0
 10
10.4368
 20
11.9601
 30
0.0
 10
10.4368
 20
11.9601
 30
0.0
  0
SPLINE
  5
8B
330
1F
100
AcDbEntity
  8
DEFAULT_1
 62
   250
100
AcDbSpline
210
0.0
220
0.0
230
1.0
 70
    24
 71
     3
 72
     8
 73
     4
 74
     0
 42
0.0000000001
 43
0.0000000001
 40
0.0
 40
0.0
 40
0.0
 40
0.0
 40
1.0
 40
1.0
 40
1.0
 40
1.0
 10
-1.2684
 20
9.0443
 30
0.0
 10
-1.2684
 20
9.0443
 30
0.0
 10
2.5366
 20
10.0638
 30
0.0
 10
2.5366
 20
10.0638
 30
0.0
  0
SPLINE
  5
8C
330
1F
100
AcDbEntity
  8
DEFAULT_1
 62
   250
100
AcDbSpline
210
0.0
220
0.0
230
1.0
 70
    24
 71
     3
 72
     8
 73
     4
 74
     0
 42
0.0000000001
 43
0.0000000001
 40
0.0
 40
0.0
 40
0.0
 40
0.0
 40
1.0
 40
1.0
 40
1.0
 40
1.0
 10
-20.0665
 20
10.7988
 30
0.0
 10
-20.0665
 20
10.7988
 30
0.0
 10
-16.428
 20
9.8238
 30
0.0
 10
-16.428
 20
9.8238
 30
0.0
  0
SPLINE
  5
8D
330
1F
100
AcDbEntity
  8
DEFAULT_1
 62
   250
100
AcDbSpline
210
0.0
220
0.0
230
1.0
 70
    24
 71
     3
 72
     8
 73
     4
 74
     0
 42
0.0000000001
 43
0.0000000001
 40
0.0
 40
0.0
 40
0.0
 40
0.0
 40
1.0
 40
1.0
 40
1.0
 40
1.0
 10
-14.9187
 20
9.9488
 30
0.0
 10
-14.9187
 20
9.9488
 30
0.0
 10
-12.4517
 20
9.2877
 30
0.0
 10
-12.4517
 20
9.2877
 30
0.0
  0
SPLINE
  5
8E
330
1F
100
AcDbEntity
  8
DEFAULT_1
 62
   250
100
AcDbSpline
210
0.0
220
0.0
230
1.0
 70
    24
 71
     3
 72
     8
 73
     4
 74
     0
 42
0.0000000001
 43
0.0000000001
 40
0.0
 40
0.0
 40
0.0
 40
0.0
 40
1.0
 40
1.0
 40
1.0
 40
1.0
 10
-14.5651
 20
9.9609
 30
0.0
 10
-14.5651
 20
9.9609
 30
0.0
 10
-12.9189
 20
9.5198
 30
0.0
 10
-12.9189
 20
9.5198
 30
0.0
  0
SPLINE
  5
8F
330
1F
100
AcDbEntity
  8
DEFAULT_1
 62
   250
100
AcDbSpline
210
0.0
220
0.0
230
1.0
 70
    24
 71
     3
 72
     8
 73
     4
 74
     0
 42
0.0000000001
 43
0.0000000001
 40
0.0
 40
0.0
 40
0.0
 40
0.0
 40
1.0
 40
1.0
 40
1.0
 40
1.0
 10
-12.3083
 20
9.8228
 30
0.0
 10
-12.3083
 20
9.8228
 30
0.0
 10
-11.9791
 20
9.7346
 30
0.0
 10
-11.9791
 20
9.7346
 30
0.0
  0
SPLINE
  5
90
330
1F
100
AcDbEntity
  8
DEFAULT_1
 62
   250
100
AcDbSpline
210
0.0
220
0.0
230
1.0
 70
    24
 71
     3
 72
     8
 73
     4
 74
     0
 42
0.0000000001
 43
0.0000000001
 40
0.0
 40
0.0
 40
0.0
 40
0.0
 40
1.0
 40
1.0
 40
1.0
 40
1.0
 10
-19.791
 20
11.9601
 30
0.0
 10
-19.791
 20
11.9601
 30
0.0
 10
-16.0859
 20
10.9673
 30
0.0
 10
-16.0859
 20
10.9673
 30
0.0
  0
SPLINE
  5
91
330
1F
100
AcDbEntity
  8
DEFAULT_1
 62
   250
100
AcDbSpline
210
0.0
220
0.0
230
1.0
 70
    24
 71
     3
 72
     8
 73
     4
 74
     0
 42
0.0000000001
 43
0.0000000001
 40
0.0
 40
0.0
 40
0.0
 40
0.0
 40
1.0
 40
1.0
 40
1.0
 40
1.0
 10
-11.8908
 20
10.0638
 30
0.0
 10
-11.8908
 20
10.0638
 30
0.0
 10
-8.0858
 20
9.0443
 30
0.0
 10
-8.0858
 20
9.0443
 30
0.0
  0
SPLINE
  5
92
330
1F
100
AcDbEntity
  8
DEFAULT_1
 62
   250
100
AcDbSpline
210
0.0
220
0.0
230
1.0
 70
    24
 71
     3
 72
     8
 73
     4
 74
     0
 42
0.0000000001
 43
0.0000000001
 40
0.0
 40
0.0
 40
0.0
 40
0.0
 40
1.0
 40
1.0
 40
1.0
 40
1.0
 10
4.9044
 20
11.1048
 30
0.0
 10
4.9044
 20
11.1048
 30
0.0
 10
3.2581
 20
10.6636
 30
0.0
 10
3.2581
 20
10.6636
 30
0.0
  0
SPLINE
  5
93
330
1F
100
AcDbEntity
  8
DEFAULT_1
 62
   250
100
AcDbSpline
210
0.0
220
0.0
230
1.0
 70
    24
 71
     3
 72
     8
 73
     4
 74
     0
 42
0.0000000001
 43
0.0000000001
 40
0.0
 40
0.0
 40
0.0
 40
0.0
 40
1.0
 40
1.0
 40
1.0
 40
1.0
 10
6.745
 20
11.6767
 30
0.0
 10
6.745
 20
11.6767
 30
0.0
 10
5.8725
 20
11.4429
 30
0.0
 10
5.8725
 20
11.4429
 30
0.0
  0
SPLINE
  5
94
330
1F
100
AcDbEntity
  8
DEFAULT_1
 62
   250
100
AcDbSpline
210
0.0
220
0.0
230
1.0
 70
    24
 71
     3
 72
     8
 73
     4
 74
     0
 42
0.0000000001
 43
0.0000000001
 40
0.0
 40
0.0
 40
0.0
 40
0.0
 40
1.0
 40
1.0
 40
1.0
 40
1.0
 10
5.8505
 20
11.5252
 30
0.0
 10
5.8505
 20
11.5252
 30
0.0
 10
5.5212
 20
11.437
 30
0.0
 10
5.5212
 20
11.437
 30
0.0
  0
SPLINE
  5
95
330
1F
100
AcDbEntity
  8
DEFAULT_1
 62
   250
100
AcDbSpline
210
0.0
220
0.0
230
1.0
 70
    24
 71
     3
 72
     8
 73
     4
 74
     0
 42
0.0000000001
 43
0.0000000001
 40
0.0
 40
0.0
 40
0.0
 40
0.0
 40
1.0
 40
1.0
 40
1.0
 40
1.0
 10
2.8194
 20
12.3011
 30
0.0
 10
2.8194
 20
12.3011
 30
0.0
 10
4.4657
 20
12.7422
 30
0.0
 10
4.4657
 20
12.7422
 30
0.0
  0
SPLINE
  5
96
330
1F
100
AcDbEntity
  8
DEFAULT_1
 62
   250
100
AcDbSpline
210
0.0
220
0.0
230
1.0
 70
    24
 71
     3
 72
     8
 73
     4
 74
     0
 42
0.0000000001
 43
0.0000000001
 40
0.0
 40
0.0
 40
0.0
 40
0.0
 40
1.0
 40
1.0
 40
1.0
 40
1.0
 10
-14.2586
 20
11.1048
 30
0.0
 10
-14.2586
 20
11.1048
 30
0.0
 10
-12.6123
 20
10.6636
 30
0.0
 10
-12.6123
 20
10.6636
 30
0.0
  0
SPLINE
  5
97
330
1F
100
AcDbEntity
  8
DEFAULT_1
 62
   250
100
AcDbSpline
210
0.0
220
0.0
230
1.0
 70
    24
 71
     3
 72
     8
 73
     4
 74
     0
 42
0.0000000001
 43
0.0000000001
 40
0.0
 40
0.0
 40
0.0
 40
0.0
 40
1.0
 40
1.0
 40
1.0
 40
1.0
 10
-16.0993
 20
11.6767
 30
0.0
 10
-16.0993
 20
11.6767
 30
0.0
 10
-15.2267
 20
11.4429
 30
0.0
 10
-15.2267
 20
11.4429
 30
0.0
  0
SPLINE
  5
98
330
1F
100
AcDbEntity
  8
DEFAULT_1
 62
   250
100
AcDbSpline
210
0.0
220
0.0
230
1.0
 70
    24
 71
     3
 72
     8
 73
     4
 74
     0
 42
0.0000000001
 43
0.0000000001
 40
0.0
 40
0.0
 40
0.0
 40
0.0
 40
1.0
 40
1.0
 40
1.0
 40
1.0
 10
-15.2047
 20
11.5252
 30
0.0
 10
-15.2047
 20
11.5252
 30
0.0
 10
-14.8754
 20
11.437
 30
0.0
 10
-14.8754
 20
11.437
 30
0.0
  0
SPLINE
  5
99
330
1F
100
AcDbEntity
  8
DEFAULT_1
 62
   250
100
AcDbSpline
210
0.0
220
0.0
230
1.0
 70
    24
 71
     3
 72
     8
 73
     4
 74
     0
 42
0.0000000001
 43
0.0000000001
 40
0.0
 40
0.0
 40
0.0
 40
0.0
 40
1.0
 40
1.0
 40
1.0
 40
1.0
 10
-12.1736
 20
12.3011
 30
0.0
 10
-12.1736
 20
12.3011
 30
0.0
 10
-13.8199
 20
12.7422
 30
0.0
 10
-13.8199
 20
12.7422
 30
0.0
  0
SPLINE
  5
9A
330
1F
100
AcDbEntity
  8
DEFAULT_1
 62
   250
100
AcDbSpline
210
0.0
220
0.0
230
1.0
 70
    24
 71
     3
 72
     8
 73
     4
 74
     0
 42
0.0000000001
 43
0.0000000001
 40
0.0
 40
0.0
 40
0.0
 40
0.0
 40
1.0
 40
1.0
 40
1.0
 40
1.0
 10
1.1912
 20
15.085
 30
0.0
 10
1.1912
 20
15.085
 30
0.0
 10
2.6248
 20
9.7346
 30
0.0
 10
2.6248
 20
9.7346
 30
0.0
  0
SPLINE
  5
9B
330
1F
100
AcDbEntity
  8
DEFAULT_1
 62
   250
100
AcDbSpline
210
0.0
220
0.0
230
1.0
 70
    24
 71
     3
 72
     8
 73
     4
 74
     0
 42
0.0000000001
 43
0.0000000001
 40
0.0
 40
0.0
 40
0.0
 40
0.0
 40
1.0
 40
1.0
 40
1.0
 40
1.0
 10
1.3771
 20
15.7083
 30
0.0
 10
1.3771
 20
15.7083
 30
0.0
 10
3.0974
 20
9.2877
 30
0.0
 10
3.0974
 20
9.2877
 30
0.0
  0
SPLINE
  5
9C
330
1F
100
AcDbEntity
  8
DEFAULT_1
 62
   250
100
AcDbSpline
210
0.0
220
0.0
230
1.0
 70
    24
 71
     3
 72
     8
 73
     4
 74
     0
 42
0.0000000001
 43
0.0000000001
 40
0.0
 40
0.0
 40
0.0
 40
0.0
 40
1.0
 40
1.0
 40
1.0
 40
1.0
 10
1.8755
 20
15.8237
 30
0.0
 10
1.8755
 20
15.8237
 30
0.0
 10
2.0637
 20
15.1212
 30
0.0
 10
2.0637
 20
15.1212
 30
0.0
  0
SPLINE
  5
9D
330
1F
100
AcDbEntity
  8
DEFAULT_1
 62
   250
100
AcDbSpline
210
0.0
220
0.0
230
1.0
 70
    24
 71
     3
 72
     8
 73
     4
 74
     0
 42
0.0000000001
 43
0.0000000001
 40
0.0
 40
0.0
 40
0.0
 40
0.0
 40
1.0
 40
1.0
 40
1.0
 40
1.0
 10
2.2045
 20
14.596
 30
0.0
 10
2.2045
 20
14.596
 30
0.0
 10
2.6429
 20
12.9596
 30
0.0
 10
2.6429
 20
12.9596
 30
0.0
  0
SPLINE
  5
9E
330
1F
100
AcDbEntity
  8
DEFAULT_1
 62
   250
100
AcDbSpline
210
0.0
220
0.0
230
1.0
 70
    24
 71
     3
 72
     8
 73
     4
 74
     0
 42
0.0000000001
 43
0.0000000001
 40
0.0
 40
0.0
 40
0.0
 40
0.0
 40
1.0
 40
1.0
 40
1.0
 40
1.0
 10
2.8194
 20
12.3011
 30
0.0
 10
2.8194
 20
12.3011
 30
0.0
 10
3.2738
 20
10.6051
 30
0.0
 10
3.2738
 20
10.6051
 30
0.0
  0
SPLINE
  5
9F
330
1F
100
AcDbEntity
  8
DEFAULT_1
 62
   250
100
AcDbSpline
210
0.0
220
0.0
230
1.0
 70
    24
 71
     3
 72
     8
 73
     4
 74
     0
 42
0.0000000001
 43
0.0000000001
 40
0.0
 40
0.0
 40
0.0
 40
0.0
 40
1.0
 40
1.0
 40
1.0
 40
1.0
 10
3.3986
 20
10.1395
 30
0.0
 10
3.3986
 20
10.1395
 30
0.0
 10
3.5868
 20
9.437
 30
0.0
 10
3.5868
 20
9.437
 30
0.0
  0
SPLINE
  5
A0
330
1F
100
AcDbEntity
  8
DEFAULT_1
 62
   250
100
AcDbSpline
210
0.0
220
0.0
230
1.0
 70
    24
 71
     3
 72
     8
 73
     4
 74
     0
 42
0.0000000001
 43
0.0000000001
 40
0.0
 40
0.0
 40
0.0
 40
0.0
 40
1.0
 40
1.0
 40
1.0
 40
1.0
 10
2.6429
 20
12.9596
 30
0.0
 10
2.6429
 20
12.9596
 30
0.0
 10
4.2892
 20
13.4007
 30
0.0
 10
4.2892
 20
13.4007
 30
0.0
  0
SPLINE
  5
A1
330
1F
100
AcDbEntity
  8
DEFAULT_1
 62
   250
100
AcDbSpline
210
0.0
220
0.0
230
1.0
 70
    24
 71
     3
 72
     8
 73
     4
 74
     0
 42
0.0000000001
 43
0.0000000001
 40
0.0
 40
0.0
 40
0.0
 40
0.0
 40
1.0
 40
1.0
 40
1.0
 40
1.0
 10
-11.9971
 20
12.9596
 30
0.0
 10
-11.9971
 20
12.9596
 30
0.0
 10
-13.6434
 20
13.4007
 30
0.0
 10
-13.6434
 20
13.4007
 30
0.0
  0
SPLINE
  5
A2
330
1F
100
AcDbEntity
  8
DEFAULT_1
 62
   250
100
AcDbSpline
210
0.0
220
0.0
230
1.0
 70
    24
 71
     3
 72
     8
 73
     4
 74
     0
 42
0.0000000001
 43
0.0000000001
 40
0.0
 40
0.0
 40
0.0
 40
0.0
 40
1.0
 40
1.0
 40
1.0
 40
1.0
 10
3.8466
 20
16.3697
 30
0.0
 10
3.8466
 20
16.3697
 30
0.0
 10
3.8686
 20
16.2876
 30
0.0
 10
3.8686
 20
16.2876
 30
0.0
  0
SPLINE
  5
A3
330
1F
100
AcDbEntity
  8
DEFAULT_1
 62
   250
100
AcDbSpline
210
0.0
220
0.0
230
1.0
 70
    24
 71
     3
 72
     8
 73
     4
 74
     0
 42
0.0000000001
 43
0.0000000001
 40
0.0
 40
0.0
 40
0.0
 40
0.0
 40
1.0
 40
1.0
 40
1.0
 40
1.0
 10
5.5668
 20
9.9497
 30
0.0
 10
5.5668
 20
9.9497
 30
0.0
 10
5.5448
 20
10.0317
 30
0.0
 10
5.5448
 20
10.0317
 30
0.0
  0
SPLINE
  5
A4
330
1F
100
AcDbEntity
  8
DEFAULT_1
 62
   250
100
AcDbSpline
210
0.0
220
0.0
230
1.0
 70
    24
 71
     3
 72
     8
 73
     4
 74
     0
 42
0.0000000001
 43
0.0000000001
 40
0.0
 40
0.0
 40
0.0
 40
0.0
 40
1.0
 40
1.0
 40
1.0
 40
1.0
 10
5.7859
 20
10.4492
 30
0.0
 10
5.7859
 20
10.4492
 30
0.0
 10
4.2861
 20
16.0466
 30
0.0
 10
4.2861
 20
16.0466
 30
0.0
  0
SPLINE
  5
A5
330
1F
100
AcDbEntity
  8
DEFAULT_1
 62
   250
100
AcDbSpline
210
0.0
220
0.0
230
1.0
 70
    24
 71
     3
 72
     8
 73
     4
 74
     0
 42
0.0000000001
 43
0.0000000001
 40
0.0
 40
0.0
 40
0.0
 40
0.0
 40
1.0
 40
1.0
 40
1.0
 40
1.0
 10
4.8579
 20
15.2294
 30
0.0
 10
4.8579
 20
15.2294
 30
0.0
 10
5.8725
 20
11.4429
 30
0.0
 10
5.8725
 20
11.4429
 30
0.0
  0
SPLINE
  5
A6
330
1F
100
AcDbEntity
  8
DEFAULT_1
 62
   250
100
AcDbSpline
210
0.0
220
0.0
230
1.0
 70
    24
 71
     3
 72
     8
 73
     4
 74
     0
 42
0.0000000001
 43
0.0000000001
 40
0.0
 40
0.0
 40
0.0
 40
0.0
 40
1.0
 40
1.0
 40
1.0
 40
1.0
 10
-1.5667
 20
-25.4873
 30
0.0
 10
-1.5667
 20
-25.4873
 30
0.0
 10
-1.2684
 20
-24.9707
 30
0.0
 10
-1.2684
 20
-24.9707
 30
0.0
  0
SPLINE
  5
A7
330
1F
100
AcDbEntity
  8
DEFAULT_1
 62
   250
100
AcDbSpline
210
0.0
220
0.0
230
1.0
 70
    24
 71
     3
 72
     8
 73
     4
 74
     0
 42
0.0000000001
 43
0.0000000001
 40
0.0
 40
0.0
 40
0.0
 40
0.0
 40
1.0
 40
1.0
 40
1.0
 40
1.0
 10
4.88
 20
15.147
 30
0.0
 10
4.88
 20
15.147
 30
0.0
 10
4.5507
 20
15.0588
 30
0.0
 10
4.5507
 20
15.0588
 30
0.0
  0
SPLINE
  5
A8
330
1F
100
AcDbEntity
  8
DEFAULT_1
 62
   250
100
AcDbSpline
210
0.0
220
0.0
230
1.0
 70
    24
 71
     3
 72
     8
 73
     4
 74
     0
 42
0.0000000001
 43
0.0000000001
 40
0.0
 40
0.0
 40
0.0
 40
0.0
 40
1.0
 40
1.0
 40
1.0
 40
1.0
 10
7.1627
 20
15.8469
 30
0.0
 10
7.1627
 20
15.8469
 30
0.0
 10
4.8579
 20
15.2294
 30
0.0
 10
4.8579
 20
15.2294
 30
0.0
  0
SPLINE
  5
A9
330
1F
100
AcDbEntity
  8
DEFAULT_1
 62
   250
100
AcDbSpline
210
0.0
220
0.0
230
1.0
 70
    24
 71
     3
 72
     8
 73
     4
 74
     0
 42
0.0000000001
 43
0.0000000001
 40
0.0
 40
0.0
 40
0.0
 40
0.0
 40
1.0
 40
1.0
 40
1.0
 40
1.0
 10
3.8505
 20
15.0381
 30
0.0
 10
3.8505
 20
15.0381
 30
0.0
 10
2.2042
 20
14.597
 30
0.0
 10
2.2042
 20
14.597
 30
0.0
  0
SPLINE
  5
AA
330
1F
100
AcDbEntity
  8
DEFAULT_1
 62
   250
100
AcDbSpline
210
0.0
220
0.0
230
1.0
 70
    24
 71
     3
 72
     8
 73
     4
 74
     0
 42
0.0000000001
 43
0.0000000001
 40
0.0
 40
0.0
 40
0.0
 40
0.0
 40
1.0
 40
1.0
 40
1.0
 40
1.0
 10
-1.2684
 20
14.0731
 30
0.0
 10
-1.2684
 20
14.0731
 30
0.0
 10
1.2794
 20
14.7558
 30
0.0
 10
1.2794
 20
14.7558
 30
0.0
  0
SPLINE
  5
AB
330
1F
100
AcDbEntity
  8
DEFAULT_1
 62
   250
100
AcDbSpline
210
0.0
220
0.0
230
1.0
 70
    24
 71
     3
 72
     8
 73
     4
 74
     0
 42
0.0000000001
 43
0.0000000001
 40
0.0
 40
0.0
 40
0.0
 40
0.0
 40
1.0
 40
1.0
 40
1.0
 40
1.0
 10
1.1912
 20
15.085
 30
0.0
 10
1.1912
 20
15.085
 30
0.0
 10
1.5204
 20
15.1732
 30
0.0
 10
1.5204
 20
15.1732
 30
0.0
  0
SPLINE
  5
AC
330
1F
100
AcDbEntity
  8
DEFAULT_1
 62
   250
100
AcDbSpline
210
0.0
220
0.0
230
1.0
 70
    24
 71
     3
 72
     8
 73
     4
 74
     0
 42
0.0000000001
 43
0.0000000001
 40
0.0
 40
0.0
 40
0.0
 40
0.0
 40
1.0
 40
1.0
 40
1.0
 40
1.0
 10
3.5439
 20
16.182
 30
0.0
 10
3.5439
 20
16.182
 30
0.0
 10
1.8977
 20
15.7409
 30
0.0
 10
1.8977
 20
15.7409
 30
0.0
  0
SPLINE
  5
AD
330
1F
100
AcDbEntity
  8
DEFAULT_1
 62
   250
100
AcDbSpline
210
0.0
220
0.0
230
1.0
 70
    24
 71
     3
 72
     8
 73
     4
 74
     0
 42
0.0000000001
 43
0.0000000001
 40
0.0
 40
0.0
 40
0.0
 40
0.0
 40
1.0
 40
1.0
 40
1.0
 40
1.0
 10
3.8441
 20
16.3693
 30
0.0
 10
3.8441
 20
16.3693
 30
0.0
 10
1.3771
 20
15.7083
 30
0.0
 10
1.3771
 20
15.7083
 30
0.0
  0
SPLINE
  5
AE
330
1F
100
AcDbEntity
  8
DEFAULT_1
 62
   250
100
AcDbSpline
210
0.0
220
0.0
230
1.0
 70
    24
 71
     3
 72
     8
 73
     4
 74
     0
 42
0.0000000001
 43
0.0000000001
 40
0.0
 40
0.0
 40
0.0
 40
0.0
 40
1.0
 40
1.0
 40
1.0
 40
1.0
 10
-14.2342
 20
15.147
 30
0.0
 10
-14.2342
 20
15.147
 30
0.0
 10
-13.9049
 20
15.0588
 30
0.0
 10
-13.9049
 20
15.0588
 30
0.0
  0
SPLINE
  5
AF
330
1F
100
AcDbEntity
  8
DEFAULT_1
 62
   250
100
AcDbSpline
210
0.0
220
0.0
230
1.0
 70
    24
 71
     3
 72
     8
 73
     4
 74
     0
 42
0.0000000001
 43
0.0000000001
 40
0.0
 40
0.0
 40
0.0
 40
0.0
 40
1.0
 40
1.0
 40
1.0
 40
1.0
 10
-16.5169
 20
15.8469
 30
0.0
 10
-16.5169
 20
15.8469
 30
0.0
 10
-14.2122
 20
15.2294
 30
0.0
 10
-14.2122
 20
15.2294
 30
0.0
  0
SPLINE
  5
B0
330
1F
100
AcDbEntity
  8
DEFAULT_1
 62
   250
100
AcDbSpline
210
0.0
220
0.0
230
1.0
 70
    24
 71
     3
 72
     8
 73
     4
 74
     0
 42
0.0000000001
 43
0.0000000001
 40
0.0
 40
0.0
 40
0.0
 40
0.0
 40
1.0
 40
1.0
 40
1.0
 40
1.0
 10
-11.5427
 20
14.6555
 30
0.0
 10
-11.5427
 20
14.6555
 30
0.0
 10
-13.189
 20
15.0967
 30
0.0
 10
-13.189
 20
15.0967
 30
0.0
  0
SPLINE
  5
B1
330
1F
100
AcDbEntity
  8
DEFAULT_1
 62
   250
100
AcDbSpline
210
0.0
220
0.0
230
1.0
 70
    24
 71
     3
 72
     8
 73
     4
 74
     0
 42
0.0000000001
 43
0.0000000001
 40
0.0
 40
0.0
 40
0.0
 40
0.0
 40
1.0
 40
1.0
 40
1.0
 40
1.0
 10
-10.6336
 20
14.7558
 30
0.0
 10
-10.6336
 20
14.7558
 30
0.0
 10
-8.0858
 20
14.0731
 30
0.0
 10
-8.0858
 20
14.0731
 30
0.0
  0
SPLINE
  5
B2
330
1F
100
AcDbEntity
  8
DEFAULT_1
 62
   250
100
AcDbSpline
210
0.0
220
0.0
230
1.0
 70
    24
 71
     3
 72
     8
 73
     4
 74
     0
 42
0.0000000001
 43
0.0000000001
 40
0.0
 40
0.0
 40
0.0
 40
0.0
 40
1.0
 40
1.0
 40
1.0
 40
1.0
 10
-11.418
 20
15.1212
 30
0.0
 10
-11.418
 20
15.1212
 30
0.0
 10
-13.0642
 20
15.5623
 30
0.0
 10
-13.0642
 20
15.5623
 30
0.0
  0
SPLINE
  5
B3
330
1F
100
AcDbEntity
  8
DEFAULT_1
 62
   250
100
AcDbSpline
210
0.0
220
0.0
230
1.0
 70
    24
 71
     3
 72
     8
 73
     4
 74
     0
 42
0.0000000001
 43
0.0000000001
 40
0.0
 40
0.0
 40
0.0
 40
0.0
 40
1.0
 40
1.0
 40
1.0
 40
1.0
 10
-10.8747
 20
15.1732
 30
0.0
 10
-10.8747
 20
15.1732
 30
0.0
 10
-10.5454
 20
15.085
 30
0.0
 10
-10.5454
 20
15.085
 30
0.0
  0
SPLINE
  5
B4
330
1F
100
AcDbEntity
  8
DEFAULT_1
 62
   250
100
AcDbSpline
210
0.0
220
0.0
230
1.0
 70
    24
 71
     3
 72
     8
 73
     4
 74
     0
 42
0.0000000001
 43
0.0000000001
 40
0.0
 40
0.0
 40
0.0
 40
0.0
 40
1.0
 40
1.0
 40
1.0
 40
1.0
 10
-12.8982
 20
16.182
 30
0.0
 10
-12.8982
 20
16.182
 30
0.0
 10
-11.2519
 20
15.7409
 30
0.0
 10
-11.2519
 20
15.7409
 30
0.0
  0
SPLINE
  5
B5
330
1F
100
AcDbEntity
  8
DEFAULT_1
 62
   250
100
AcDbSpline
210
0.0
220
0.0
230
1.0
 70
    24
 71
     3
 72
     8
 73
     4
 74
     0
 42
0.0000000001
 43
0.0000000001
 40
0.0
 40
0.0
 40
0.0
 40
0.0
 40
1.0
 40
1.0
 40
1.0
 40
1.0
 10
-13.1983
 20
16.3693
 30
0.0
 10
-13.1983
 20
16.3693
 30
0.0
 10
-10.7313
 20
15.7083
 30
0.0
 10
-10.7313
 20
15.7083
 30
0.0
  0
SPLINE
  5
B6
330
1F
100
AcDbEntity
  8
DEFAULT_1
 62
   250
100
AcDbSpline
210
0.0
220
0.0
230
1.0
 70
    24
 71
     3
 72
     8
 73
     4
 74
     0
 42
0.0000000001
 43
0.0000000001
 40
0.0
 40
0.0
 40
0.0
 40
0.0
 40
1.0
 40
1.0
 40
1.0
 40
1.0
 10
8.0273
 20
7.609
 30
0.0
 10
8.0273
 20
7.609
 30
0.0
 10
7.5144
 20
8.7068
 30
0.0
 10
7.5144
 20
8.7068
 30
0.0
  0
SPLINE
  5
B7
330
1F
100
AcDbEntity
  8
DEFAULT_1
 62
   250
100
AcDbSpline
210
0.0
220
0.0
230
1.0
 70
    24
 71
     3
 72
     8
 73
     4
 74
     0
 42
0.0000000001
 43
0.0000000001
 40
0.0
 40
0.0
 40
0.0
 40
0.0
 40
1.0
 40
1.0
 40
1.0
 40
1.0
 10
8.3772
 20
6.4677
 30
0.0
 10
8.3772
 20
6.4677
 30
0.0
 10
7.9466
 20
7.5874
 30
0.0
 10
7.9466
 20
7.5874
 30
0.0
  0
SPLINE
  5
B8
330
1F
100
AcDbEntity
  8
DEFAULT_1
 62
   250
100
AcDbSpline
210
0.0
220
0.0
230
1.0
 70
    24
 71
     3
 72
     8
 73
     4
 74
     0
 42
0.0000000001
 43
0.0000000001
 40
0.0
 40
0.0
 40
0.0
 40
0.0
 40
1.0
 40
1.0
 40
1.0
 40
1.0
 10
8.7041
 20
5.3201
 30
0.0
 10
8.7041
 20
5.3201
 30
0.0
 10
8.3542
 20
6.4615
 30
0.0
 10
8.3542
 20
6.4615
 30
0.0
  0
SPLINE
  5
B9
330
1F
100
AcDbEntity
  8
DEFAULT_1
 62
   250
100
AcDbSpline
210
0.0
220
0.0
230
1.0
 70
    24
 71
     3
 72
     8
 73
     4
 74
     0
 42
0.0000000001
 43
0.0000000001
 40
0.0
 40
0.0
 40
0.0
 40
0.0
 40
1.0
 40
1.0
 40
1.0
 40
1.0
 10
6.9215
 20
11.0182
 30
0.0
 10
6.9215
 20
11.0182
 30
0.0
 10
6.745
 20
11.6767
 30
0.0
 10
6.745
 20
11.6767
 30
0.0
  0
SPLINE
  5
BA
330
1F
100
AcDbEntity
  8
DEFAULT_1
 62
   250
100
AcDbSpline
210
0.0
220
0.0
230
1.0
 70
    24
 71
     3
 72
     8
 73
     4
 74
     0
 42
0.0000000001
 43
0.0000000001
 40
0.0
 40
0.0
 40
0.0
 40
0.0
 40
1.0
 40
1.0
 40
1.0
 40
1.0
 10
8.6689
 20
4.9578
 30
0.0
 10
8.6689
 20
4.9578
 30
0.0
 10
8.735
 20
4.7108
 30
0.0
 10
8.735
 20
4.7108
 30
0.0
  0
SPLINE
  5
BB
330
1F
100
AcDbEntity
  8
DEFAULT_1
 62
   250
100
AcDbSpline
210
0.0
220
0.0
230
1.0
 70
    24
 71
     3
 72
     8
 73
     4
 74
     0
 42
0.0000000001
 43
0.0000000001
 40
0.0
 40
0.0
 40
0.0
 40
0.0
 40
1.0
 40
1.0
 40
1.0
 40
1.0
 10
8.8683
 20
5.3641
 30
0.0
 10
8.8683
 20
5.3641
 30
0.0
 10
8.9488
 20
5.0328
 30
0.0
 10
8.9488
 20
5.0328
 30
0.0
  0
SPLINE
  5
BC
330
1F
100
AcDbEntity
  8
DEFAULT_1
 62
   250
100
AcDbSpline
210
0.0
220
0.0
230
1.0
 70
    24
 71
     3
 72
     8
 73
     4
 74
     0
 42
0.0000000001
 43
0.0000000001
 40
0.0
 40
0.0
 40
0.0
 40
0.0
 40
1.0
 40
1.0
 40
1.0
 40
1.0
 10
10.9939
 20
8.404
 30
0.0
 10
10.9939
 20
8.404
 30
0.0
 10
10.8892
 20
9.6111
 30
0.0
 10
10.8892
 20
9.6111
 30
0.0
  0
SPLINE
  5
BD
330
1F
100
AcDbEntity
  8
DEFAULT_1
 62
   250
100
AcDbSpline
210
0.0
220
0.0
230
1.0
 70
    24
 71
     3
 72
     8
 73
     4
 74
     0
 42
0.0000000001
 43
0.0000000001
 40
0.0
 40
0.0
 40
0.0
 40
0.0
 40
1.0
 40
1.0
 40
1.0
 40
1.0
 10
10.5409
 20
10.7529
 30
0.0
 10
10.5409
 20
10.7529
 30
0.0
 10
10.4797
 20
11.929
 30
0.0
 10
10.4797
 20
11.929
 30
0.0
  0
SPLINE
  5
BE
330
1F
100
AcDbEntity
  8
DEFAULT_1
 62
   250
100
AcDbSpline
210
0.0
220
0.0
230
1.0
 70
    24
 71
     3
 72
     8
 73
     4
 74
     0
 42
0.0000000001
 43
0.0000000001
 40
0.0
 40
0.0
 40
0.0
 40
0.0
 40
1.0
 40
1.0
 40
1.0
 40
1.0
 10
10.8069
 20
9.589
 30
0.0
 10
10.8069
 20
9.589
 30
0.0
 10
10.7552
 20
10.7674
 30
0.0
 10
10.7552
 20
10.7674
 30
0.0
  0
SPLINE
  5
BF
330
1F
100
AcDbEntity
  8
DEFAULT_1
 62
   250
100
AcDbSpline
210
0.0
220
0.0
230
1.0
 70
    24
 71
     3
 72
     8
 73
     4
 74
     0
 42
0.0000000001
 43
0.0000000001
 40
0.0
 40
0.0
 40
0.0
 40
0.0
 40
1.0
 40
1.0
 40
1.0
 40
1.0
 10
7.5967
 20
8.7288
 30
0.0
 10
7.5967
 20
8.7288
 30
0.0
 10
7.0523
 20
9.7752
 30
0.0
 10
7.0523
 20
9.7752
 30
0.0
  0
SPLINE
  5
C0
330
1F
100
AcDbEntity
  8
DEFAULT_1
 62
   250
100
AcDbSpline
210
0.0
220
0.0
230
1.0
 70
    24
 71
     3
 72
     8
 73
     4
 74
     0
 42
0.0000000001
 43
0.0000000001
 40
0.0
 40
0.0
 40
0.0
 40
0.0
 40
1.0
 40
1.0
 40
1.0
 40
1.0
 10
7.2451
 20
9.8698
 30
0.0
 10
7.2451
 20
9.8698
 30
0.0
 10
6.7101
 20
10.9189
 30
0.0
 10
6.7101
 20
10.9189
 30
0.0
  0
SPLINE
  5
C1
330
1F
100
AcDbEntity
  8
DEFAULT_1
 62
   250
100
AcDbSpline
210
0.0
220
0.0
230
1.0
 70
    24
 71
     3
 72
     8
 73
     4
 74
     0
 42
0.0000000001
 43
0.0000000001
 40
0.0
 40
0.0
 40
0.0
 40
0.0
 40
1.0
 40
1.0
 40
1.0
 40
1.0
 10
11.2615
 20
7.2405
 30
0.0
 10
11.2615
 20
7.2405
 30
0.0
 10
11.0746
 20
8.4256
 30
0.0
 10
11.0746
 20
8.4256
 30
0.0
  0
SPLINE
  5
C2
330
1F
100
AcDbEntity
  8
DEFAULT_1
 62
   250
100
AcDbSpline
210
0.0
220
0.0
230
1.0
 70
    24
 71
     3
 72
     8
 73
     4
 74
     0
 42
0.0000000001
 43
0.0000000001
 40
0.0
 40
0.0
 40
0.0
 40
0.0
 40
1.0
 40
1.0
 40
1.0
 40
1.0
 10
-8.938
 20
17.1218
 30
0.0
 10
-8.938
 20
17.1218
 30
0.0
 10
-0.4162
 20
17.1218
 30
0.0
 10
-0.4162
 20
17.1218
 30
0.0
  0
SPLINE
  5
C3
330
1F
100
AcDbEntity
  8
DEFAULT_1
 62
   250
100
AcDbSpline
210
0.0
220
0.0
230
1.0
 70
    24
 71
     3
 72
     8
 73
     4
 74
     0
 42
0.0000000001
 43
0.0000000001
 40
0.0
 40
0.0
 40
0.0
 40
0.0
 40
1.0
 40
1.0
 40
1.0
 40
1.0
 10
11.388
 20
6.0393
 30
0.0
 10
11.388
 20
6.0393
 30
0.0
 10
11.484
 20
5.7121
 30
0.0
 10
11.484
 20
5.7121
 30
0.0
  0
SPLINE
  5
C4
330
1F
100
AcDbEntity
  8
DEFAULT_1
 62
   250
100
AcDbSpline
210
0.0
220
0.0
230
1.0
 70
    24
 71
     3
 72
     8
 73
     4
 74
     0
 42
0.0000000001
 43
0.0000000001
 40
0.0
 40
0.0
 40
0.0
 40
0.0
 40
1.0
 40
1.0
 40
1.0
 40
1.0
 10
11.7639
 20
5.7871
 30
0.0
 10
11.7639
 20
5.7871
 30
0.0
 10
11.8301
 20
5.5402
 30
0.0
 10
11.8301
 20
5.5402
 30
0.0
  0
SPLINE
  5
C5
330
1F
100
AcDbEntity
  8
DEFAULT_1
 62
   250
100
AcDbSpline
210
0.0
220
0.0
230
1.0
 70
    24
 71
     3
 72
     8
 73
     4
 74
     0
 42
0.0000000001
 43
0.0000000001
 40
0.0
 40
0.0
 40
0.0
 40
0.0
 40
1.0
 40
1.0
 40
1.0
 40
1.0
 10
10.247
 20
11.9093
 30
0.0
 10
10.247
 20
11.9093
 30
0.0
 10
9.5632
 20
14.461
 30
0.0
 10
9.5632
 20
14.461
 30
0.0
  0
SPLINE
  5
C6
330
1F
100
AcDbEntity
  8
DEFAULT_1
 62
   250
100
AcDbSpline
210
0.0
220
0.0
230
1.0
 70
    24
 71
     3
 72
     8
 73
     4
 74
     0
 42
0.0000000001
 43
0.0000000001
 40
0.0
 40
0.0
 40
0.0
 40
0.0
 40
1.0
 40
1.0
 40
1.0
 40
1.0
 10
11.5522
 20
6.0833
 30
0.0
 10
11.5522
 20
6.0833
 30
0.0
 10
11.2846
 20
7.2467
 30
0.0
 10
11.2846
 20
7.2467
 30
0.0
  0
SPLINE
  5
C7
330
1F
100
AcDbEntity
  8
DEFAULT_1
 62
   250
100
AcDbSpline
210
0.0
220
0.0
230
1.0
 70
    24
 71
     3
 72
     8
 73
     4
 74
     0
 42
0.0000000001
 43
0.0000000001
 40
0.0
 40
0.0
 40
0.0
 40
0.0
 40
1.0
 40
1.0
 40
1.0
 40
1.0
 10
0.0099
 20
17.8036
 30
0.0
 10
0.0099
 20
17.8036
 30
0.0
 10
-0.0753
 20
17.8036
 30
0.0
 10
-0.0753
 20
17.8036
 30
0.0
  0
SPLINE
  5
C8
330
1F
100
AcDbEntity
  8
DEFAULT_1
 62
   250
100
AcDbSpline
210
0.0
220
0.0
230
1.0
 70
    24
 71
     3
 72
     8
 73
     4
 74
     0
 42
0.0000000001
 43
0.0000000001
 40
0.0
 40
0.0
 40
0.0
 40
0.0
 40
1.0
 40
1.0
 40
1.0
 40
1.0
 10
-9.3641
 20
17.8036
 30
0.0
 10
-9.3641
 20
17.8036
 30
0.0
 10
-9.2789
 20
17.8036
 30
0.0
 10
-9.2789
 20
17.8036
 30
0.0
  0
SPLINE
  5
C9
330
1F
100
AcDbEntity
  8
DEFAULT_1
 62
   250
100
AcDbSpline
210
0.0
220
0.0
230
1.0
 70
    24
 71
     3
 72
     8
 73
     4
 74
     0
 42
0.0000000001
 43
0.0000000001
 40
0.0
 40
0.0
 40
0.0
 40
0.0
 40
1.0
 40
1.0
 40
1.0
 40
1.0
 10
-0.0025
 20
19.3375
 30
0.0
 10
-0.0025
 20
19.3375
 30
0.0
 10
-1.1307
 20
19.3375
 30
0.0
 10
-1.1307
 20
19.3375
 30
0.0
  0
SPLINE
  5
CA
330
1F
100
AcDbEntity
  8
DEFAULT_1
 62
   250
100
AcDbSpline
210
0.0
220
0.0
230
1.0
 70
    24
 71
     3
 72
     8
 73
     4
 74
     0
 42
0.0000000001
 43
0.0000000001
 40
0.0
 40
0.0
 40
0.0
 40
0.0
 40
1.0
 40
1.0
 40
1.0
 40
1.0
 10
-1.6707
 20
19.3375
 30
0.0
 10
-1.6707
 20
19.3375
 30
0.0
 10
-4.3362
 20
19.3375
 30
0.0
 10
-4.3362
 20
19.3375
 30
0.0
  0
SPLINE
  5
CB
330
1F
100
AcDbEntity
  8
DEFAULT_1
 62
   250
100
AcDbSpline
210
0.0
220
0.0
230
1.0
 70
    24
 71
     3
 72
     8
 73
     4
 74
     0
 42
0.0000000001
 43
0.0000000001
 40
0.0
 40
0.0
 40
0.0
 40
0.0
 40
1.0
 40
1.0
 40
1.0
 40
1.0
 10
-5.018
 20
19.3375
 30
0.0
 10
-5.018
 20
19.3375
 30
0.0
 10
-7.7415
 20
19.3375
 30
0.0
 10
-7.7415
 20
19.3375
 30
0.0
  0
SPLINE
  5
CC
330
1F
100
AcDbEntity
  8
DEFAULT_1
 62
   250
100
AcDbSpline
210
0.0
220
0.0
230
1.0
 70
    24
 71
     3
 72
     8
 73
     4
 74
     0
 42
0.0000000001
 43
0.0000000001
 40
0.0
 40
0.0
 40
0.0
 40
0.0
 40
1.0
 40
1.0
 40
1.0
 40
1.0
 10
-8.2236
 20
19.3375
 30
0.0
 10
-8.2236
 20
19.3375
 30
0.0
 10
-9.3517
 20
19.3375
 30
0.0
 10
-9.3517
 20
19.3375
 30
0.0
  0
SPLINE
  5
CD
330
1F
100
AcDbEntity
  8
DEFAULT_1
 62
   250
100
AcDbSpline
210
0.0
220
0.0
230
1.0
 70
    24
 71
     3
 72
     8
 73
     4
 74
     0
 42
0.0000000001
 43
0.0000000001
 40
0.0
 40
0.0
 40
0.0
 40
0.0
 40
1.0
 40
1.0
 40
1.0
 40
1.0
 10
0.0099
 20
19.8488
 30
0.0
 10
0.0099
 20
19.8488
 30
0.0
 10
-9.3641
 20
19.8488
 30
0.0
 10
-9.3641
 20
19.8488
 30
0.0
  0
SPLINE
  5
CE
330
1F
100
AcDbEntity
  8
DEFAULT_1
 62
   250
100
AcDbSpline
210
0.0
220
0.0
230
1.0
 70
     8
 71
     3
 72
    12
 73
     8
 74
     0
 42
0.0000000001
 43
0.0000000001
 40
0.0
 40
0.0
 40
0.0
 40
0.0
 40
0.3333333333333333
 40
0.3333333333333333
 40
0.3333333333333333
 40
0.3333333333333333
 40
1.0
 40
1.0
 40
1.0
 40
1.0
 10
-5.018
 20
18.1444
 30
0.0
 10
-5.018
 20
17.9562
 30
0.0
 10
-4.8654
 20
17.8036
 30
0.0
 10
-4.6771
 20
17.8036
 30
0.0
 10
-4.6771
 20
17.8036
 30
0.0
 10
-4.4888
 20
17.8036
 30
0.0
 10
-4.3362
 20
17.9562
 30
0.0
 10
-4.3362
 20
18.1444
 30
0.0
  0
SPLINE
  5
CF
330
1F
100
AcDbEntity
  8
DEFAULT_1
 62
   250
100
AcDbSpline
210
0.0
220
0.0
230
1.0
 70
     8
 71
     3
 72
     8
 73
     4
 74
     0
 42
0.0000000001
 43
0.0000000001
 40
0.0
 40
0.0
 40
0.0
 40
0.0
 40
1.0
 40
1.0
 40
1.0
 40
1.0
 10
-9.2789
 20
17.4627
 30
0.0
 10
-9.2789
 20
17.2744
 30
0.0
 10
-9.1263
 20
17.1218
 30
0.0
 10
-8.938
 20
17.1218
 30
0.0
  0
SPLINE
  5
D0
330
1F
100
AcDbEntity
  8
DEFAULT_1
 62
   250
100
AcDbSpline
210
0.0
220
0.0
230
1.0
 70
     8
 71
     3
 72
     8
 73
     4
 74
     0
 42
0.0000000001
 43
0.0000000001
 40
0.0
 40
0.0
 40
0.0
 40
0.0
 40
1.0
 40
1.0
 40
1.0
 40
1.0
 10
-0.4162
 20
17.1218
 30
0.0
 10
-0.228
 20
17.1218
 30
0.0
 10
-0.0753
 20
17.2744
 30
0.0
 10
-0.0753
 20
17.4627
 30
0.0
  0
SPLINE
  5
D1
330
1F
100
AcDbEntity
  8
DEFAULT_1
 62
   250
100
AcDbSpline
210
0.0
220
0.0
230
1.0
 70
     8
 71
     3
 72
    12
 73
     8
 74
     0
 42
0.0000000001
 43
0.0000000001
 40
0.0
 40
0.0
 40
0.0
 40
0.0
 40
0.3333333333333333
 40
0.3333333333333333
 40
0.3333333333333333
 40
0.3333333333333333
 40
1.0
 40
1.0
 40
1.0
 40
1.0
 10
-13.6434
 20
13.4007
 30
0.0
 10
-13.8253
 20
13.4495
 30
0.0
 10
-14.0122
 20
13.3415
 30
0.0
 10
-14.0609
 20
13.1597
 30
0.0
 10
-14.0609
 20
13.1597
 30
0.0
 10
-14.1097
 20
12.9778
 30
0.0
 10
-14.0017
 20
12.7909
 30
0.0
 10
-13.8199
 20
12.7422
 30
0.0
  0
SPLINE
  5
D2
330
1F
100
AcDbEntity
  8
DEFAULT_1
 62
   250
100
AcDbSpline
210
0.0
220
0.0
230
1.0
 70
     8
 71
     3
 72
     8
 73
     4
 74
     0
 42
0.0000000001
 43
0.0000000001
 40
0.0
 40
0.0
 40
0.0
 40
0.0
 40
1.0
 40
1.0
 40
1.0
 40
1.0
 10
-13.2228
 20
16.2876
 30
0.0
 10
-13.4046
 20
16.3363
 30
0.0
 10
-13.5915
 20
16.2285
 30
0.0
 10
-13.6403
 20
16.0466
 30
0.0
  0
SPLINE
  5
D3
330
1F
100
AcDbEntity
  8
DEFAULT_1
 62
   250
100
AcDbSpline
210
0.0
220
0.0
230
1.0
 70
     8
 71
     3
 72
     8
 73
     4
 74
     0
 42
0.0000000001
 43
0.0000000001
 40
0.0
 40
0.0
 40
0.0
 40
0.0
 40
1.0
 40
1.0
 40
1.0
 40
1.0
 10
-15.1401
 20
10.4492
 30
0.0
 10
-15.1888
 20
10.2674
 30
0.0
 10
-15.0809
 20
10.0805
 30
0.0
 10
-14.8991
 20
10.0317
 30
0.0
  0
SPLINE
  5
D4
330
1F
100
AcDbEntity
  8
DEFAULT_1
 62
   250
100
AcDbSpline
210
0.0
220
0.0
230
1.0
 70
     8
 71
     3
 72
    12
 73
     8
 74
     0
 42
0.0000000001
 43
0.0000000001
 40
0.0
 40
0.0
 40
0.0
 40
0.0
 40
0.3333333333333333
 40
0.3333333333333333
 40
0.3333333333333333
 40
0.3333333333333333
 40
1.0
 40
1.0
 40
1.0
 40
1.0
 10
4.4657
 20
12.7422
 30
0.0
 10
4.6475
 20
12.7909
 30
0.0
 10
4.7554
 20
12.9778
 30
0.0
 10
4.7067
 20
13.1597
 30
0.0
 10
4.7067
 20
13.1597
 30
0.0
 10
4.658
 20
13.3415
 30
0.0
 10
4.4711
 20
13.4495
 30
0.0
 10
4.2892
 20
13.4007
 30
0.0
  0
SPLINE
  5
D5
330
1F
100
AcDbEntity
  8
DEFAULT_1
 62
   250
100
AcDbSpline
210
0.0
220
0.0
230
1.0
 70
     8
 71
     3
 72
     8
 73
     4
 74
     0
 42
0.0000000001
 43
0.0000000001
 40
0.0
 40
0.0
 40
0.0
 40
0.0
 40
1.0
 40
1.0
 40
1.0
 40
1.0
 10
5.5448
 20
10.0317
 30
0.0
 10
5.7267
 20
10.0805
 30
0.0
 10
5.8346
 20
10.2674
 30
0.0
 10
5.7859
 20
10.4492
 30
0.0
  0
SPLINE
  5
D6
330
1F
100
AcDbEntity
  8
DEFAULT_1
 62
   250
100
AcDbSpline
210
0.0
220
0.0
230
1.0
 70
     8
 71
     3
 72
     8
 73
     4
 74
     0
 42
0.0000000001
 43
0.0000000001
 40
0.0
 40
0.0
 40
0.0
 40
0.0
 40
1.0
 40
1.0
 40
1.0
 40
1.0
 10
4.2861
 20
16.0466
 30
0.0
 10
4.2373
 20
16.2285
 30
0.0
 10
4.0504
 20
16.3363
 30
0.0
 10
3.8686
 20
16.2876
 30
0.0
  0
SPLINE
  5
D7
330
1F
100
AcDbEntity
  8
DEFAULT_1
 62
   250
100
AcDbSpline
210
0.0
220
0.0
230
1.0
 70
     8
 71
     3
 72
    12
 73
     8
 74
     0
 42
0.0000000001
 43
0.0000000001
 40
0.0
 40
0.0
 40
0.0
 40
0.0
 40
0.3333333333333333
 40
0.3333333333333333
 40
0.3333333333333333
 40
0.3333333333333333
 40
1.0
 40
1.0
 40
1.0
 40
1.0
 10
7.0737
 20
9.8238
 30
0.0
 10
7.0637
 20
9.8211
 30
0.0
 10
7.0555
 20
9.8141
 30
0.0
 10
7.0514
 20
9.8046
 30
0.0
 10
7.0514
 20
9.8046
 30
0.0
 10
7.0472
 20
9.7952
 30
0.0
 10
7.0475
 20
9.7843
 30
0.0
 10
7.0523
 20
9.7752
 30
0.0
  0
SPLINE
  5
D8
330
1F
100
AcDbEntity
  8
DEFAULT_1
 62
   250
100
AcDbSpline
210
0.0
220
0.0
230
1.0
 70
     8
 71
     3
 72
    12
 73
     8
 74
     0
 42
0.0000000001
 43
0.0000000001
 40
0.0
 40
0.0
 40
0.0
 40
0.0
 40
0.3333333333333333
 40
0.3333333333333333
 40
0.3333333333333333
 40
0.3333333333333333
 40
1.0
 40
1.0
 40
1.0
 40
1.0
 10
10.7552
 20
10.7674
 30
0.0
 10
10.7547
 20
10.7777
 30
0.0
 10
10.7496
 20
10.7872
 30
0.0
 10
10.7413
 20
10.7933
 30
0.0
 10
10.7413
 20
10.7933
 30
0.0
 10
10.733
 20
10.7995
 30
0.0
 10
10.7223
 20
10.8015
 30
0.0
 10
10.7123
 20
10.7988
 30
0.0
  0
SPLINE
  5
D9
330
1F
100
AcDbEntity
  8
DEFAULT_1
 62
   250
100
AcDbSpline
210
0.0
220
0.0
230
1.0
 70
     8
 71
     3
 72
    12
 73
     8
 74
     0
 42
0.0000000001
 43
0.0000000001
 40
0.0
 40
0.0
 40
0.0
 40
0.0
 40
0.3333333333333333
 40
0.3333333333333333
 40
0.3333333333333333
 40
0.3333333333333333
 40
1.0
 40
1.0
 40
1.0
 40
1.0
 10
6.7317
 20
10.9673
 30
0.0
 10
6.7217
 20
10.9647
 30
0.0
 10
6.7136
 20
10.9576
 30
0.0
 10
6.7094
 20
10.9483
 30
0.0
 10
6.7094
 20
10.9483
 30
0.0
 10
6.7052
 20
10.9389
 30
0.0
 10
6.7055
 20
10.9281
 30
0.0
 10
6.7101
 20
10.9189
 30
0.0
  0
SPLINE
  5
DA
330
1F
100
AcDbEntity
  8
DEFAULT_1
 62
   250
100
AcDbSpline
210
0.0
220
0.0
230
1.0
 70
     8
 71
     3
 72
    12
 73
     8
 74
     0
 42
0.0000000001
 43
0.0000000001
 40
0.0
 40
0.0
 40
0.0
 40
0.0
 40
0.3333333333333333
 40
0.3333333333333333
 40
0.3333333333333333
 40
0.3333333333333333
 40
1.0
 40
1.0
 40
1.0
 40
1.0
 10
10.4797
 20
11.929
 30
0.0
 10
10.4791
 20
11.9392
 30
0.0
 10
10.474
 20
11.9487
 30
0.0
 10
10.4657
 20
11.9548
 30
0.0
 10
10.4657
 20
11.9548
 30
0.0
 10
10.4573
 20
11.9608
 30
0.0
 10
10.4467
 20
11.9628
 30
0.0
 10
10.4368
 20
11.9601
 30
0.0
  0
SPLINE
  5
DB
330
1F
100
AcDbEntity
  8
DEFAULT_1
 62
   250
100
AcDbSpline
210
0.0
220
0.0
230
1.0
 70
     8
 71
     3
 72
     8
 73
     4
 74
     0
 42
0.0000000001
 43
0.0000000001
 40
0.0
 40
0.0
 40
0.0
 40
0.0
 40
1.0
 40
1.0
 40
1.0
 40
1.0
 10
9.5632
 20
14.461
 30
0.0
 10
9.2831
 20
15.5066
 30
0.0
 10
8.2083
 20
16.1271
 30
0.0
 10
7.1627
 20
15.8469
 30
0.0
  0
SPLINE
  5
DC
330
1F
100
AcDbEntity
  8
DEFAULT_1
 62
   250
100
AcDbSpline
210
0.0
220
0.0
230
1.0
 70
     8
 71
     3
 72
    12
 73
     8
 74
     0
 42
0.0000000001
 43
0.0000000001
 40
0.0
 40
0.0
 40
0.0
 40
0.0
 40
0.3333333333333333
 40
0.3333333333333333
 40
0.3333333333333333
 40
0.3333333333333333
 40
1.0
 40
1.0
 40
1.0
 40
1.0
 10
-20.0665
 20
10.7988
 30
0.0
 10
-20.0765
 20
10.8015
 30
0.0
 10
-20.0872
 20
10.7995
 30
0.0
 10
-20.0955
 20
10.7933
 30
0.0
 10
-20.0955
 20
10.7933
 30
0.0
 10
-20.1038
 20
10.7872
 30
0.0
 10
-20.109
 20
10.7777
 30
0.0
 10
-20.1094
 20
10.7674
 30
0.0
  0
SPLINE
  5
DD
330
1F
100
AcDbEntity
  8
DEFAULT_1
 62
   250
100
AcDbSpline
210
0.0
220
0.0
230
1.0
 70
     8
 71
     3
 72
    12
 73
     8
 74
     0
 42
0.0000000001
 43
0.0000000001
 40
0.0
 40
0.0
 40
0.0
 40
0.0
 40
0.3333333333333333
 40
0.3333333333333333
 40
0.3333333333333333
 40
0.3333333333333333
 40
1.0
 40
1.0
 40
1.0
 40
1.0
 10
-16.4065
 20
9.7752
 30
0.0
 10
-16.4018
 20
9.7843
 30
0.0
 10
-16.4014
 20
9.7952
 30
0.0
 10
-16.4056
 20
9.8046
 30
0.0
 10
-16.4056
 20
9.8046
 30
0.0
 10
-16.4097
 20
9.8141
 30
0.0
 10
-16.418
 20
9.8211
 30
0.0
 10
-16.428
 20
9.8238
 30
0.0
  0
SPLINE
  5
DE
330
1F
100
AcDbEntity
  8
DEFAULT_1
 62
   250
100
AcDbSpline
210
0.0
220
0.0
230
1.0
 70
     8
 71
     3
 72
    12
 73
     8
 74
     0
 42
0.0000000001
 43
0.0000000001
 40
0.0
 40
0.0
 40
0.0
 40
0.0
 40
0.3333333333333333
 40
0.3333333333333333
 40
0.3333333333333333
 40
0.3333333333333333
 40
1.0
 40
1.0
 40
1.0
 40
1.0
 10
-19.791
 20
11.9601
 30
0.0
 10
-19.801
 20
11.9628
 30
0.0
 10
-19.8116
 20
11.9608
 30
0.0
 10
-19.8199
 20
11.9548
 30
0.0
 10
-19.8199
 20
11.9548
 30
0.0
 10
-19.8282
 20
11.9487
 30
0.0
 10
-19.8334
 20
11.9392
 30
0.0
 10
-19.8339
 20
11.929
 30
0.0
  0
SPLINE
  5
DF
330
1F
100
AcDbEntity
  8
DEFAULT_1
 62
   250
100
AcDbSpline
210
0.0
220
0.0
230
1.0
 70
     8
 71
     3
 72
    12
 73
     8
 74
     0
 42
0.0000000001
 43
0.0000000001
 40
0.0
 40
0.0
 40
0.0
 40
0.0
 40
0.3333333333333333
 40
0.3333333333333333
 40
0.3333333333333333
 40
0.3333333333333333
 40
1.0
 40
1.0
 40
1.0
 40
1.0
 10
-16.0644
 20
10.9189
 30
0.0
 10
-16.0597
 20
10.9281
 30
0.0
 10
-16.0594
 20
10.9389
 30
0.0
 10
-16.0636
 20
10.9483
 30
0.0
 10
-16.0636
 20
10.9483
 30
0.0
 10
-16.0678
 20
10.9576
 30
0.0
 10
-16.076
 20
10.9647
 30
0.0
 10
-16.0859
 20
10.9673
 30
0.0
  0
SPLINE
  5
E0
330
1F
100
AcDbEntity
  8
DEFAULT_1
 62
   250
100
AcDbSpline
210
0.0
220
0.0
230
1.0
 70
     8
 71
     3
 72
     8
 73
     4
 74
     0
 42
0.0000000001
 43
0.0000000001
 40
0.0
 40
0.0
 40
0.0
 40
0.0
 40
1.0
 40
1.0
 40
1.0
 40
1.0
 10
-16.5169
 20
15.8469
 30
0.0
 10
-17.5626
 20
16.1271
 30
0.0
 10
-18.6373
 20
15.5066
 30
0.0
 10
-18.9175
 20
14.461
 30
0.0
  0
SPLINE
  5
E1
330
1F
100
AcDbEntity
  8
DEFAULT_1
 62
   250
100
AcDbSpline
210
0.0
220
0.0
230
1.0
 70
     8
 71
     3
 72
    28
 73
    24
 74
     0
 42
0.0000000001
 43
0.0000000001
 40
0.0
 40
0.0
 40
0.0
 40
0.0
 40
0.1428571428571428
 40
0.1428571428571428
 40
0.1428571428571428
 40
0.1428571428571428
 40
0.2857142857142857
 40
0.2857142857142857
 40
0.2857142857142857
 40
0.2857142857142857
 40
0.4285714285714285
 40
0.4285714285714285
 40
0.4285714285714285
 40
0.4285714285714285
 40
0.5714285714285714
 40
0.5714285714285714
 40
0.5714285714285714
 40
0.5714285714285714
 40
0.7142857142857143
 40
0.7142857142857143
 40
0.7142857142857143
 40
0.7142857142857143
 40
1.0
 40
1.0
 40
1.0
 40
1.0
 10
-7.9913
 20
17.8036
 30
0.0
 10
-7.9913
 20
17.8036
 30
0.0
 10
-8.053
 20
17.8152
 30
0.0
 10
-8.053
 20
17.8152
 30
0.0
 10
-8.053
 20
17.8152
 30
0.0
 10
-8.053
 20
17.8152
 30
0.0
 10
-8.1096
 20
17.8492
 30
0.0
 10
-8.1096
 20
17.8492
 30
0.0
 10
-8.1096
 20
17.8492
 30
0.0
 10
-8.1096
 20
17.8492
 30
0.0
 10
-8.1574
 20
17.9034
 30
0.0
 10
-8.1574
 20
17.9034
 30
0.0
 10
-8.1574
 20
17.9034
 30
0.0
 10
-8.1574
 20
17.9034
 30
0.0
 10
-8.1935
 20
17.9741
 30
0.0
 10
-8.1935
 20
17.9741
 30
0.0
 10
-8.1935
 20
17.9741
 30
0.0
 10
-8.1935
 20
17.9741
 30
0.0
 10
-8.216
 20
18.0563
 30
0.0
 10
-8.216
 20
18.0563
 30
0.0
 10
-8.216
 20
18.0563
 30
0.0
 10
-8.216
 20
18.0563
 30
0.0
 10
-8.2236
 20
18.1444
 30
0.0
 10
-8.2236
 20
18.1444
 30
0.0
  0
SPLINE
  5
E2
330
1F
100
AcDbEntity
  8
DEFAULT_1
 62
   250
100
AcDbSpline
210
0.0
220
0.0
230
1.0
 70
     8
 71
     3
 72
    32
 73
    28
 74
     0
 42
0.0000000001
 43
0.0000000001
 40
0.0
 40
0.0
 40
0.0
 40
0.0
 40
0.125
 40
0.125
 40
0.125
 40
0.125
 40
0.25
 40
0.25
 40
0.25
 40
0.25
 40
0.375
 40
0.375
 40
0.375
 40
0.375
 40
0.5
 40
0.5
 40
0.5
 40
0.5
 40
0.625
 40
0.625
 40
0.625
 40
0.625
 40
0.75
 40
0.75
 40
0.75
 40
0.75
 40
1.0
 40
1.0
 40
1.0
 40
1.0
 10
-0.088
 20
18.1444
 30
0.0
 10
-0.088
 20
18.1444
 30
0.0
 10
-0.0874
 20
18.069
 30
0.0
 10
-0.0874
 20
18.069
 30
0.0
 10
-0.0874
 20
18.069
 30
0.0
 10
-0.0874
 20
18.069
 30
0.0
 10
-0.0856
 20
17.996
 30
0.0
 10
-0.0856
 20
17.996
 30
0.0
 10
-0.0856
 20
17.996
 30
0.0
 10
-0.0856
 20
17.996
 30
0.0
 10
-0.083
 20
17.9313
 30
0.0
 10
-0.083
 20
17.9313
 30
0.0
 10
-0.083
 20
17.9313
 30
0.0
 10
-0.083
 20
17.9313
 30
0.0
 10
-0.0803
 20
17.8782
 30
0.0
 10
-0.0803
 20
17.8782
 30
0.0
 10
-0.0803
 20
17.8782
 30
0.0
 10
-0.0803
 20
17.8782
 30
0.0
 10
-0.0777
 20
17.8371
 30
0.0
 10
-0.0777
 20
17.8371
 30
0.0
 10
-0.0777
 20
17.8371
 30
0.0
 10
-0.0777
 20
17.8371
 30
0.0
 10
-0.076
 20
17.8118
 30
0.0
 10
-0.076
 20
17.8118
 30
0.0
 10
-0.076
 20
17.8118
 30
0.0
 10
-0.076
 20
17.8118
 30
0.0
 10
-0.0753
 20
17.8036
 30
0.0
 10
-0.0753
 20
17.8036
 30
0.0
  0
SPLINE
  5
E3
330
1F
100
AcDbEntity
  8
DEFAULT_1
 62
   250
100
AcDbSpline
210
0.0
220
0.0
230
1.0
 70
     8
 71
     3
 72
    32
 73
    28
 74
     0
 42
0.0000000001
 43
0.0000000001
 40
0.0
 40
0.0
 40
0.0
 40
0.0
 40
0.125
 40
0.125
 40
0.125
 40
0.125
 40
0.25
 40
0.25
 40
0.25
 40
0.25
 40
0.375
 40
0.375
 40
0.375
 40
0.375
 40
0.5
 40
0.5
 40
0.5
 40
0.5
 40
0.625
 40
0.625
 40
0.625
 40
0.625
 40
0.75
 40
0.75
 40
0.75
 40
0.75
 40
1.0
 40
1.0
 40
1.0
 40
1.0
 10
-9.2789
 20
17.8036
 30
0.0
 10
-9.2789
 20
17.8036
 30
0.0
 10
-9.2783
 20
17.8119
 30
0.0
 10
-9.2783
 20
17.8119
 30
0.0
 10
-9.2783
 20
17.8119
 30
0.0
 10
-9.2783
 20
17.8119
 30
0.0
 10
-9.2765
 20
17.8373
 30
0.0
 10
-9.2765
 20
17.8373
 30
0.0
 10
-9.2765
 20
17.8373
 30
0.0
 10
-9.2765
 20
17.8373
 30
0.0
 10
-9.274
 20
17.8783
 30
0.0
 10
-9.274
 20
17.8783
 30
0.0
 10
-9.274
 20
17.8783
 30
0.0
 10
-9.274
 20
17.8783
 30
0.0
 10
-9.2712
 20
17.9313
 30
0.0
 10
-9.2712
 20
17.9313
 30
0.0
 10
-9.2712
 20
17.9313
 30
0.0
 10
-9.2712
 20
17.9313
 30
0.0
 10
-9.2687
 20
17.9961
 30
0.0
 10
-9.2687
 20
17.9961
 30
0.0
 10
-9.2687
 20
17.9961
 30
0.0
 10
-9.2687
 20
17.9961
 30
0.0
 10
-9.2668
 20
18.0692
 30
0.0
 10
-9.2668
 20
18.0692
 30
0.0
 10
-9.2668
 20
18.0692
 30
0.0
 10
-9.2668
 20
18.0692
 30
0.0
 10
-9.2662
 20
18.1444
 30
0.0
 10
-9.2662
 20
18.1444
 30
0.0
  0
SPLINE
  5
E4
330
1F
100
AcDbEntity
  8
DEFAULT_1
 62
   250
100
AcDbSpline
210
0.0
220
0.0
230
1.0
 70
     8
 71
     3
 72
    32
 73
    28
 74
     0
 42
0.0000000001
 43
0.0000000001
 40
0.0
 40
0.0
 40
0.0
 40
0.0
 40
0.125
 40
0.125
 40
0.125
 40
0.125
 40
0.25
 40
0.25
 40
0.25
 40
0.25
 40
0.375
 40
0.375
 40
0.375
 40
0.375
 40
0.5
 40
0.5
 40
0.5
 40
0.5
 40
0.625
 40
0.625
 40
0.625
 40
0.625
 40
0.75
 40
0.75
 40
0.75
 40
0.75
 40
1.0
 40
1.0
 40
1.0
 40
1.0
 10
-13.4527
 20
15.4297
 30
0.0
 10
-13.4527
 20
15.4297
 30
0.0
 10
-13.4428
 20
15.4569
 30
0.0
 10
-13.4428
 20
15.4569
 30
0.0
 10
-13.4428
 20
15.4569
 30
0.0
 10
-13.4428
 20
15.4569
 30
0.0
 10
-13.4096
 20
15.5049
 30
0.0
 10
-13.4096
 20
15.5049
 30
0.0
 10
-13.4096
 20
15.5049
 30
0.0
 10
-13.4096
 20
15.5049
 30
0.0
 10
-13.36
 20
15.5424
 30
0.0
 10
-13.36
 20
15.5424
 30
0.0
 10
-13.36
 20
15.5424
 30
0.0
 10
-13.36
 20
15.5424
 30
0.0
 10
-13.2968
 20
15.5675
 30
0.0
 10
-13.2968
 20
15.5675
 30
0.0
 10
-13.2968
 20
15.5675
 30
0.0
 10
-13.2968
 20
15.5675
 30
0.0
 10
-13.2235
 20
15.5792
 30
0.0
 10
-13.2235
 20
15.5792
 30
0.0
 10
-13.2235
 20
15.5792
 30
0.0
 10
-13.2235
 20
15.5792
 30
0.0
 10
-13.1445
 20
15.5773
 30
0.0
 10
-13.1445
 20
15.5773
 30
0.0
 10
-13.1445
 20
15.5773
 30
0.0
 10
-13.1445
 20
15.5773
 30
0.0
 10
-13.0642
 20
15.5623
 30
0.0
 10
-13.0642
 20
15.5623
 30
0.0
  0
SPLINE
  5
E5
330
1F
100
AcDbEntity
  8
DEFAULT_1
 62
   250
100
AcDbSpline
210
0.0
220
0.0
230
1.0
 70
     8
 71
     3
 72
    32
 73
    28
 74
     0
 42
0.0000000001
 43
0.0000000001
 40
0.0
 40
0.0
 40
0.0
 40
0.0
 40
0.125
 40
0.125
 40
0.125
 40
0.125
 40
0.25
 40
0.25
 40
0.25
 40
0.25
 40
0.375
 40
0.375
 40
0.375
 40
0.375
 40
0.5
 40
0.5
 40
0.5
 40
0.5
 40
0.625
 40
0.625
 40
0.625
 40
0.625
 40
0.75
 40
0.75
 40
0.75
 40
0.75
 40
1.0
 40
1.0
 40
1.0
 40
1.0
 10
-13.2228
 20
16.2876
 30
0.0
 10
-13.2228
 20
16.2876
 30
0.0
 10
-13.2149
 20
16.2846
 30
0.0
 10
-13.2149
 20
16.2846
 30
0.0
 10
-13.2149
 20
16.2846
 30
0.0
 10
-13.2149
 20
16.2846
 30
0.0
 10
-13.191
 20
16.2756
 30
0.0
 10
-13.191
 20
16.2756
 30
0.0
 10
-13.191
 20
16.2756
 30
0.0
 10
-13.191
 20
16.2756
 30
0.0
 10
-13.1524
 20
16.2615
 30
0.0
 10
-13.1524
 20
16.2615
 30
0.0
 10
-13.1524
 20
16.2615
 30
0.0
 10
-13.1524
 20
16.2615
 30
0.0
 10
-13.1021
 20
16.244
 30
0.0
 10
-13.1021
 20
16.244
 30
0.0
 10
-13.1021
 20
16.244
 30
0.0
 10
-13.1021
 20
16.244
 30
0.0
 10
-13.0406
 20
16.2237
 30
0.0
 10
-13.0406
 20
16.2237
 30
0.0
 10
-13.0406
 20
16.2237
 30
0.0
 10
-13.0406
 20
16.2237
 30
0.0
 10
-12.9706
 20
16.2024
 30
0.0
 10
-12.9706
 20
16.2024
 30
0.0
 10
-12.9706
 20
16.2024
 30
0.0
 10
-12.9706
 20
16.2024
 30
0.0
 10
-12.8982
 20
16.182
 30
0.0
 10
-12.8982
 20
16.182
 30
0.0
  0
SPLINE
  5
E6
330
1F
100
AcDbEntity
  8
DEFAULT_1
 62
   250
100
AcDbSpline
210
0.0
220
0.0
230
1.0
 70
     8
 71
     3
 72
    32
 73
    28
 74
     0
 42
0.0000000001
 43
0.0000000001
 40
0.0
 40
0.0
 40
0.0
 40
0.0
 40
0.125
 40
0.125
 40
0.125
 40
0.125
 40
0.25
 40
0.25
 40
0.25
 40
0.25
 40
0.375
 40
0.375
 40
0.375
 40
0.375
 40
0.5
 40
0.5
 40
0.5
 40
0.5
 40
0.625
 40
0.625
 40
0.625
 40
0.625
 40
0.75
 40
0.75
 40
0.75
 40
0.75
 40
1.0
 40
1.0
 40
1.0
 40
1.0
 10
-14.2586
 20
11.1048
 30
0.0
 10
-14.2586
 20
11.1048
 30
0.0
 10
-14.3331
 20
11.1179
 30
0.0
 10
-14.3331
 20
11.1179
 30
0.0
 10
-14.3331
 20
11.1179
 30
0.0
 10
-14.3331
 20
11.1179
 30
0.0
 10
-14.4088
 20
11.1176
 30
0.0
 10
-14.4088
 20
11.1176
 30
0.0
 10
-14.4088
 20
11.1176
 30
0.0
 10
-14.4088
 20
11.1176
 30
0.0
 10
-14.4794
 20
11.1041
 30
0.0
 10
-14.4794
 20
11.1041
 30
0.0
 10
-14.4794
 20
11.1041
 30
0.0
 10
-14.4794
 20
11.1041
 30
0.0
 10
-14.5411
 20
11.0788
 30
0.0
 10
-14.5411
 20
11.0788
 30
0.0
 10
-14.5411
 20
11.0788
 30
0.0
 10
-14.5411
 20
11.0788
 30
0.0
 10
-14.5933
 20
11.0425
 30
0.0
 10
-14.5933
 20
11.0425
 30
0.0
 10
-14.5933
 20
11.0425
 30
0.0
 10
-14.5933
 20
11.0425
 30
0.0
 10
-14.6316
 20
10.9976
 30
0.0
 10
-14.6316
 20
10.9976
 30
0.0
 10
-14.6316
 20
10.9976
 30
0.0
 10
-14.6316
 20
10.9976
 30
0.0
 10
-14.6536
 20
10.9479
 30
0.0
 10
-14.6536
 20
10.9479
 30
0.0
  0
SPLINE
  5
E7
330
1F
100
AcDbEntity
  8
DEFAULT_1
 62
   250
100
AcDbSpline
210
0.0
220
0.0
230
1.0
 70
     8
 71
     3
 72
    32
 73
    28
 74
     0
 42
0.0000000001
 43
0.0000000001
 40
0.0
 40
0.0
 40
0.0
 40
0.0
 40
0.125
 40
0.125
 40
0.125
 40
0.125
 40
0.25
 40
0.25
 40
0.25
 40
0.25
 40
0.375
 40
0.375
 40
0.375
 40
0.375
 40
0.5
 40
0.5
 40
0.5
 40
0.5
 40
0.625
 40
0.625
 40
0.625
 40
0.625
 40
0.75
 40
0.75
 40
0.75
 40
0.75
 40
1.0
 40
1.0
 40
1.0
 40
1.0
 10
-13.189
 20
15.0967
 30
0.0
 10
-13.189
 20
15.0967
 30
0.0
 10
-13.2657
 20
15.1252
 30
0.0
 10
-13.2657
 20
15.1252
 30
0.0
 10
-13.2657
 20
15.1252
 30
0.0
 10
-13.2657
 20
15.1252
 30
0.0
 10
-13.334
 20
15.1668
 30
0.0
 10
-13.334
 20
15.1668
 30
0.0
 10
-13.334
 20
15.1668
 30
0.0
 10
-13.334
 20
15.1668
 30
0.0
 10
-13.3902
 20
15.219
 30
0.0
 10
-13.3902
 20
15.219
 30
0.0
 10
-13.3902
 20
15.219
 30
0.0
 10
-13.3902
 20
15.219
 30
0.0
 10
-13.4309
 20
15.278
 30
0.0
 10
-13.4309
 20
15.278
 30
0.0
 10
-13.4309
 20
15.278
 30
0.0
 10
-13.4309
 20
15.278
 30
0.0
 10
-13.4538
 20
15.34
 30
0.0
 10
-13.4538
 20
15.34
 30
0.0
 10
-13.4538
 20
15.34
 30
0.0
 10
-13.4538
 20
15.34
 30
0.0
 10
-13.4578
 20
15.4009
 30
0.0
 10
-13.4578
 20
15.4009
 30
0.0
 10
-13.4578
 20
15.4009
 30
0.0
 10
-13.4578
 20
15.4009
 30
0.0
 10
-13.4527
 20
15.4297
 30
0.0
 10
-13.4527
 20
15.4297
 30
0.0
  0
SPLINE
  5
E8
330
1F
100
AcDbEntity
  8
DEFAULT_1
 62
   250
100
AcDbSpline
210
0.0
220
0.0
230
1.0
 70
     8
 71
     3
 72
    32
 73
    28
 74
     0
 42
0.0000000001
 43
0.0000000001
 40
0.0
 40
0.0
 40
0.0
 40
0.0
 40
0.125
 40
0.125
 40
0.125
 40
0.125
 40
0.25
 40
0.25
 40
0.25
 40
0.25
 40
0.375
 40
0.375
 40
0.375
 40
0.375
 40
0.5
 40
0.5
 40
0.5
 40
0.5
 40
0.625
 40
0.625
 40
0.625
 40
0.625
 40
0.75
 40
0.75
 40
0.75
 40
0.75
 40
1.0
 40
1.0
 40
1.0
 40
1.0
 10
-14.5651
 20
9.9609
 30
0.0
 10
-14.5651
 20
9.9609
 30
0.0
 10
-14.6381
 20
9.9795
 30
0.0
 10
-14.6381
 20
9.9795
 30
0.0
 10
-14.6381
 20
9.9795
 30
0.0
 10
-14.6381
 20
9.9795
 30
0.0
 10
-14.7094
 20
9.996
 30
0.0
 10
-14.7094
 20
9.996
 30
0.0
 10
-14.7094
 20
9.996
 30
0.0
 10
-14.7094
 20
9.996
 30
0.0
 10
-14.7727
 20
10.0092
 30
0.0
 10
-14.7727
 20
10.0092
 30
0.0
 10
-14.7727
 20
10.0092
 30
0.0
 10
-14.7727
 20
10.0092
 30
0.0
 10
-14.8251
 20
10.0192
 30
0.0
 10
-14.8251
 20
10.0192
 30
0.0
 10
-14.8251
 20
10.0192
 30
0.0
 10
-14.8251
 20
10.0192
 30
0.0
 10
-14.8656
 20
10.0263
 30
0.0
 10
-14.8656
 20
10.0263
 30
0.0
 10
-14.8656
 20
10.0263
 30
0.0
 10
-14.8656
 20
10.0263
 30
0.0
 10
-14.8907
 20
10.0304
 30
0.0
 10
-14.8907
 20
10.0304
 30
0.0
 10
-14.8907
 20
10.0304
 30
0.0
 10
-14.8907
 20
10.0304
 30
0.0
 10
-14.8991
 20
10.0317
 30
0.0
 10
-14.8991
 20
10.0317
 30
0.0
  0
SPLINE
  5
E9
330
1F
100
AcDbEntity
  8
DEFAULT_1
 62
   250
100
AcDbSpline
210
0.0
220
0.0
230
1.0
 70
    24
 71
     3
 72
     8
 73
     4
 74
     0
 42
0.0000000001
 43
0.0000000001
 40
0.0
 40
0.0
 40
0.0
 40
0.0
 40
1.0
 40
1.0
 40
1.0
 40
1.0
 10
-13.18
 20
16.3621
 30
0.0
 10
-13.18
 20
16.3621
 30
0.0
 10
-13.1984
 20
16.3691
 30
0.0
 10
-13.1984
 20
16.3691
 30
0.0
  0
SPLINE
  5
EA
330
1F
100
AcDbEntity
  8
DEFAULT_1
 62
   250
100
AcDbSpline
210
0.0
220
0.0
230
1.0
 70
     8
 71
     3
 72
    32
 73
    28
 74
     0
 42
0.0000000001
 43
0.0000000001
 40
0.0
 40
0.0
 40
0.0
 40
0.0
 40
0.125
 40
0.125
 40
0.125
 40
0.125
 40
0.25
 40
0.25
 40
0.25
 40
0.25
 40
0.375
 40
0.375
 40
0.375
 40
0.375
 40
0.5
 40
0.5
 40
0.5
 40
0.5
 40
0.625
 40
0.625
 40
0.625
 40
0.625
 40
0.75
 40
0.75
 40
0.75
 40
0.75
 40
1.0
 40
1.0
 40
1.0
 40
1.0
 10
5.5448
 20
10.0317
 30
0.0
 10
5.5448
 20
10.0317
 30
0.0
 10
5.5364
 20
10.0304
 30
0.0
 10
5.5364
 20
10.0304
 30
0.0
 10
5.5364
 20
10.0304
 30
0.0
 10
5.5364
 20
10.0304
 30
0.0
 10
5.5113
 20
10.0262
 30
0.0
 10
5.5113
 20
10.0262
 30
0.0
 10
5.5113
 20
10.0262
 30
0.0
 10
5.5113
 20
10.0262
 30
0.0
 10
5.4708
 20
10.0192
 30
0.0
 10
5.4708
 20
10.0192
 30
0.0
 10
5.4708
 20
10.0192
 30
0.0
 10
5.4708
 20
10.0192
 30
0.0
 10
5.4185
 20
10.0092
 30
0.0
 10
5.4185
 20
10.0092
 30
0.0
 10
5.4185
 20
10.0092
 30
0.0
 10
5.4185
 20
10.0092
 30
0.0
 10
5.3551
 20
9.996
 30
0.0
 10
5.3551
 20
9.996
 30
0.0
 10
5.3551
 20
9.996
 30
0.0
 10
5.3551
 20
9.996
 30
0.0
 10
5.2838
 20
9.9795
 30
0.0
 10
5.2838
 20
9.9795
 30
0.0
 10
5.2838
 20
9.9795
 30
0.0
 10
5.2838
 20
9.9795
 30
0.0
 10
5.2109
 20
9.9609
 30
0.0
 10
5.2109
 20
9.9609
 30
0.0
  0
SPLINE
  5
EB
330
1F
100
AcDbEntity
  8
DEFAULT_1
 62
   250
100
AcDbSpline
210
0.0
220
0.0
230
1.0
 70
     8
 71
     3
 72
    32
 73
    28
 74
     0
 42
0.0000000001
 43
0.0000000001
 40
0.0
 40
0.0
 40
0.0
 40
0.0
 40
0.125
 40
0.125
 40
0.125
 40
0.125
 40
0.25
 40
0.25
 40
0.25
 40
0.25
 40
0.375
 40
0.375
 40
0.375
 40
0.375
 40
0.5
 40
0.5
 40
0.5
 40
0.5
 40
0.625
 40
0.625
 40
0.625
 40
0.625
 40
0.75
 40
0.75
 40
0.75
 40
0.75
 40
1.0
 40
1.0
 40
1.0
 40
1.0
 10
5.2993
 20
10.9479
 30
0.0
 10
5.2993
 20
10.9479
 30
0.0
 10
5.2772
 20
10.9978
 30
0.0
 10
5.2772
 20
10.9978
 30
0.0
 10
5.2772
 20
10.9978
 30
0.0
 10
5.2772
 20
10.9978
 30
0.0
 10
5.2389
 20
11.0426
 30
0.0
 10
5.2389
 20
11.0426
 30
0.0
 10
5.2389
 20
11.0426
 30
0.0
 10
5.2389
 20
11.0426
 30
0.0
 10
5.1869
 20
11.0788
 30
0.0
 10
5.1869
 20
11.0788
 30
0.0
 10
5.1869
 20
11.0788
 30
0.0
 10
5.1869
 20
11.0788
 30
0.0
 10
5.1251
 20
11.1041
 30
0.0
 10
5.1251
 20
11.1041
 30
0.0
 10
5.1251
 20
11.1041
 30
0.0
 10
5.1251
 20
11.1041
 30
0.0
 10
5.0545
 20
11.1177
 30
0.0
 10
5.0545
 20
11.1177
 30
0.0
 10
5.0545
 20
11.1177
 30
0.0
 10
5.0545
 20
11.1177
 30
0.0
 10
4.9787
 20
11.1179
 30
0.0
 10
4.9787
 20
11.1179
 30
0.0
 10
4.9787
 20
11.1179
 30
0.0
 10
4.9787
 20
11.1179
 30
0.0
 10
4.9044
 20
11.1048
 30
0.0
 10
4.9044
 20
11.1048
 30
0.0
  0
SPLINE
  5
EC
330
1F
100
AcDbEntity
  8
DEFAULT_1
 62
   250
100
AcDbSpline
210
0.0
220
0.0
230
1.0
 70
     8
 71
     3
 72
    32
 73
    28
 74
     0
 42
0.0000000001
 43
0.0000000001
 40
0.0
 40
0.0
 40
0.0
 40
0.0
 40
0.125
 40
0.125
 40
0.125
 40
0.125
 40
0.25
 40
0.25
 40
0.25
 40
0.25
 40
0.375
 40
0.375
 40
0.375
 40
0.375
 40
0.5
 40
0.5
 40
0.5
 40
0.5
 40
0.625
 40
0.625
 40
0.625
 40
0.625
 40
0.75
 40
0.75
 40
0.75
 40
0.75
 40
1.0
 40
1.0
 40
1.0
 40
1.0
 10
3.8505
 20
15.0381
 30
0.0
 10
3.8505
 20
15.0381
 30
0.0
 10
3.9215
 20
15.064
 30
0.0
 10
3.9215
 20
15.064
 30
0.0
 10
3.9215
 20
15.064
 30
0.0
 10
3.9215
 20
15.064
 30
0.0
 10
3.9869
 20
15.1021
 30
0.0
 10
3.9869
 20
15.1021
 30
0.0
 10
3.9869
 20
15.1021
 30
0.0
 10
3.9869
 20
15.1021
 30
0.0
 10
4.0412
 20
15.1492
 30
0.0
 10
4.0412
 20
15.1492
 30
0.0
 10
4.0412
 20
15.1492
 30
0.0
 10
4.0412
 20
15.1492
 30
0.0
 10
4.0821
 20
15.2019
 30
0.0
 10
4.0821
 20
15.2019
 30
0.0
 10
4.0821
 20
15.2019
 30
0.0
 10
4.0821
 20
15.2019
 30
0.0
 10
4.1091
 20
15.2594
 30
0.0
 10
4.1091
 20
15.2594
 30
0.0
 10
4.1091
 20
15.2594
 30
0.0
 10
4.1091
 20
15.2594
 30
0.0
 10
4.1198
 20
15.3174
 30
0.0
 10
4.1198
 20
15.3174
 30
0.0
 10
4.1198
 20
15.3174
 30
0.0
 10
4.1198
 20
15.3174
 30
0.0
 10
4.1141
 20
15.3715
 30
0.0
 10
4.1141
 20
15.3715
 30
0.0
  0
SPLINE
  5
ED
330
1F
100
AcDbEntity
  8
DEFAULT_1
 62
   250
100
AcDbSpline
210
0.0
220
0.0
230
1.0
 70
     8
 71
     3
 72
    32
 73
    28
 74
     0
 42
0.0000000001
 43
0.0000000001
 40
0.0
 40
0.0
 40
0.0
 40
0.0
 40
0.125
 40
0.125
 40
0.125
 40
0.125
 40
0.25
 40
0.25
 40
0.25
 40
0.25
 40
0.375
 40
0.375
 40
0.375
 40
0.375
 40
0.5
 40
0.5
 40
0.5
 40
0.5
 40
0.625
 40
0.625
 40
0.625
 40
0.625
 40
0.75
 40
0.75
 40
0.75
 40
0.75
 40
1.0
 40
1.0
 40
1.0
 40
1.0
 10
3.5439
 20
16.182
 30
0.0
 10
3.5439
 20
16.182
 30
0.0
 10
3.6164
 20
16.2024
 30
0.0
 10
3.6164
 20
16.2024
 30
0.0
 10
3.6164
 20
16.2024
 30
0.0
 10
3.6164
 20
16.2024
 30
0.0
 10
3.6864
 20
16.2237
 30
0.0
 10
3.6864
 20
16.2237
 30
0.0
 10
3.6864
 20
16.2237
 30
0.0
 10
3.6864
 20
16.2237
 30
0.0
 10
3.7479
 20
16.244
 30
0.0
 10
3.7479
 20
16.244
 30
0.0
 10
3.7479
 20
16.244
 30
0.0
 10
3.7479
 20
16.244
 30
0.0
 10
3.7982
 20
16.2615
 30
0.0
 10
3.7982
 20
16.2615
 30
0.0
 10
3.7982
 20
16.2615
 30
0.0
 10
3.7982
 20
16.2615
 30
0.0
 10
3.8368
 20
16.2756
 30
0.0
 10
3.8368
 20
16.2756
 30
0.0
 10
3.8368
 20
16.2756
 30
0.0
 10
3.8368
 20
16.2756
 30
0.0
 10
3.8607
 20
16.2846
 30
0.0
 10
3.8607
 20
16.2846
 30
0.0
 10
3.8607
 20
16.2846
 30
0.0
 10
3.8607
 20
16.2846
 30
0.0
 10
3.8686
 20
16.2876
 30
0.0
 10
3.8686
 20
16.2876
 30
0.0
  0
SPLINE
  5
EE
330
1F
100
AcDbEntity
  8
DEFAULT_1
 62
   250
100
AcDbSpline
210
0.0
220
0.0
230
1.0
 70
    24
 71
     3
 72
     8
 73
     4
 74
     0
 42
0.0000000001
 43
0.0000000001
 40
0.0
 40
0.0
 40
0.0
 40
0.0
 40
1.0
 40
1.0
 40
1.0
 40
1.0
 10
5.545
 20
9.9458
 30
0.0
 10
5.545
 20
9.9458
 30
0.0
 10
5.5644
 20
9.949
 30
0.0
 10
5.5644
 20
9.949
 30
0.0
  0
SPLINE
  5
EF
330
1F
100
AcDbEntity
  8
DEFAULT_1
 62
   250
100
AcDbSpline
210
0.0
220
0.0
230
1.0
 70
     8
 71
     3
 72
    76
 73
    72
 74
     0
 42
0.0000000001
 43
0.0000000001
 40
0.0
 40
0.0
 40
0.0
 40
0.0
 40
0.0526315789473684
 40
0.0526315789473684
 40
0.0526315789473684
 40
0.0526315789473684
 40
0.1052631578947368
 40
0.1052631578947368
 40
0.1052631578947368
 40
0.1052631578947368
 40
0.1578947368421053
 40
0.1578947368421053
 40
0.1578947368421053
 40
0.1578947368421053
 40
0.2105263157894737
 40
0.2105263157894737
 40
0.2105263157894737
 40
0.2105263157894737
 40
0.2631578947368421
 40
0.2631578947368421
 40
0.2631578947368421
 40
0.2631578947368421
 40
0.3157894736842105
 40
0.3157894736842105
 40
0.3157894736842105
 40
0.3157894736842105
 40
0.3684210526315789
 40
0.3684210526315789
 40
0.3684210526315789
 40
0.3684210526315789
 40
0.4210526315789473
 40
0.4210526315789473
 40
0.4210526315789473
 40
0.4210526315789473
 40
0.4736842105263158
 40
0.4736842105263158
 40
0.4736842105263158
 40
0.4736842105263158
 40
0.5263157894736842
 40
0.5263157894736842
 40
0.5263157894736842
 40
0.5263157894736842
 40
0.5789473684210527
 40
0.5789473684210527
 40
0.5789473684210527
 40
0.5789473684210527
 40
0.631578947368421
 40
0.631578947368421
 40
0.631578947368421
 40
0.631578947368421
 40
0.6842105263157895
 40
0.6842105263157895
 40
0.6842105263157895
 40
0.6842105263157895
 40
0.7368421052631579
 40
0.7368421052631579
 40
0.7368421052631579
 40
0.7368421052631579
 40
0.7894736842105263
 40
0.7894736842105263
 40
0.7894736842105263
 40
0.7894736842105263
 40
0.8421052631578947
 40
0.8421052631578947
 40
0.8421052631578947
 40
0.8421052631578947
 40
0.8947368421052632
 40
0.8947368421052632
 40
0.8947368421052632
 40
0.8947368421052632
 40
1.0
 40
1.0
 40
1.0
 40
1.0
 10
7.9203
 20
13.0195
 30
0.0
 10
7.9203
 20
13.0195
 30
0.0
 10
7.8444
 20
12.9738
 30
0.0
 10
7.8444
 20
12.9738
 30
0.0
 10
7.8444
 20
12.9738
 30
0.0
 10
7.8444
 20
12.9738
 30
0.0
 10
7.7721
 20
12.9233
 30
0.0
 10
7.7721
 20
12.9233
 30
0.0
 10
7.7721
 20
12.9233
 30
0.0
 10
7.7721
 20
12.9233
 30
0.0
 10
7.7035
 20
12.8692
 30
0.0
 10
7.7035
 20
12.8692
 30
0.0
 10
7.7035
 20
12.8692
 30
0.0
 10
7.7035
 20
12.8692
 30
0.0
 10
7.6386
 20
12.8127
 30
0.0
 10
7.6386
 20
12.8127
 30
0.0
 10
7.6386
 20
12.8127
 30
0.0
 10
7.6386
 20
12.8127
 30
0.0
 10
7.5762
 20
12.7537
 30
0.0
 10
7.5762
 20
12.7537
 30
0.0
 10
7.5762
 20
12.7537
 30
0.0
 10
7.5762
 20
12.7537
 30
0.0
 10
7.5144
 20
12.6911
 30
0.0
 10
7.5144
 20
12.6911
 30
0.0
 10
7.5144
 20
12.6911
 30
0.0
 10
7.5144
 20
12.6911
 30
0.0
 10
7.4514
 20
12.6234
 30
0.0
 10
7.4514
 20
12.6234
 30
0.0
 10
7.4514
 20
12.6234
 30
0.0
 10
7.4514
 20
12.6234
 30
0.0
 10
7.386
 20
12.549
 30
0.0
 10
7.386
 20
12.549
 30
0.0
 10
7.386
 20
12.549
 30
0.0
 10
7.386
 20
12.549
 30
0.0
 10
7.3171
 20
12.467
 30
0.0
 10
7.3171
 20
12.467
 30
0.0
 10
7.3171
 20
12.467
 30
0.0
 10
7.3171
 20
12.467
 30
0.0
 10
7.2442
 20
12.3761
 30
0.0
 10
7.2442
 20
12.3761
 30
0.0
 10
7.2442
 20
12.3761
 30
0.0
 10
7.2442
 20
12.3761
 30
0.0
 10
7.1667
 20
12.2757
 30
0.0
 10
7.1667
 20
12.2757
 30
0.0
 10
7.1667
 20
12.2757
 30
0.0
 10
7.1667
 20
12.2757
 30
0.0
 10
7.0855
 20
12.1666
 30
0.0
 10
7.0855
 20
12.1666
 30
0.0
 10
7.0855
 20
12.1666
 30
0.0
 10
7.0855
 20
12.1666
 30
0.0
 10
7.0023
 20
12.0512
 30
0.0
 10
7.0023
 20
12.0512
 30
0.0
 10
7.0023
 20
12.0512
 30
0.0
 10
7.0023
 20
12.0512
 30
0.0
 10
6.9211
 20
11.9356
 30
0.0
 10
6.9211
 20
11.9356
 30
0.0
 10
6.9211
 20
11.9356
 30
0.0
 10
6.9211
 20
11.9356
 30
0.0
 10
6.8485
 20
11.8302
 30
0.0
 10
6.8485
 20
11.8302
 30
0.0
 10
6.8485
 20
11.8302
 30
0.0
 10
6.8485
 20
11.8302
 30
0.0
 10
6.7921
 20
11.7469
 30
0.0
 10
6.7921
 20
11.7469
 30
0.0
 10
6.7921
 20
11.7469
 30
0.0
 10
6.7921
 20
11.7469
 30
0.0
 10
6.7566
 20
11.6941
 30
0.0
 10
6.7566
 20
11.6941
 30
0.0
 10
6.7566
 20
11.6941
 30
0.0
 10
6.7566
 20
11.6941
 30
0.0
 10
6.745
 20
11.6767
 30
0.0
 10
6.745
 20
11.6767
 30
0.0
  0
SPLINE
  5
F0
330
1F
100
AcDbEntity
  8
DEFAULT_1
 62
   250
100
AcDbSpline
210
0.0
220
0.0
230
1.0
 70
     8
 71
     3
 72
    48
 73
    44
 74
     0
 42
0.0000000001
 43
0.0000000001
 40
0.0
 40
0.0
 40
0.0
 40
0.0
 40
0.0833333333333333
 40
0.0833333333333333
 40
0.0833333333333333
 40
0.0833333333333333
 40
0.1666666666666667
 40
0.1666666666666667
 40
0.1666666666666667
 40
0.1666666666666667
 40
0.25
 40
0.25
 40
0.25
 40
0.25
 40
0.3333333333333333
 40
0.3333333333333333
 40
0.3333333333333333
 40
0.3333333333333333
 40
0.4166666666666667
 40
0.4166666666666667
 40
0.4166666666666667
 40
0.4166666666666667
 40
0.5
 40
0.5
 40
0.5
 40
0.5
 40
0.5833333333333334
 40
0.5833333333333334
 40
0.5833333333333334
 40
0.5833333333333334
 40
0.6666666666666666
 40
0.6666666666666666
 40
0.6666666666666666
 40
0.6666666666666666
 40
0.75
 40
0.75
 40
0.75
 40
0.75
 40
0.8333333333333334
 40
0.8333333333333334
 40
0.8333333333333334
 40
0.8333333333333334
 40
1.0
 40
1.0
 40
1.0
 40
1.0
 10
9.5632
 20
14.461
 30
0.0
 10
9.5632
 20
14.461
 30
0.0
 10
9.5691
 20
14.361
 30
0.0
 10
9.5691
 20
14.361
 30
0.0
 10
9.5691
 20
14.361
 30
0.0
 10
9.5691
 20
14.361
 30
0.0
 10
9.5362
 20
14.2508
 30
0.0
 10
9.5362
 20
14.2508
 30
0.0
 10
9.5362
 20
14.2508
 30
0.0
 10
9.5362
 20
14.2508
 30
0.0
 10
9.4649
 20
14.1309
 30
0.0
 10
9.4649
 20
14.1309
 30
0.0
 10
9.4649
 20
14.1309
 30
0.0
 10
9.4649
 20
14.1309
 30
0.0
 10
9.3567
 20
14.0022
 30
0.0
 10
9.3567
 20
14.0022
 30
0.0
 10
9.3567
 20
14.0022
 30
0.0
 10
9.3567
 20
14.0022
 30
0.0
 10
9.2138
 20
13.8659
 30
0.0
 10
9.2138
 20
13.8659
 30
0.0
 10
9.2138
 20
13.8659
 30
0.0
 10
9.2138
 20
13.8659
 30
0.0
 10
9.04
 20
13.7241
 30
0.0
 10
9.04
 20
13.7241
 30
0.0
 10
9.04
 20
13.7241
 30
0.0
 10
9.04
 20
13.7241
 30
0.0
 10
8.8421
 20
13.5801
 30
0.0
 10
8.8421
 20
13.5801
 30
0.0
 10
8.8421
 20
13.5801
 30
0.0
 10
8.8421
 20
13.5801
 30
0.0
 10
8.6268
 20
13.4366
 30
0.0
 10
8.6268
 20
13.4366
 30
0.0
 10
8.6268
 20
13.4366
 30
0.0
 10
8.6268
 20
13.4366
 30
0.0
 10
8.397
 20
13.2936
 30
0.0
 10
8.397
 20
13.2936
 30
0.0
 10
8.397
 20
13.2936
 30
0.0
 10
8.397
 20
13.2936
 30
0.0
 10
8.1584
 20
13.1534
 30
0.0
 10
8.1584
 20
13.1534
 30
0.0
 10
8.1584
 20
13.1534
 30
0.0
 10
8.1584
 20
13.1534
 30
0.0
 10
7.9203
 20
13.0195
 30
0.0
 10
7.9203
 20
13.0195
 30
0.0
  0
SPLINE
  5
F1
330
1F
100
AcDbEntity
  8
DEFAULT_1
 62
   250
100
AcDbSpline
210
0.0
220
0.0
230
1.0
 70
     8
 71
     3
 72
    76
 73
    72
 74
     0
 42
0.0000000001
 43
0.0000000001
 40
0.0
 40
0.0
 40
0.0
 40
0.0
 40
0.0526315789473684
 40
0.0526315789473684
 40
0.0526315789473684
 40
0.0526315789473684
 40
0.1052631578947368
 40
0.1052631578947368
 40
0.1052631578947368
 40
0.1052631578947368
 40
0.1578947368421053
 40
0.1578947368421053
 40
0.1578947368421053
 40
0.1578947368421053
 40
0.2105263157894737
 40
0.2105263157894737
 40
0.2105263157894737
 40
0.2105263157894737
 40
0.2631578947368421
 40
0.2631578947368421
 40
0.2631578947368421
 40
0.2631578947368421
 40
0.3157894736842105
 40
0.3157894736842105
 40
0.3157894736842105
 40
0.3157894736842105
 40
0.3684210526315789
 40
0.3684210526315789
 40
0.3684210526315789
 40
0.3684210526315789
 40
0.4210526315789473
 40
0.4210526315789473
 40
0.4210526315789473
 40
0.4210526315789473
 40
0.4736842105263158
 40
0.4736842105263158
 40
0.4736842105263158
 40
0.4736842105263158
 40
0.5263157894736842
 40
0.5263157894736842
 40
0.5263157894736842
 40
0.5263157894736842
 40
0.5789473684210527
 40
0.5789473684210527
 40
0.5789473684210527
 40
0.5789473684210527
 40
0.631578947368421
 40
0.631578947368421
 40
0.631578947368421
 40
0.631578947368421
 40
0.6842105263157895
 40
0.6842105263157895
 40
0.6842105263157895
 40
0.6842105263157895
 40
0.7368421052631579
 40
0.7368421052631579
 40
0.7368421052631579
 40
0.7368421052631579
 40
0.7894736842105263
 40
0.7894736842105263
 40
0.7894736842105263
 40
0.7894736842105263
 40
0.8421052631578947
 40
0.8421052631578947
 40
0.8421052631578947
 40
0.8421052631578947
 40
0.8947368421052632
 40
0.8947368421052632
 40
0.8947368421052632
 40
0.8947368421052632
 40
1.0
 40
1.0
 40
1.0
 40
1.0
 10
-16.0993
 20
11.6767
 30
0.0
 10
-16.0993
 20
11.6767
 30
0.0
 10
-16.1104
 20
11.6935
 30
0.0
 10
-16.1104
 20
11.6935
 30
0.0
 10
-16.1104
 20
11.6935
 30
0.0
 10
-16.1104
 20
11.6935
 30
0.0
 10
-16.1448
 20
11.7447
 30
0.0
 10
-16.1448
 20
11.7447
 30
0.0
 10
-16.1448
 20
11.7447
 30
0.0
 10
-16.1448
 20
11.7447
 30
0.0
 10
-16.2
 20
11.8261
 30
0.0
 10
-16.2
 20
11.8261
 30
0.0
 10
-16.2
 20
11.8261
 30
0.0
 10
-16.2
 20
11.8261
 30
0.0
 10
-16.2713
 20
11.9299
 30
0.0
 10
-16.2713
 20
11.9299
 30
0.0
 10
-16.2713
 20
11.9299
 30
0.0
 10
-16.2713
 20
11.9299
 30
0.0
 10
-16.352
 20
12.0448
 30
0.0
 10
-16.352
 20
12.0448
 30
0.0
 10
-16.352
 20
12.0448
 30
0.0
 10
-16.352
 20
12.0448
 30
0.0
 10
-16.4352
 20
12.1603
 30
0.0
 10
-16.4352
 20
12.1603
 30
0.0
 10
-16.4352
 20
12.1603
 30
0.0
 10
-16.4352
 20
12.1603
 30
0.0
 10
-16.5167
 20
12.27
 30
0.0
 10
-16.5167
 20
12.27
 30
0.0
 10
-16.5167
 20
12.27
 30
0.0
 10
-16.5167
 20
12.27
 30
0.0
 10
-16.5945
 20
12.3711
 30
0.0
 10
-16.5945
 20
12.3711
 30
0.0
 10
-16.5945
 20
12.3711
 30
0.0
 10
-16.5945
 20
12.3711
 30
0.0
 10
-16.6678
 20
12.4627
 30
0.0
 10
-16.6678
 20
12.4627
 30
0.0
 10
-16.6678
 20
12.4627
 30
0.0
 10
-16.6678
 20
12.4627
 30
0.0
 10
-16.737
 20
12.5453
 30
0.0
 10
-16.737
 20
12.5453
 30
0.0
 10
-16.737
 20
12.5453
 30
0.0
 10
-16.737
 20
12.5453
 30
0.0
 10
-16.8027
 20
12.6201
 30
0.0
 10
-16.8027
 20
12.6201
 30
0.0
 10
-16.8027
 20
12.6201
 30
0.0
 10
-16.8027
 20
12.6201
 30
0.0
 10
-16.8659
 20
12.6883
 30
0.0
 10
-16.8659
 20
12.6883
 30
0.0
 10
-16.8659
 20
12.6883
 30
0.0
 10
-16.8659
 20
12.6883
 30
0.0
 10
-16.928
 20
12.7513
 30
0.0
 10
-16.928
 20
12.7513
 30
0.0
 10
-16.928
 20
12.7513
 30
0.0
 10
-16.928
 20
12.7513
 30
0.0
 10
-16.9907
 20
12.8107
 30
0.0
 10
-16.9907
 20
12.8107
 30
0.0
 10
-16.9907
 20
12.8107
 30
0.0
 10
-16.9907
 20
12.8107
 30
0.0
 10
-17.0561
 20
12.8678
 30
0.0
 10
-17.0561
 20
12.8678
 30
0.0
 10
-17.0561
 20
12.8678
 30
0.0
 10
-17.0561
 20
12.8678
 30
0.0
 10
-17.1251
 20
12.9224
 30
0.0
 10
-17.1251
 20
12.9224
 30
0.0
 10
-17.1251
 20
12.9224
 30
0.0
 10
-17.1251
 20
12.9224
 30
0.0
 10
-17.198
 20
12.9734
 30
0.0
 10
-17.198
 20
12.9734
 30
0.0
 10
-17.198
 20
12.9734
 30
0.0
 10
-17.198
 20
12.9734
 30
0.0
 10
-17.2746
 20
13.0195
 30
0.0
 10
-17.2746
 20
13.0195
 30
0.0
  0
SPLINE
  5
F2
330
1F
100
AcDbEntity
  8
DEFAULT_1
 62
   250
100
AcDbSpline
210
0.0
220
0.0
230
1.0
 70
     8
 71
     3
 72
    48
 73
    44
 74
     0
 42
0.0000000001
 43
0.0000000001
 40
0.0
 40
0.0
 40
0.0
 40
0.0
 40
0.0833333333333333
 40
0.0833333333333333
 40
0.0833333333333333
 40
0.0833333333333333
 40
0.1666666666666667
 40
0.1666666666666667
 40
0.1666666666666667
 40
0.1666666666666667
 40
0.25
 40
0.25
 40
0.25
 40
0.25
 40
0.3333333333333333
 40
0.3333333333333333
 40
0.3333333333333333
 40
0.3333333333333333
 40
0.4166666666666667
 40
0.4166666666666667
 40
0.4166666666666667
 40
0.4166666666666667
 40
0.5
 40
0.5
 40
0.5
 40
0.5
 40
0.5833333333333334
 40
0.5833333333333334
 40
0.5833333333333334
 40
0.5833333333333334
 40
0.6666666666666666
 40
0.6666666666666666
 40
0.6666666666666666
 40
0.6666666666666666
 40
0.75
 40
0.75
 40
0.75
 40
0.75
 40
0.8333333333333334
 40
0.8333333333333334
 40
0.8333333333333334
 40
0.8333333333333334
 40
1.0
 40
1.0
 40
1.0
 40
1.0
 10
-17.2746
 20
13.0195
 30
0.0
 10
-17.2746
 20
13.0195
 30
0.0
 10
-17.5127
 20
13.1533
 30
0.0
 10
-17.5127
 20
13.1533
 30
0.0
 10
-17.5127
 20
13.1533
 30
0.0
 10
-17.5127
 20
13.1533
 30
0.0
 10
-17.7511
 20
13.2936
 30
0.0
 10
-17.7511
 20
13.2936
 30
0.0
 10
-17.7511
 20
13.2936
 30
0.0
 10
-17.7511
 20
13.2936
 30
0.0
 10
-17.9809
 20
13.4365
 30
0.0
 10
-17.9809
 20
13.4365
 30
0.0
 10
-17.9809
 20
13.4365
 30
0.0
 10
-17.9809
 20
13.4365
 30
0.0
 10
-18.1962
 20
13.58
 30
0.0
 10
-18.1962
 20
13.58
 30
0.0
 10
-18.1962
 20
13.58
 30
0.0
 10
-18.1962
 20
13.58
 30
0.0
 10
-18.3941
 20
13.7239
 30
0.0
 10
-18.3941
 20
13.7239
 30
0.0
 10
-18.3941
 20
13.7239
 30
0.0
 10
-18.3941
 20
13.7239
 30
0.0
 10
-18.5678
 20
13.8657
 30
0.0
 10
-18.5678
 20
13.8657
 30
0.0
 10
-18.5678
 20
13.8657
 30
0.0
 10
-18.5678
 20
13.8657
 30
0.0
 10
-18.7107
 20
14.002
 30
0.0
 10
-18.7107
 20
14.002
 30
0.0
 10
-18.7107
 20
14.002
 30
0.0
 10
-18.7107
 20
14.002
 30
0.0
 10
-18.8191
 20
14.1307
 30
0.0
 10
-18.8191
 20
14.1307
 30
0.0
 10
-18.8191
 20
14.1307
 30
0.0
 10
-18.8191
 20
14.1307
 30
0.0
 10
-18.8903
 20
14.2506
 30
0.0
 10
-18.8903
 20
14.2506
 30
0.0
 10
-18.8903
 20
14.2506
 30
0.0
 10
-18.8903
 20
14.2506
 30
0.0
 10
-18.9234
 20
14.3609
 30
0.0
 10
-18.9234
 20
14.3609
 30
0.0
 10
-18.9234
 20
14.3609
 30
0.0
 10
-18.9234
 20
14.3609
 30
0.0
 10
-18.9175
 20
14.461
 30
0.0
 10
-18.9175
 20
14.461
 30
0.0
  0
SPLINE
  5
F3
330
1F
100
AcDbEntity
  8
DEFAULT_1
 62
   250
100
AcDbSpline
210
0.0
220
0.0
230
1.0
 70
     8
 71
     3
 72
    60
 73
    56
 74
     0
 42
0.0000000001
 43
0.0000000001
 40
0.0
 40
0.0
 40
0.0
 40
0.0
 40
0.0666666666666667
 40
0.0666666666666667
 40
0.0666666666666667
 40
0.0666666666666667
 40
0.1333333333333333
 40
0.1333333333333333
 40
0.1333333333333333
 40
0.1333333333333333
 40
0.2
 40
0.2
 40
0.2
 40
0.2
 40
0.2666666666666667
 40
0.2666666666666667
 40
0.2666666666666667
 40
0.2666666666666667
 40
0.3333333333333333
 40
0.3333333333333333
 40
0.3333333333333333
 40
0.3333333333333333
 40
0.4
 40
0.4
 40
0.4
 40
0.4
 40
0.4666666666666667
 40
0.4666666666666667
 40
0.4666666666666667
 40
0.4666666666666667
 40
0.5333333333333333
 40
0.5333333333333333
 40
0.5333333333333333
 40
0.5333333333333333
 40
0.6
 40
0.6
 40
0.6
 40
0.6
 40
0.6666666666666666
 40
0.6666666666666666
 40
0.6666666666666666
 40
0.6666666666666666
 40
0.7333333333333333
 40
0.7333333333333333
 40
0.7333333333333333
 40
0.7333333333333333
 40
0.8
 40
0.8
 40
0.8
 40
0.8
 40
0.8666666666666667
 40
0.8666666666666667
 40
0.8666666666666667
 40
0.8666666666666667
 40
1.0
 40
1.0
 40
1.0
 40
1.0
 10
-1.2684
 20
14.0731
 30
0.0
 10
-1.2684
 20
14.0731
 30
0.0
 10
-1.2921
 20
14.0321
 30
0.0
 10
-1.2921
 20
14.0321
 30
0.0
 10
-1.2921
 20
14.0321
 30
0.0
 10
-1.2921
 20
14.0321
 30
0.0
 10
-1.3731
 20
13.8905
 30
0.0
 10
-1.3731
 20
13.8905
 30
0.0
 10
-1.3731
 20
13.8905
 30
0.0
 10
-1.3731
 20
13.8905
 30
0.0
 10
-1.5095
 20
13.6442
 30
0.0
 10
-1.5095
 20
13.6442
 30
0.0
 10
-1.5095
 20
13.6442
 30
0.0
 10
-1.5095
 20
13.6442
 30
0.0
 10
-1.6882
 20
13.3019
 30
0.0
 10
-1.6882
 20
13.3019
 30
0.0
 10
-1.6882
 20
13.3019
 30
0.0
 10
-1.6882
 20
13.3019
 30
0.0
 10
-1.8847
 20
12.8855
 30
0.0
 10
-1.8847
 20
12.8855
 30
0.0
 10
-1.8847
 20
12.8855
 30
0.0
 10
-1.8847
 20
12.8855
 30
0.0
 10
-2.0706
 20
12.4162
 30
0.0
 10
-2.0706
 20
12.4162
 30
0.0
 10
-2.0706
 20
12.4162
 30
0.0
 10
-2.0706
 20
12.4162
 30
0.0
 10
-2.2096
 20
11.9345
 30
0.0
 10
-2.2096
 20
11.9345
 30
0.0
 10
-2.2096
 20
11.9345
 30
0.0
 10
-2.2096
 20
11.9345
 30
0.0
 10
-2.2783
 20
11.4777
 30
0.0
 10
-2.2783
 20
11.4777
 30
0.0
 10
-2.2783
 20
11.4777
 30
0.0
 10
-2.2783
 20
11.4777
 30
0.0
 10
-2.2748
 20
11.0568
 30
0.0
 10
-2.2748
 20
11.0568
 30
0.0
 10
-2.2748
 20
11.0568
 30
0.0
 10
-2.2748
 20
11.0568
 30
0.0
 10
-2.2057
 20
10.6634
 30
0.0
 10
-2.2057
 20
10.6634
 30
0.0
 10
-2.2057
 20
10.6634
 30
0.0
 10
-2.2057
 20
10.6634
 30
0.0
 10
-2.0787
 20
10.2903
 30
0.0
 10
-2.0787
 20
10.2903
 30
0.0
 10
-2.0787
 20
10.2903
 30
0.0
 10
-2.0787
 20
10.2903
 30
0.0
 10
-1.9104
 20
9.9469
 30
0.0
 10
-1.9104
 20
9.9469
 30
0.0
 10
-1.9104
 20
9.9469
 30
0.0
 10
-1.9104
 20
9.9469
 30
0.0
 10
-1.7258
 20
9.6461
 30
0.0
 10
-1.7258
 20
9.6461
 30
0.0
 10
-1.7258
 20
9.6461
 30
0.0
 10
-1.7258
 20
9.6461
 30
0.0
 10
-1.5809
 20
9.4394
 30
0.0
 10
-1.5809
 20
9.4394
 30
0.0
  0
SPLINE
  5
F4
330
1F
100
AcDbEntity
  8
DEFAULT_1
 62
   250
100
AcDbSpline
210
0.0
220
0.0
230
1.0
 70
    24
 71
     3
 72
     8
 73
     4
 74
     0
 42
0.0000000001
 43
0.0000000001
 40
0.0
 40
0.0
 40
0.0
 40
0.0
 40
1.0
 40
1.0
 40
1.0
 40
1.0
 10
-1.5809
 20
9.4394
 30
0.0
 10
-1.5809
 20
9.4394
 30
0.0
 10
-1.5474
 20
9.3942
 30
0.0
 10
-1.5474
 20
9.3942
 30
0.0
  0
SPLINE
  5
F5
330
1F
100
AcDbEntity
  8
DEFAULT_1
 62
   250
100
AcDbSpline
210
0.0
220
0.0
230
1.0
 70
    24
 71
     3
 72
     8
 73
     4
 74
     0
 42
0.0000000001
 43
0.0000000001
 40
0.0
 40
0.0
 40
0.0
 40
0.0
 40
1.0
 40
1.0
 40
1.0
 40
1.0
 10
-1.5474
 20
9.3942
 30
0.0
 10
-1.5474
 20
9.3942
 30
0.0
 10
-1.5002
 20
9.3318
 30
0.0
 10
-1.5002
 20
9.3318
 30
0.0
  0
SPLINE
  5
F6
330
1F
100
AcDbEntity
  8
DEFAULT_1
 62
   250
100
AcDbSpline
210
0.0
220
0.0
230
1.0
 70
     8
 71
     3
 72
    16
 73
    12
 74
     0
 42
0.0000000001
 43
0.0000000001
 40
0.0
 40
0.0
 40
0.0
 40
0.0
 40
0.25
 40
0.25
 40
0.25
 40
0.25
 40
0.5
 40
0.5
 40
0.5
 40
0.5
 40
1.0
 40
1.0
 40
1.0
 40
1.0
 10
-1.5002
 20
9.3318
 30
0.0
 10
-1.5002
 20
9.3318
 30
0.0
 10
-1.3984
 20
9.2021
 30
0.0
 10
-1.3984
 20
9.2021
 30
0.0
 10
-1.3984
 20
9.2021
 30
0.0
 10
-1.3984
 20
9.2021
 30
0.0
 10
-1.3011
 20
9.0833
 30
0.0
 10
-1.3011
 20
9.0833
 30
0.0
 10
-1.3011
 20
9.0833
 30
0.0
 10
-1.3011
 20
9.0833
 30
0.0
 10
-1.2684
 20
9.0443
 30
0.0
 10
-1.2684
 20
9.0443
 30
0.0
  0
SPLINE
  5
F7
330
1F
100
AcDbEntity
  8
DEFAULT_1
 62
   250
100
AcDbSpline
210
0.0
220
0.0
230
1.0
 70
     8
 71
     3
 72
    16
 73
    12
 74
     0
 42
0.0000000001
 43
0.0000000001
 40
0.0
 40
0.0
 40
0.0
 40
0.0
 40
0.25
 40
0.25
 40
0.25
 40
0.25
 40
0.5
 40
0.5
 40
0.5
 40
0.5
 40
1.0
 40
1.0
 40
1.0
 40
1.0
 10
-8.0858
 20
9.0443
 30
0.0
 10
-8.0858
 20
9.0443
 30
0.0
 10
-8.0527
 20
9.0838
 30
0.0
 10
-8.0527
 20
9.0838
 30
0.0
 10
-8.0527
 20
9.0838
 30
0.0
 10
-8.0527
 20
9.0838
 30
0.0
 10
-7.9538
 20
9.2046
 30
0.0
 10
-7.9538
 20
9.2046
 30
0.0
 10
-7.9538
 20
9.2046
 30
0.0
 10
-7.9538
 20
9.2046
 30
0.0
 10
-7.8541
 20
9.3318
 30
0.0
 10
-7.8541
 20
9.3318
 30
0.0
  0
SPLINE
  5
F8
330
1F
100
AcDbEntity
  8
DEFAULT_1
 62
   250
100
AcDbSpline
210
0.0
220
0.0
230
1.0
 70
    24
 71
     3
 72
     8
 73
     4
 74
     0
 42
0.0000000001
 43
0.0000000001
 40
0.0
 40
0.0
 40
0.0
 40
0.0
 40
1.0
 40
1.0
 40
1.0
 40
1.0
 10
-7.8541
 20
9.3318
 30
0.0
 10
-7.8541
 20
9.3318
 30
0.0
 10
-7.8026
 20
9.3999
 30
0.0
 10
-7.8026
 20
9.3999
 30
0.0
  0
SPLINE
  5
F9
330
1F
100
AcDbEntity
  8
DEFAULT_1
 62
   250
100
AcDbSpline
210
0.0
220
0.0
230
1.0
 70
    24
 71
     3
 72
     8
 73
     4
 74
     0
 42
0.0000000001
 43
0.0000000001
 40
0.0
 40
0.0
 40
0.0
 40
0.0
 40
1.0
 40
1.0
 40
1.0
 40
1.0
 10
-7.8026
 20
9.3999
 30
0.0
 10
-7.8026
 20
9.3999
 30
0.0
 10
-7.7733
 20
9.4395
 30
0.0
 10
-7.7733
 20
9.4395
 30
0.0
  0
SPLINE
  5
FA
330
1F
100
AcDbEntity
  8
DEFAULT_1
 62
   250
100
AcDbSpline
210
0.0
220
0.0
230
1.0
 70
     8
 71
     3
 72
    64
 73
    60
 74
     0
 42
0.0000000001
 43
0.0000000001
 40
0.0
 40
0.0
 40
0.0
 40
0.0
 40
0.0625
 40
0.0625
 40
0.0625
 40
0.0625
 40
0.125
 40
0.125
 40
0.125
 40
0.125
 40
0.1875
 40
0.1875
 40
0.1875
 40
0.1875
 40
0.25
 40
0.25
 40
0.25
 40
0.25
 40
0.3125
 40
0.3125
 40
0.3125
 40
0.3125
 40
0.375
 40
0.375
 40
0.375
 40
0.375
 40
0.4375
 40
0.4375
 40
0.4375
 40
0.4375
 40
0.5
 40
0.5
 40
0.5
 40
0.5
 40
0.5625
 40
0.5625
 40
0.5625
 40
0.5625
 40
0.625
 40
0.625
 40
0.625
 40
0.625
 40
0.6875
 40
0.6875
 40
0.6875
 40
0.6875
 40
0.75
 40
0.75
 40
0.75
 40
0.75
 40
0.8125
 40
0.8125
 40
0.8125
 40
0.8125
 40
0.875
 40
0.875
 40
0.875
 40
0.875
 40
1.0
 40
1.0
 40
1.0
 40
1.0
 10
-7.7733
 20
9.4395
 30
0.0
 10
-7.7733
 20
9.4395
 30
0.0
 10
-7.6226
 20
9.6549
 30
0.0
 10
-7.6226
 20
9.6549
 30
0.0
 10
-7.6226
 20
9.6549
 30
0.0
 10
-7.6226
 20
9.6549
 30
0.0
 10
-7.4375
 20
9.9582
 30
0.0
 10
-7.4375
 20
9.9582
 30
0.0
 10
-7.4375
 20
9.9582
 30
0.0
 10
-7.4375
 20
9.9582
 30
0.0
 10
-7.2695
 20
10.3048
 30
0.0
 10
-7.2695
 20
10.3048
 30
0.0
 10
-7.2695
 20
10.3048
 30
0.0
 10
-7.2695
 20
10.3048
 30
0.0
 10
-7.1432
 20
10.6843
 30
0.0
 10
-7.1432
 20
10.6843
 30
0.0
 10
-7.1432
 20
10.6843
 30
0.0
 10
-7.1432
 20
10.6843
 30
0.0
 10
-7.0767
 20
11.088
 30
0.0
 10
-7.0767
 20
11.088
 30
0.0
 10
-7.0767
 20
11.088
 30
0.0
 10
-7.0767
 20
11.088
 30
0.0
 10
-7.0775
 20
11.4986
 30
0.0
 10
-7.0775
 20
11.4986
 30
0.0
 10
-7.0775
 20
11.4986
 30
0.0
 10
-7.0775
 20
11.4986
 30
0.0
 10
-7.1404
 20
11.9154
 30
0.0
 10
-7.1404
 20
11.9154
 30
0.0
 10
-7.1404
 20
11.9154
 30
0.0
 10
-7.1404
 20
11.9154
 30
0.0
 10
-7.2576
 20
12.3395
 30
0.0
 10
-7.2576
 20
12.3395
 30
0.0
 10
-7.2576
 20
12.3395
 30
0.0
 10
-7.2576
 20
12.3395
 30
0.0
 10
-7.4065
 20
12.7378
 30
0.0
 10
-7.4065
 20
12.7378
 30
0.0
 10
-7.4065
 20
12.7378
 30
0.0
 10
-7.4065
 20
12.7378
 30
0.0
 10
-7.566
 20
13.0966
 30
0.0
 10
-7.566
 20
13.0966
 30
0.0
 10
-7.566
 20
13.0966
 30
0.0
 10
-7.566
 20
13.0966
 30
0.0
 10
-7.722
 20
13.412
 30
0.0
 10
-7.722
 20
13.412
 30
0.0
 10
-7.722
 20
13.412
 30
0.0
 10
-7.722
 20
13.412
 30
0.0
 10
-7.8643
 20
13.6801
 30
0.0
 10
-7.8643
 20
13.6801
 30
0.0
 10
-7.8643
 20
13.6801
 30
0.0
 10
-7.8643
 20
13.6801
 30
0.0
 10
-7.9798
 20
13.8882
 30
0.0
 10
-7.9798
 20
13.8882
 30
0.0
 10
-7.9798
 20
13.8882
 30
0.0
 10
-7.9798
 20
13.8882
 30
0.0
 10
-8.0581
 20
14.0252
 30
0.0
 10
-8.0581
 20
14.0252
 30
0.0
 10
-8.0581
 20
14.0252
 30
0.0
 10
-8.0581
 20
14.0252
 30
0.0
 10
-8.0858
 20
14.0731
 30
0.0
 10
-8.0858
 20
14.0731
 30
0.0
  0
SPLINE
  5
FB
330
1F
100
AcDbEntity
  8
DEFAULT_1
 62
   250
100
AcDbSpline
210
0.0
220
0.0
230
1.0
 70
    24
 71
     3
 72
     8
 73
     4
 74
     0
 42
0.0000000001
 43
0.0000000001
 40
0.0
 40
0.0
 40
0.0
 40
0.0
 40
1.0
 40
1.0
 40
1.0
 40
1.0
 10
-14.6692
 20
10.8897
 30
0.0
 10
-14.6692
 20
10.8897
 30
0.0
 10
-14.6691
 20
10.8898
 30
0.0
 10
-14.6691
 20
10.8898
 30
0.0
  0
SPLINE
  5
FC
330
1F
100
AcDbEntity
  8
DEFAULT_1
 62
   250
100
AcDbSpline
210
0.0
220
0.0
230
1.0
 70
    24
 71
     3
 72
     8
 73
     4
 74
     0
 42
0.0000000001
 43
0.0000000001
 40
0.0
 40
0.0
 40
0.0
 40
0.0
 40
1.0
 40
1.0
 40
1.0
 40
1.0
 10
-12.7528
 20
10.1395
 30
0.0
 10
-12.7528
 20
10.1395
 30
0.0
 10
-12.7371
 20
10.198
 30
0.0
 10
-12.7371
 20
10.198
 30
0.0
  0
SPLINE
  5
FD
330
1F
100
AcDbEntity
  8
DEFAULT_1
 62
   250
100
AcDbSpline
210
0.0
220
0.0
230
1.0
 70
    24
 71
     3
 72
     8
 73
     4
 74
     0
 42
0.0000000001
 43
0.0000000001
 40
0.0
 40
0.0
 40
0.0
 40
0.0
 40
1.0
 40
1.0
 40
1.0
 40
1.0
 10
-11.4336
 20
15.0627
 30
0.0
 10
-11.4336
 20
15.0627
 30
0.0
 10
-11.418
 20
15.1212
 30
0.0
 10
-11.418
 20
15.1212
 30
0.0
  0
SPLINE
  5
FE
330
1F
100
AcDbEntity
  8
DEFAULT_1
 62
   250
100
AcDbSpline
210
0.0
220
0.0
230
1.0
 70
    24
 71
     3
 72
     8
 73
     4
 74
     0
 42
0.0000000001
 43
0.0000000001
 40
0.0
 40
0.0
 40
0.0
 40
0.0
 40
1.0
 40
1.0
 40
1.0
 40
1.0
 10
-1.1911
 20
18.1444
 30
0.0
 10
-1.1911
 20
18.1444
 30
0.0
 10
-1.1911
 20
19.3375
 30
0.0
 10
-1.1911
 20
19.3375
 30
0.0
  0
SPLINE
  5
FF
330
1F
100
AcDbEntity
  8
DEFAULT_1
 62
   250
100
AcDbSpline
210
0.0
220
0.0
230
1.0
 70
    24
 71
     3
 72
     8
 73
     4
 74
     0
 42
0.0000000001
 43
0.0000000001
 40
0.0
 40
0.0
 40
0.0
 40
0.0
 40
1.0
 40
1.0
 40
1.0
 40
1.0
 10
5.0292
 20
10.6391
 30
0.0
 10
5.0292
 20
10.6391
 30
0.0
 10
3.3829
 20
10.198
 30
0.0
 10
3.3829
 20
10.198
 30
0.0
  0
SPLINE
  5
100
330
1F
100
AcDbEntity
  8
DEFAULT_1
 62
   250
100
AcDbSpline
210
0.0
220
0.0
230
1.0
 70
    24
 71
     3
 72
     8
 73
     4
 74
     0
 42
0.0000000001
 43
0.0000000001
 40
0.0
 40
0.0
 40
0.0
 40
0.0
 40
1.0
 40
1.0
 40
1.0
 40
1.0
 10
-14.3834
 20
10.6391
 30
0.0
 10
-14.3834
 20
10.6391
 30
0.0
 10
-12.7371
 20
10.198
 30
0.0
 10
-12.7371
 20
10.198
 30
0.0
  0
SPLINE
  5
101
330
1F
100
AcDbEntity
  8
DEFAULT_1
 62
   250
100
AcDbSpline
210
0.0
220
0.0
230
1.0
 70
    24
 71
     3
 72
     8
 73
     4
 74
     0
 42
0.0000000001
 43
0.0000000001
 40
0.0
 40
0.0
 40
0.0
 40
0.0
 40
1.0
 40
1.0
 40
1.0
 40
1.0
 10
2.0637
 20
15.1212
 30
0.0
 10
2.0637
 20
15.1212
 30
0.0
 10
2.0794
 20
15.0627
 30
0.0
 10
2.0794
 20
15.0627
 30
0.0
  0
SPLINE
  5
102
330
1F
100
AcDbEntity
  8
DEFAULT_1
 62
   250
100
AcDbSpline
210
0.0
220
0.0
230
1.0
 70
    24
 71
     3
 72
     8
 73
     4
 74
     0
 42
0.0000000001
 43
0.0000000001
 40
0.0
 40
0.0
 40
0.0
 40
0.0
 40
1.0
 40
1.0
 40
1.0
 40
1.0
 10
3.3829
 20
10.198
 30
0.0
 10
3.3829
 20
10.198
 30
0.0
 10
3.3986
 20
10.1395
 30
0.0
 10
3.3986
 20
10.1395
 30
0.0
  0
SPLINE
  5
103
330
1F
100
AcDbEntity
  8
DEFAULT_1
 62
   250
100
AcDbSpline
210
0.0
220
0.0
230
1.0
 70
    24
 71
     3
 72
     8
 73
     4
 74
     0
 42
0.0000000001
 43
0.0000000001
 40
0.0
 40
0.0
 40
0.0
 40
0.0
 40
1.0
 40
1.0
 40
1.0
 40
1.0
 10
5.3149
 20
10.8898
 30
0.0
 10
5.3149
 20
10.8898
 30
0.0
 10
5.3149
 20
10.8897
 30
0.0
 10
5.3149
 20
10.8897
 30
0.0
  0
SPLINE
  5
104
330
1F
100
AcDbEntity
  8
DEFAULT_1
 62
   250
100
AcDbSpline
210
0.0
220
0.0
230
1.0
 70
    24
 71
     3
 72
     8
 73
     4
 74
     0
 42
0.0000000001
 43
0.0000000001
 40
0.0
 40
0.0
 40
0.0
 40
0.0
 40
1.0
 40
1.0
 40
1.0
 40
1.0
 10
3.7257
 20
15.5038
 30
0.0
 10
3.7257
 20
15.5038
 30
0.0
 10
2.0794
 20
15.0627
 30
0.0
 10
2.0794
 20
15.0627
 30
0.0
  0
SPLINE
  5
105
330
1F
100
AcDbEntity
  8
DEFAULT_1
 62
   250
100
AcDbSpline
210
0.0
220
0.0
230
1.0
 70
    24
 71
     3
 72
     8
 73
     4
 74
     0
 42
0.0000000001
 43
0.0000000001
 40
0.0
 40
0.0
 40
0.0
 40
0.0
 40
1.0
 40
1.0
 40
1.0
 40
1.0
 10
-1.1307
 20
19.3375
 30
0.0
 10
-1.1307
 20
19.3375
 30
0.0
 10
-1.1911
 20
19.3375
 30
0.0
 10
-1.1911
 20
19.3375
 30
0.0
  0
SPLINE
  5
106
330
1F
100
AcDbEntity
  8
DEFAULT_1
 62
   250
100
AcDbSpline
210
0.0
220
0.0
230
1.0
 70
     8
 71
     3
 72
    60
 73
    56
 74
     0
 42
0.0000000001
 43
0.0000000001
 40
0.0
 40
0.0
 40
0.0
 40
0.0
 40
0.0666666666666667
 40
0.0666666666666667
 40
0.0666666666666667
 40
0.0666666666666667
 40
0.1333333333333333
 40
0.1333333333333333
 40
0.1333333333333333
 40
0.1333333333333333
 40
0.2
 40
0.2
 40
0.2
 40
0.2
 40
0.2666666666666667
 40
0.2666666666666667
 40
0.2666666666666667
 40
0.2666666666666667
 40
0.3333333333333333
 40
0.3333333333333333
 40
0.3333333333333333
 40
0.3333333333333333
 40
0.4
 40
0.4
 40
0.4
 40
0.4
 40
0.4666666666666667
 40
0.4666666666666667
 40
0.4666666666666667
 40
0.4666666666666667
 40
0.5333333333333333
 40
0.5333333333333333
 40
0.5333333333333333
 40
0.5333333333333333
 40
0.6
 40
0.6
 40
0.6
 40
0.6
 40
0.6666666666666666
 40
0.6666666666666666
 40
0.6666666666666666
 40
0.6666666666666666
 40
0.7333333333333333
 40
0.7333333333333333
 40
0.7333333333333333
 40
0.7333333333333333
 40
0.8
 40
0.8
 40
0.8
 40
0.8
 40
0.8666666666666667
 40
0.8666666666666667
 40
0.8666666666666667
 40
0.8666666666666667
 40
1.0
 40
1.0
 40
1.0
 40
1.0
 10
-8.0858
 20
14.0731
 30
0.0
 10
-8.0858
 20
14.0731
 30
0.0
 10
-8.062
 20
14.0319
 30
0.0
 10
-8.062
 20
14.0319
 30
0.0
 10
-8.062
 20
14.0319
 30
0.0
 10
-8.062
 20
14.0319
 30
0.0
 10
-7.9826
 20
13.893
 30
0.0
 10
-7.9826
 20
13.893
 30
0.0
 10
-7.9826
 20
13.893
 30
0.0
 10
-7.9826
 20
13.893
 30
0.0
 10
-7.8494
 20
13.6527
 30
0.0
 10
-7.8494
 20
13.6527
 30
0.0
 10
-7.8494
 20
13.6527
 30
0.0
 10
-7.8494
 20
13.6527
 30
0.0
 10
-7.6729
 20
13.3156
 30
0.0
 10
-7.6729
 20
13.3156
 30
0.0
 10
-7.6729
 20
13.3156
 30
0.0
 10
-7.6729
 20
13.3156
 30
0.0
 10
-7.4755
 20
12.8991
 30
0.0
 10
-7.4755
 20
12.8991
 30
0.0
 10
-7.4755
 20
12.8991
 30
0.0
 10
-7.4755
 20
12.8991
 30
0.0
 10
-7.2881
 20
12.429
 30
0.0
 10
-7.2881
 20
12.429
 30
0.0
 10
-7.2881
 20
12.429
 30
0.0
 10
-7.2881
 20
12.429
 30
0.0
 10
-7.1488
 20
11.9531
 30
0.0
 10
-7.1488
 20
11.9531
 30
0.0
 10
-7.1488
 20
11.9531
 30
0.0
 10
-7.1488
 20
11.9531
 30
0.0
 10
-7.0777
 20
11.5009
 30
0.0
 10
-7.0777
 20
11.5009
 30
0.0
 10
-7.0777
 20
11.5009
 30
0.0
 10
-7.0777
 20
11.5009
 30
0.0
 10
-7.0779
 20
11.0734
 30
0.0
 10
-7.0779
 20
11.0734
 30
0.0
 10
-7.0779
 20
11.0734
 30
0.0
 10
-7.0779
 20
11.0734
 30
0.0
 10
-7.1475
 20
10.6674
 30
0.0
 10
-7.1475
 20
10.6674
 30
0.0
 10
-7.1475
 20
10.6674
 30
0.0
 10
-7.1475
 20
10.6674
 30
0.0
 10
-7.2749
 20
10.2918
 30
0.0
 10
-7.2749
 20
10.2918
 30
0.0
 10
-7.2749
 20
10.2918
 30
0.0
 10
-7.2749
 20
10.2918
 30
0.0
 10
-7.4434
 20
9.9476
 30
0.0
 10
-7.4434
 20
9.9476
 30
0.0
 10
-7.4434
 20
9.9476
 30
0.0
 10
-7.4434
 20
9.9476
 30
0.0
 10
-7.6284
 20
9.6461
 30
0.0
 10
-7.6284
 20
9.6461
 30
0.0
 10
-7.6284
 20
9.6461
 30
0.0
 10
-7.6284
 20
9.6461
 30
0.0
 10
-7.7733
 20
9.4395
 30
0.0
 10
-7.7733
 20
9.4395
 30
0.0
  0
SPLINE
  5
107
330
1F
100
AcDbEntity
  8
DEFAULT_1
 62
   250
100
AcDbSpline
210
0.0
220
0.0
230
1.0
 70
     8
 71
     3
 72
    76
 73
    72
 74
     0
 42
0.0000000001
 43
0.0000000001
 40
0.0
 40
0.0
 40
0.0
 40
0.0
 40
0.0526315789473684
 40
0.0526315789473684
 40
0.0526315789473684
 40
0.0526315789473684
 40
0.1052631578947368
 40
0.1052631578947368
 40
0.1052631578947368
 40
0.1052631578947368
 40
0.1578947368421053
 40
0.1578947368421053
 40
0.1578947368421053
 40
0.1578947368421053
 40
0.2105263157894737
 40
0.2105263157894737
 40
0.2105263157894737
 40
0.2105263157894737
 40
0.2631578947368421
 40
0.2631578947368421
 40
0.2631578947368421
 40
0.2631578947368421
 40
0.3157894736842105
 40
0.3157894736842105
 40
0.3157894736842105
 40
0.3157894736842105
 40
0.3684210526315789
 40
0.3684210526315789
 40
0.3684210526315789
 40
0.3684210526315789
 40
0.4210526315789473
 40
0.4210526315789473
 40
0.4210526315789473
 40
0.4210526315789473
 40
0.4736842105263158
 40
0.4736842105263158
 40
0.4736842105263158
 40
0.4736842105263158
 40
0.5263157894736842
 40
0.5263157894736842
 40
0.5263157894736842
 40
0.5263157894736842
 40
0.5789473684210527
 40
0.5789473684210527
 40
0.5789473684210527
 40
0.5789473684210527
 40
0.631578947368421
 40
0.631578947368421
 40
0.631578947368421
 40
0.631578947368421
 40
0.6842105263157895
 40
0.6842105263157895
 40
0.6842105263157895
 40
0.6842105263157895
 40
0.7368421052631579
 40
0.7368421052631579
 40
0.7368421052631579
 40
0.7368421052631579
 40
0.7894736842105263
 40
0.7894736842105263
 40
0.7894736842105263
 40
0.7894736842105263
 40
0.8421052631578947
 40
0.8421052631578947
 40
0.8421052631578947
 40
0.8421052631578947
 40
0.8947368421052632
 40
0.8947368421052632
 40
0.8947368421052632
 40
0.8947368421052632
 40
1.0
 40
1.0
 40
1.0
 40
1.0
 10
-1.2684
 20
9.0443
 30
0.0
 10
-1.2684
 20
9.0443
 30
0.0
 10
-1.3015
 20
9.0837
 30
0.0
 10
-1.3015
 20
9.0837
 30
0.0
 10
-1.3015
 20
9.0837
 30
0.0
 10
-1.3015
 20
9.0837
 30
0.0
 10
-1.4002
 20
9.2043
 30
0.0
 10
-1.4002
 20
9.2043
 30
0.0
 10
-1.4002
 20
9.2043
 30
0.0
 10
-1.4002
 20
9.2043
 30
0.0
 10
-1.5513
 20
9.3994
 30
0.0
 10
-1.5513
 20
9.3994
 30
0.0
 10
-1.5513
 20
9.3994
 30
0.0
 10
-1.5513
 20
9.3994
 30
0.0
 10
-1.7318
 20
9.655
 30
0.0
 10
-1.7318
 20
9.655
 30
0.0
 10
-1.7318
 20
9.655
 30
0.0
 10
-1.7318
 20
9.655
 30
0.0
 10
-1.9168
 20
9.9584
 30
0.0
 10
-1.9168
 20
9.9584
 30
0.0
 10
-1.9168
 20
9.9584
 30
0.0
 10
-1.9168
 20
9.9584
 30
0.0
 10
-2.0847
 20
10.3047
 30
0.0
 10
-2.0847
 20
10.3047
 30
0.0
 10
-2.0847
 20
10.3047
 30
0.0
 10
-2.0847
 20
10.3047
 30
0.0
 10
-2.2105
 20
10.6822
 30
0.0
 10
-2.2105
 20
10.6822
 30
0.0
 10
-2.2105
 20
10.6822
 30
0.0
 10
-2.2105
 20
10.6822
 30
0.0
 10
-2.277
 20
11.0816
 30
0.0
 10
-2.277
 20
11.0816
 30
0.0
 10
-2.277
 20
11.0816
 30
0.0
 10
-2.277
 20
11.0816
 30
0.0
 10
-2.2773
 20
11.4906
 30
0.0
 10
-2.2773
 20
11.4906
 30
0.0
 10
-2.2773
 20
11.4906
 30
0.0
 10
-2.2773
 20
11.4906
 30
0.0
 10
-2.2149
 20
11.9103
 30
0.0
 10
-2.2149
 20
11.9103
 30
0.0
 10
-2.2149
 20
11.9103
 30
0.0
 10
-2.2149
 20
11.9103
 30
0.0
 10
-2.0962
 20
12.3409
 30
0.0
 10
-2.0962
 20
12.3409
 30
0.0
 10
-2.0962
 20
12.3409
 30
0.0
 10
-2.0962
 20
12.3409
 30
0.0
 10
-1.9441
 20
12.7466
 30
0.0
 10
-1.9441
 20
12.7466
 30
0.0
 10
-1.9441
 20
12.7466
 30
0.0
 10
-1.9441
 20
12.7466
 30
0.0
 10
-1.7816
 20
13.1106
 30
0.0
 10
-1.7816
 20
13.1106
 30
0.0
 10
-1.7816
 20
13.1106
 30
0.0
 10
-1.7816
 20
13.1106
 30
0.0
 10
-1.6246
 20
13.4268
 30
0.0
 10
-1.6246
 20
13.4268
 30
0.0
 10
-1.6246
 20
13.4268
 30
0.0
 10
-1.6246
 20
13.4268
 30
0.0
 10
-1.4835
 20
13.6919
 30
0.0
 10
-1.4835
 20
13.6919
 30
0.0
 10
-1.4835
 20
13.6919
 30
0.0
 10
-1.4835
 20
13.6919
 30
0.0
 10
-1.3705
 20
13.8951
 30
0.0
 10
-1.3705
 20
13.8951
 30
0.0
 10
-1.3705
 20
13.8951
 30
0.0
 10
-1.3705
 20
13.8951
 30
0.0
 10
-1.295
 20
14.0272
 30
0.0
 10
-1.295
 20
14.0272
 30
0.0
 10
-1.295
 20
14.0272
 30
0.0
 10
-1.295
 20
14.0272
 30
0.0
 10
-1.2684
 20
14.0731
 30
0.0
 10
-1.2684
 20
14.0731
 30
0.0
  0
SPLINE
  5
108
330
1F
100
AcDbEntity
  8
DEFAULT_1
 62
   250
100
AcDbSpline
210
0.0
220
0.0
230
1.0
 70
     8
 71
     3
 72
    28
 73
    24
 74
     0
 42
0.0000000001
 43
0.0000000001
 40
0.0
 40
0.0
 40
0.0
 40
0.0
 40
0.1428571428571428
 40
0.1428571428571428
 40
0.1428571428571428
 40
0.1428571428571428
 40
0.2857142857142857
 40
0.2857142857142857
 40
0.2857142857142857
 40
0.2857142857142857
 40
0.4285714285714285
 40
0.4285714285714285
 40
0.4285714285714285
 40
0.4285714285714285
 40
0.5714285714285714
 40
0.5714285714285714
 40
0.5714285714285714
 40
0.5714285714285714
 40
0.7142857142857143
 40
0.7142857142857143
 40
0.7142857142857143
 40
0.7142857142857143
 40
1.0
 40
1.0
 40
1.0
 40
1.0
 10
-1.4232
 20
17.8036
 30
0.0
 10
-1.4232
 20
17.8036
 30
0.0
 10
-1.4858
 20
17.815
 30
0.0
 10
-1.4858
 20
17.815
 30
0.0
 10
-1.4858
 20
17.815
 30
0.0
 10
-1.4858
 20
17.815
 30
0.0
 10
-1.5464
 20
17.8496
 30
0.0
 10
-1.5464
 20
17.8496
 30
0.0
 10
-1.5464
 20
17.8496
 30
0.0
 10
-1.5464
 20
17.8496
 30
0.0
 10
-1.5982
 20
17.9035
 30
0.0
 10
-1.5982
 20
17.9035
 30
0.0
 10
-1.5982
 20
17.9035
 30
0.0
 10
-1.5982
 20
17.9035
 30
0.0
 10
-1.6384
 20
17.9736
 30
0.0
 10
-1.6384
 20
17.9736
 30
0.0
 10
-1.6384
 20
17.9736
 30
0.0
 10
-1.6384
 20
17.9736
 30
0.0
 10
-1.6645
 20
18.0568
 30
0.0
 10
-1.6645
 20
18.0568
 30
0.0
 10
-1.6645
 20
18.0568
 30
0.0
 10
-1.6645
 20
18.0568
 30
0.0
 10
-1.6731
 20
18.1444
 30
0.0
 10
-1.6731
 20
18.1444
 30
0.0
  0
SPLINE
  5
109
330
1F
100
AcDbEntity
  8
DEFAULT_1
 62
   250
100
AcDbSpline
210
0.0
220
0.0
230
1.0
 70
     8
 71
     3
 72
    28
 73
    24
 74
     0
 42
0.0000000001
 43
0.0000000001
 40
0.0
 40
0.0
 40
0.0
 40
0.0
 40
0.1428571428571428
 40
0.1428571428571428
 40
0.1428571428571428
 40
0.1428571428571428
 40
0.2857142857142857
 40
0.2857142857142857
 40
0.2857142857142857
 40
0.2857142857142857
 40
0.4285714285714285
 40
0.4285714285714285
 40
0.4285714285714285
 40
0.4285714285714285
 40
0.5714285714285714
 40
0.5714285714285714
 40
0.5714285714285714
 40
0.5714285714285714
 40
0.7142857142857143
 40
0.7142857142857143
 40
0.7142857142857143
 40
0.7142857142857143
 40
1.0
 40
1.0
 40
1.0
 40
1.0
 10
-1.4232
 20
17.8036
 30
0.0
 10
-1.4232
 20
17.8036
 30
0.0
 10
-1.3618
 20
17.815
 30
0.0
 10
-1.3618
 20
17.815
 30
0.0
 10
-1.3618
 20
17.815
 30
0.0
 10
-1.3618
 20
17.815
 30
0.0
 10
-1.3045
 20
17.8496
 30
0.0
 10
-1.3045
 20
17.8496
 30
0.0
 10
-1.3045
 20
17.8496
 30
0.0
 10
-1.3045
 20
17.8496
 30
0.0
 10
-1.2571
 20
17.9035
 30
0.0
 10
-1.2571
 20
17.9035
 30
0.0
 10
-1.2571
 20
17.9035
 30
0.0
 10
-1.2571
 20
17.9035
 30
0.0
 10
-1.2213
 20
17.9736
 30
0.0
 10
-1.2213
 20
17.9736
 30
0.0
 10
-1.2213
 20
17.9736
 30
0.0
 10
-1.2213
 20
17.9736
 30
0.0
 10
-1.1986
 20
18.0568
 30
0.0
 10
-1.1986
 20
18.0568
 30
0.0
 10
-1.1986
 20
18.0568
 30
0.0
 10
-1.1986
 20
18.0568
 30
0.0
 10
-1.1911
 20
18.1444
 30
0.0
 10
-1.1911
 20
18.1444
 30
0.0
  0
SPLINE
  5
10A
330
1F
100
AcDbEntity
  8
DEFAULT_1
 62
   250
100
AcDbSpline
210
0.0
220
0.0
230
1.0
 70
     8
 71
     3
 72
    28
 73
    24
 74
     0
 42
0.0000000001
 43
0.0000000001
 40
0.0
 40
0.0
 40
0.0
 40
0.0
 40
0.1428571428571428
 40
0.1428571428571428
 40
0.1428571428571428
 40
0.1428571428571428
 40
0.2857142857142857
 40
0.2857142857142857
 40
0.2857142857142857
 40
0.2857142857142857
 40
0.4285714285714285
 40
0.4285714285714285
 40
0.4285714285714285
 40
0.4285714285714285
 40
0.5714285714285714
 40
0.5714285714285714
 40
0.5714285714285714
 40
0.5714285714285714
 40
0.7142857142857143
 40
0.7142857142857143
 40
0.7142857142857143
 40
0.7142857142857143
 40
1.0
 40
1.0
 40
1.0
 40
1.0
 10
-7.7415
 20
18.1444
 30
0.0
 10
-7.7415
 20
18.1444
 30
0.0
 10
-7.7503
 20
18.0563
 30
0.0
 10
-7.7503
 20
18.0563
 30
0.0
 10
-7.7503
 20
18.0563
 30
0.0
 10
-7.7503
 20
18.0563
 30
0.0
 10
-7.776
 20
17.9741
 30
0.0
 10
-7.776
 20
17.9741
 30
0.0
 10
-7.776
 20
17.9741
 30
0.0
 10
-7.776
 20
17.9741
 30
0.0
 10
-7.8165
 20
17.9034
 30
0.0
 10
-7.8165
 20
17.9034
 30
0.0
 10
-7.8165
 20
17.9034
 30
0.0
 10
-7.8165
 20
17.9034
 30
0.0
 10
-7.8687
 20
17.8492
 30
0.0
 10
-7.8687
 20
17.8492
 30
0.0
 10
-7.8687
 20
17.8492
 30
0.0
 10
-7.8687
 20
17.8492
 30
0.0
 10
-7.9284
 20
17.8152
 30
0.0
 10
-7.9284
 20
17.8152
 30
0.0
 10
-7.9284
 20
17.8152
 30
0.0
 10
-7.9284
 20
17.8152
 30
0.0
 10
-7.9913
 20
17.8036
 30
0.0
 10
-7.9913
 20
17.8036
 30
0.0
  0
SPLINE
  5
10B
330
1F
100
AcDbEntity
  8
DEFAULT_1
 62
   250
100
AcDbSpline
210
0.0
220
0.0
230
1.0
 70
     8
 71
     3
 72
    76
 73
    72
 74
     0
 42
0.0000000001
 43
0.0000000001
 40
0.0
 40
0.0
 40
0.0
 40
0.0
 40
0.0526315789473684
 40
0.0526315789473684
 40
0.0526315789473684
 40
0.0526315789473684
 40
0.1052631578947368
 40
0.1052631578947368
 40
0.1052631578947368
 40
0.1052631578947368
 40
0.1578947368421053
 40
0.1578947368421053
 40
0.1578947368421053
 40
0.1578947368421053
 40
0.2105263157894737
 40
0.2105263157894737
 40
0.2105263157894737
 40
0.2105263157894737
 40
0.2631578947368421
 40
0.2631578947368421
 40
0.2631578947368421
 40
0.2631578947368421
 40
0.3157894736842105
 40
0.3157894736842105
 40
0.3157894736842105
 40
0.3157894736842105
 40
0.3684210526315789
 40
0.3684210526315789
 40
0.3684210526315789
 40
0.3684210526315789
 40
0.4210526315789473
 40
0.4210526315789473
 40
0.4210526315789473
 40
0.4210526315789473
 40
0.4736842105263158
 40
0.4736842105263158
 40
0.4736842105263158
 40
0.4736842105263158
 40
0.5263157894736842
 40
0.5263157894736842
 40
0.5263157894736842
 40
0.5263157894736842
 40
0.5789473684210527
 40
0.5789473684210527
 40
0.5789473684210527
 40
0.5789473684210527
 40
0.631578947368421
 40
0.631578947368421
 40
0.631578947368421
 40
0.631578947368421
 40
0.6842105263157895
 40
0.6842105263157895
 40
0.6842105263157895
 40
0.6842105263157895
 40
0.7368421052631579
 40
0.7368421052631579
 40
0.7368421052631579
 40
0.7368421052631579
 40
0.7894736842105263
 40
0.7894736842105263
 40
0.7894736842105263
 40
0.7894736842105263
 40
0.8421052631578947
 40
0.8421052631578947
 40
0.8421052631578947
 40
0.8421052631578947
 40
0.8947368421052632
 40
0.8947368421052632
 40
0.8947368421052632
 40
0.8947368421052632
 40
1.0
 40
1.0
 40
1.0
 40
1.0
 10
6.745
 20
11.6767
 30
0.0
 10
6.745
 20
11.6767
 30
0.0
 10
6.7562
 20
11.6935
 30
0.0
 10
6.7562
 20
11.6935
 30
0.0
 10
6.7562
 20
11.6935
 30
0.0
 10
6.7562
 20
11.6935
 30
0.0
 10
6.7906
 20
11.7447
 30
0.0
 10
6.7906
 20
11.7447
 30
0.0
 10
6.7906
 20
11.7447
 30
0.0
 10
6.7906
 20
11.7447
 30
0.0
 10
6.8457
 20
11.8261
 30
0.0
 10
6.8457
 20
11.8261
 30
0.0
 10
6.8457
 20
11.8261
 30
0.0
 10
6.8457
 20
11.8261
 30
0.0
 10
6.9171
 20
11.9299
 30
0.0
 10
6.9171
 20
11.9299
 30
0.0
 10
6.9171
 20
11.9299
 30
0.0
 10
6.9171
 20
11.9299
 30
0.0
 10
6.9977
 20
12.0448
 30
0.0
 10
6.9977
 20
12.0448
 30
0.0
 10
6.9977
 20
12.0448
 30
0.0
 10
6.9977
 20
12.0448
 30
0.0
 10
7.081
 20
12.1603
 30
0.0
 10
7.081
 20
12.1603
 30
0.0
 10
7.081
 20
12.1603
 30
0.0
 10
7.081
 20
12.1603
 30
0.0
 10
7.1624
 20
12.27
 30
0.0
 10
7.1624
 20
12.27
 30
0.0
 10
7.1624
 20
12.27
 30
0.0
 10
7.1624
 20
12.27
 30
0.0
 10
7.2402
 20
12.3711
 30
0.0
 10
7.2402
 20
12.3711
 30
0.0
 10
7.2402
 20
12.3711
 30
0.0
 10
7.2402
 20
12.3711
 30
0.0
 10
7.3136
 20
12.4627
 30
0.0
 10
7.3136
 20
12.4627
 30
0.0
 10
7.3136
 20
12.4627
 30
0.0
 10
7.3136
 20
12.4627
 30
0.0
 10
7.3828
 20
12.5453
 30
0.0
 10
7.3828
 20
12.5453
 30
0.0
 10
7.3828
 20
12.5453
 30
0.0
 10
7.3828
 20
12.5453
 30
0.0
 10
7.4484
 20
12.6201
 30
0.0
 10
7.4484
 20
12.6201
 30
0.0
 10
7.4484
 20
12.6201
 30
0.0
 10
7.4484
 20
12.6201
 30
0.0
 10
7.5116
 20
12.6883
 30
0.0
 10
7.5116
 20
12.6883
 30
0.0
 10
7.5116
 20
12.6883
 30
0.0
 10
7.5116
 20
12.6883
 30
0.0
 10
7.5737
 20
12.7513
 30
0.0
 10
7.5737
 20
12.7513
 30
0.0
 10
7.5737
 20
12.7513
 30
0.0
 10
7.5737
 20
12.7513
 30
0.0
 10
7.6365
 20
12.8107
 30
0.0
 10
7.6365
 20
12.8107
 30
0.0
 10
7.6365
 20
12.8107
 30
0.0
 10
7.6365
 20
12.8107
 30
0.0
 10
7.7018
 20
12.8678
 30
0.0
 10
7.7018
 20
12.8678
 30
0.0
 10
7.7018
 20
12.8678
 30
0.0
 10
7.7018
 20
12.8678
 30
0.0
 10
7.7709
 20
12.9224
 30
0.0
 10
7.7709
 20
12.9224
 30
0.0
 10
7.7709
 20
12.9224
 30
0.0
 10
7.7709
 20
12.9224
 30
0.0
 10
7.8437
 20
12.9734
 30
0.0
 10
7.8437
 20
12.9734
 30
0.0
 10
7.8437
 20
12.9734
 30
0.0
 10
7.8437
 20
12.9734
 30
0.0
 10
7.9203
 20
13.0195
 30
0.0
 10
7.9203
 20
13.0195
 30
0.0
  0
SPLINE
  5
10C
330
1F
100
AcDbEntity
  8
DEFAULT_1
 62
   250
100
AcDbSpline
210
0.0
220
0.0
230
1.0
 70
     8
 71
     3
 72
    48
 73
    44
 74
     0
 42
0.0000000001
 43
0.0000000001
 40
0.0
 40
0.0
 40
0.0
 40
0.0
 40
0.0833333333333333
 40
0.0833333333333333
 40
0.0833333333333333
 40
0.0833333333333333
 40
0.1666666666666667
 40
0.1666666666666667
 40
0.1666666666666667
 40
0.1666666666666667
 40
0.25
 40
0.25
 40
0.25
 40
0.25
 40
0.3333333333333333
 40
0.3333333333333333
 40
0.3333333333333333
 40
0.3333333333333333
 40
0.4166666666666667
 40
0.4166666666666667
 40
0.4166666666666667
 40
0.4166666666666667
 40
0.5
 40
0.5
 40
0.5
 40
0.5
 40
0.5833333333333334
 40
0.5833333333333334
 40
0.5833333333333334
 40
0.5833333333333334
 40
0.6666666666666666
 40
0.6666666666666666
 40
0.6666666666666666
 40
0.6666666666666666
 40
0.75
 40
0.75
 40
0.75
 40
0.75
 40
0.8333333333333334
 40
0.8333333333333334
 40
0.8333333333333334
 40
0.8333333333333334
 40
1.0
 40
1.0
 40
1.0
 40
1.0
 10
7.9203
 20
13.0195
 30
0.0
 10
7.9203
 20
13.0195
 30
0.0
 10
8.1584
 20
13.1533
 30
0.0
 10
8.1584
 20
13.1533
 30
0.0
 10
8.1584
 20
13.1533
 30
0.0
 10
8.1584
 20
13.1533
 30
0.0
 10
8.3969
 20
13.2936
 30
0.0
 10
8.3969
 20
13.2936
 30
0.0
 10
8.3969
 20
13.2936
 30
0.0
 10
8.3969
 20
13.2936
 30
0.0
 10
8.6266
 20
13.4365
 30
0.0
 10
8.6266
 20
13.4365
 30
0.0
 10
8.6266
 20
13.4365
 30
0.0
 10
8.6266
 20
13.4365
 30
0.0
 10
8.8419
 20
13.58
 30
0.0
 10
8.8419
 20
13.58
 30
0.0
 10
8.8419
 20
13.58
 30
0.0
 10
8.8419
 20
13.58
 30
0.0
 10
9.0398
 20
13.7239
 30
0.0
 10
9.0398
 20
13.7239
 30
0.0
 10
9.0398
 20
13.7239
 30
0.0
 10
9.0398
 20
13.7239
 30
0.0
 10
9.2136
 20
13.8657
 30
0.0
 10
9.2136
 20
13.8657
 30
0.0
 10
9.2136
 20
13.8657
 30
0.0
 10
9.2136
 20
13.8657
 30
0.0
 10
9.3565
 20
14.002
 30
0.0
 10
9.3565
 20
14.002
 30
0.0
 10
9.3565
 20
14.002
 30
0.0
 10
9.3565
 20
14.002
 30
0.0
 10
9.4648
 20
14.1307
 30
0.0
 10
9.4648
 20
14.1307
 30
0.0
 10
9.4648
 20
14.1307
 30
0.0
 10
9.4648
 20
14.1307
 30
0.0
 10
9.5361
 20
14.2506
 30
0.0
 10
9.5361
 20
14.2506
 30
0.0
 10
9.5361
 20
14.2506
 30
0.0
 10
9.5361
 20
14.2506
 30
0.0
 10
9.5691
 20
14.3609
 30
0.0
 10
9.5691
 20
14.3609
 30
0.0
 10
9.5691
 20
14.3609
 30
0.0
 10
9.5691
 20
14.3609
 30
0.0
 10
9.5632
 20
14.461
 30
0.0
 10
9.5632
 20
14.461
 30
0.0
  0
SPLINE
  5
10D
330
1F
100
AcDbEntity
  8
DEFAULT_1
 62
   250
100
AcDbSpline
210
0.0
220
0.0
230
1.0
 70
     8
 71
     3
 72
    76
 73
    72
 74
     0
 42
0.0000000001
 43
0.0000000001
 40
0.0
 40
0.0
 40
0.0
 40
0.0
 40
0.0526315789473684
 40
0.0526315789473684
 40
0.0526315789473684
 40
0.0526315789473684
 40
0.1052631578947368
 40
0.1052631578947368
 40
0.1052631578947368
 40
0.1052631578947368
 40
0.1578947368421053
 40
0.1578947368421053
 40
0.1578947368421053
 40
0.1578947368421053
 40
0.2105263157894737
 40
0.2105263157894737
 40
0.2105263157894737
 40
0.2105263157894737
 40
0.2631578947368421
 40
0.2631578947368421
 40
0.2631578947368421
 40
0.2631578947368421
 40
0.3157894736842105
 40
0.3157894736842105
 40
0.3157894736842105
 40
0.3157894736842105
 40
0.3684210526315789
 40
0.3684210526315789
 40
0.3684210526315789
 40
0.3684210526315789
 40
0.4210526315789473
 40
0.4210526315789473
 40
0.4210526315789473
 40
0.4210526315789473
 40
0.4736842105263158
 40
0.4736842105263158
 40
0.4736842105263158
 40
0.4736842105263158
 40
0.5263157894736842
 40
0.5263157894736842
 40
0.5263157894736842
 40
0.5263157894736842
 40
0.5789473684210527
 40
0.5789473684210527
 40
0.5789473684210527
 40
0.5789473684210527
 40
0.631578947368421
 40
0.631578947368421
 40
0.631578947368421
 40
0.631578947368421
 40
0.6842105263157895
 40
0.6842105263157895
 40
0.6842105263157895
 40
0.6842105263157895
 40
0.7368421052631579
 40
0.7368421052631579
 40
0.7368421052631579
 40
0.7368421052631579
 40
0.7894736842105263
 40
0.7894736842105263
 40
0.7894736842105263
 40
0.7894736842105263
 40
0.8421052631578947
 40
0.8421052631578947
 40
0.8421052631578947
 40
0.8421052631578947
 40
0.8947368421052632
 40
0.8947368421052632
 40
0.8947368421052632
 40
0.8947368421052632
 40
1.0
 40
1.0
 40
1.0
 40
1.0
 10
-17.2746
 20
13.0195
 30
0.0
 10
-17.2746
 20
13.0195
 30
0.0
 10
-17.1986
 20
12.9738
 30
0.0
 10
-17.1986
 20
12.9738
 30
0.0
 10
-17.1986
 20
12.9738
 30
0.0
 10
-17.1986
 20
12.9738
 30
0.0
 10
-17.1263
 20
12.9233
 30
0.0
 10
-17.1263
 20
12.9233
 30
0.0
 10
-17.1263
 20
12.9233
 30
0.0
 10
-17.1263
 20
12.9233
 30
0.0
 10
-17.0577
 20
12.8692
 30
0.0
 10
-17.0577
 20
12.8692
 30
0.0
 10
-17.0577
 20
12.8692
 30
0.0
 10
-17.0577
 20
12.8692
 30
0.0
 10
-16.9928
 20
12.8127
 30
0.0
 10
-16.9928
 20
12.8127
 30
0.0
 10
-16.9928
 20
12.8127
 30
0.0
 10
-16.9928
 20
12.8127
 30
0.0
 10
-16.9305
 20
12.7537
 30
0.0
 10
-16.9305
 20
12.7537
 30
0.0
 10
-16.9305
 20
12.7537
 30
0.0
 10
-16.9305
 20
12.7537
 30
0.0
 10
-16.8686
 20
12.6911
 30
0.0
 10
-16.8686
 20
12.6911
 30
0.0
 10
-16.8686
 20
12.6911
 30
0.0
 10
-16.8686
 20
12.6911
 30
0.0
 10
-16.8056
 20
12.6234
 30
0.0
 10
-16.8056
 20
12.6234
 30
0.0
 10
-16.8056
 20
12.6234
 30
0.0
 10
-16.8056
 20
12.6234
 30
0.0
 10
-16.7402
 20
12.549
 30
0.0
 10
-16.7402
 20
12.549
 30
0.0
 10
-16.7402
 20
12.549
 30
0.0
 10
-16.7402
 20
12.549
 30
0.0
 10
-16.6714
 20
12.467
 30
0.0
 10
-16.6714
 20
12.467
 30
0.0
 10
-16.6714
 20
12.467
 30
0.0
 10
-16.6714
 20
12.467
 30
0.0
 10
-16.5984
 20
12.3761
 30
0.0
 10
-16.5984
 20
12.3761
 30
0.0
 10
-16.5984
 20
12.3761
 30
0.0
 10
-16.5984
 20
12.3761
 30
0.0
 10
-16.5209
 20
12.2757
 30
0.0
 10
-16.5209
 20
12.2757
 30
0.0
 10
-16.5209
 20
12.2757
 30
0.0
 10
-16.5209
 20
12.2757
 30
0.0
 10
-16.4397
 20
12.1666
 30
0.0
 10
-16.4397
 20
12.1666
 30
0.0
 10
-16.4397
 20
12.1666
 30
0.0
 10
-16.4397
 20
12.1666
 30
0.0
 10
-16.3565
 20
12.0512
 30
0.0
 10
-16.3565
 20
12.0512
 30
0.0
 10
-16.3565
 20
12.0512
 30
0.0
 10
-16.3565
 20
12.0512
 30
0.0
 10
-16.2753
 20
11.9356
 30
0.0
 10
-16.2753
 20
11.9356
 30
0.0
 10
-16.2753
 20
11.9356
 30
0.0
 10
-16.2753
 20
11.9356
 30
0.0
 10
-16.2028
 20
11.8302
 30
0.0
 10
-16.2028
 20
11.8302
 30
0.0
 10
-16.2028
 20
11.8302
 30
0.0
 10
-16.2028
 20
11.8302
 30
0.0
 10
-16.1463
 20
11.7469
 30
0.0
 10
-16.1463
 20
11.7469
 30
0.0
 10
-16.1463
 20
11.7469
 30
0.0
 10
-16.1463
 20
11.7469
 30
0.0
 10
-16.1109
 20
11.6941
 30
0.0
 10
-16.1109
 20
11.6941
 30
0.0
 10
-16.1109
 20
11.6941
 30
0.0
 10
-16.1109
 20
11.6941
 30
0.0
 10
-16.0993
 20
11.6767
 30
0.0
 10
-16.0993
 20
11.6767
 30
0.0
  0
SPLINE
  5
10E
330
1F
100
AcDbEntity
  8
DEFAULT_1
 62
   250
100
AcDbSpline
210
0.0
220
0.0
230
1.0
 70
     8
 71
     3
 72
    32
 73
    28
 74
     0
 42
0.0000000001
 43
0.0000000001
 40
0.0
 40
0.0
 40
0.0
 40
0.0
 40
0.125
 40
0.125
 40
0.125
 40
0.125
 40
0.25
 40
0.25
 40
0.25
 40
0.25
 40
0.375
 40
0.375
 40
0.375
 40
0.375
 40
0.5
 40
0.5
 40
0.5
 40
0.5
 40
0.625
 40
0.625
 40
0.625
 40
0.625
 40
0.75
 40
0.75
 40
0.75
 40
0.75
 40
1.0
 40
1.0
 40
1.0
 40
1.0
 10
-14.6536
 20
10.9479
 30
0.0
 10
-14.6536
 20
10.9479
 30
0.0
 10
-14.659
 20
10.8949
 30
0.0
 10
-14.659
 20
10.8949
 30
0.0
 10
-14.659
 20
10.8949
 30
0.0
 10
-14.659
 20
10.8949
 30
0.0
 10
-14.6474
 20
10.8403
 30
0.0
 10
-14.6474
 20
10.8403
 30
0.0
 10
-14.6474
 20
10.8403
 30
0.0
 10
-14.6474
 20
10.8403
 30
0.0
 10
-14.6191
 20
10.7879
 30
0.0
 10
-14.6191
 20
10.7879
 30
0.0
 10
-14.6191
 20
10.7879
 30
0.0
 10
-14.6191
 20
10.7879
 30
0.0
 10
-14.5768
 20
10.7405
 30
0.0
 10
-14.5768
 20
10.7405
 30
0.0
 10
-14.5768
 20
10.7405
 30
0.0
 10
-14.5768
 20
10.7405
 30
0.0
 10
-14.5211
 20
10.6984
 30
0.0
 10
-14.5211
 20
10.6984
 30
0.0
 10
-14.5211
 20
10.6984
 30
0.0
 10
-14.5211
 20
10.6984
 30
0.0
 10
-14.4547
 20
10.6637
 30
0.0
 10
-14.4547
 20
10.6637
 30
0.0
 10
-14.4547
 20
10.6637
 30
0.0
 10
-14.4547
 20
10.6637
 30
0.0
 10
-14.3834
 20
10.6391
 30
0.0
 10
-14.3834
 20
10.6391
 30
0.0
  0
SPLINE
  5
10F
330
1F
100
AcDbEntity
  8
DEFAULT_1
 62
   250
100
AcDbSpline
210
0.0
220
0.0
230
1.0
 70
     8
 71
     3
 72
    32
 73
    28
 74
     0
 42
0.0000000001
 43
0.0000000001
 40
0.0
 40
0.0
 40
0.0
 40
0.0
 40
0.125
 40
0.125
 40
0.125
 40
0.125
 40
0.25
 40
0.25
 40
0.25
 40
0.25
 40
0.375
 40
0.375
 40
0.375
 40
0.375
 40
0.5
 40
0.5
 40
0.5
 40
0.5
 40
0.625
 40
0.625
 40
0.625
 40
0.625
 40
0.75
 40
0.75
 40
0.75
 40
0.75
 40
1.0
 40
1.0
 40
1.0
 40
1.0
 10
4.1141
 20
15.3715
 30
0.0
 10
4.1141
 20
15.3715
 30
0.0
 10
4.0923
 20
15.4201
 30
0.0
 10
4.0923
 20
15.4201
 30
0.0
 10
4.0923
 20
15.4201
 30
0.0
 10
4.0923
 20
15.4201
 30
0.0
 10
4.0548
 20
15.4616
 30
0.0
 10
4.0548
 20
15.4616
 30
0.0
 10
4.0548
 20
15.4616
 30
0.0
 10
4.0548
 20
15.4616
 30
0.0
 10
4.0042
 20
15.4928
 30
0.0
 10
4.0042
 20
15.4928
 30
0.0
 10
4.0042
 20
15.4928
 30
0.0
 10
4.0042
 20
15.4928
 30
0.0
 10
3.9438
 20
15.5127
 30
0.0
 10
3.9438
 20
15.5127
 30
0.0
 10
3.9438
 20
15.5127
 30
0.0
 10
3.9438
 20
15.5127
 30
0.0
 10
3.8746
 20
15.5213
 30
0.0
 10
3.8746
 20
15.5213
 30
0.0
 10
3.8746
 20
15.5213
 30
0.0
 10
3.8746
 20
15.5213
 30
0.0
 10
3.7997
 20
15.5181
 30
0.0
 10
3.7997
 20
15.5181
 30
0.0
 10
3.7997
 20
15.5181
 30
0.0
 10
3.7997
 20
15.5181
 30
0.0
 10
3.7257
 20
15.5038
 30
0.0
 10
3.7257
 20
15.5038
 30
0.0
  0
SPLINE
  5
110
330
1F
100
AcDbEntity
  8
DEFAULT_1
 62
   250
100
AcDbSpline
210
0.0
220
0.0
230
1.0
 70
     8
 71
     3
 72
    32
 73
    28
 74
     0
 42
0.0000000001
 43
0.0000000001
 40
0.0
 40
0.0
 40
0.0
 40
0.0
 40
0.125
 40
0.125
 40
0.125
 40
0.125
 40
0.25
 40
0.25
 40
0.25
 40
0.25
 40
0.375
 40
0.375
 40
0.375
 40
0.375
 40
0.5
 40
0.5
 40
0.5
 40
0.5
 40
0.625
 40
0.625
 40
0.625
 40
0.625
 40
0.75
 40
0.75
 40
0.75
 40
0.75
 40
1.0
 40
1.0
 40
1.0
 40
1.0
 10
5.0292
 20
10.6391
 30
0.0
 10
5.0292
 20
10.6391
 30
0.0
 10
5.1005
 20
10.6638
 30
0.0
 10
5.1005
 20
10.6638
 30
0.0
 10
5.1005
 20
10.6638
 30
0.0
 10
5.1005
 20
10.6638
 30
0.0
 10
5.1669
 20
10.6984
 30
0.0
 10
5.1669
 20
10.6984
 30
0.0
 10
5.1669
 20
10.6984
 30
0.0
 10
5.1669
 20
10.6984
 30
0.0
 10
5.2225
 20
10.7405
 30
0.0
 10
5.2225
 20
10.7405
 30
0.0
 10
5.2225
 20
10.7405
 30
0.0
 10
5.2225
 20
10.7405
 30
0.0
 10
5.2649
 20
10.7879
 30
0.0
 10
5.2649
 20
10.7879
 30
0.0
 10
5.2649
 20
10.7879
 30
0.0
 10
5.2649
 20
10.7879
 30
0.0
 10
5.2932
 20
10.8405
 30
0.0
 10
5.2932
 20
10.8405
 30
0.0
 10
5.2932
 20
10.8405
 30
0.0
 10
5.2932
 20
10.8405
 30
0.0
 10
5.3048
 20
10.895
 30
0.0
 10
5.3048
 20
10.895
 30
0.0
 10
5.3048
 20
10.895
 30
0.0
 10
5.3048
 20
10.895
 30
0.0
 10
5.2993
 20
10.9479
 30
0.0
 10
5.2993
 20
10.9479
 30
0.0
  0
SPLINE
  5
111
330
1F
100
AcDbEntity
  8
DEFAULT_1
  6
NEW_LINE1
 62
   250
100
AcDbSpline
210
0.0
220
0.0
230
1.0
 70
    24
 71
     3
 72
     8
 73
     4
 74
     0
 42
0.0000000001
 43
0.0000000001
 40
0.0
 40
0.0
 40
0.0
 40
0.0
 40
1.0
 40
1.0
 40
1.0
 40
1.0
 10
-17.0783
 20
14.674
 30
0.0
 10
-17.0783
 20
14.674
 30
0.0
 10
-19.6588
 20
5.0432
 30
0.0
 10
-19.6588
 20
5.0432
 30
0.0
  0
SPLINE
  5
113
330
1F
100
AcDbEntity
  8
DEFAULT_1
  6
NEW_LINE2
 62
   250
100
AcDbSpline
210
0.0
220
0.0
230
1.0
 70
    24
 71
     3
 72
     8
 73
     4
 74
     0
 42
0.0000000001
 43
0.0000000001
 40
0.0
 40
0.0
 40
0.0
 40
0.0
 40
1.0
 40
1.0
 40
1.0
 40
1.0
 10
-4.6767
 20
21.1682
 30
0.0
 10
-4.6767
 20
21.1682
 30
0.0
 10
-4.6767
 20
-26.1559
 30
0.0
 10
-4.6767
 20
-26.1559
 30
0.0
  0
SPLINE
  5
115
330
1F
100
AcDbEntity
  8
DEFAULT_1
  6
NEW_LINE3
 62
   250
100
AcDbSpline
210
0.0
220
0.0
230
1.0
 70
    24
 71
     3
 72
     8
 73
     4
 74
     0
 42
0.0000000001
 43
0.0000000001
 40
0.0
 40
0.0
 40
0.0
 40
0.0
 40
1.0
 40
1.0
 40
1.0
 40
1.0
 10
-5.2427
 20
10.4937
 30
0.0
 10
-5.2427
 20
10.4937
 30
0.0
 10
8.3337
 20
14.1315
 30
0.0
 10
8.3337
 20
14.1315
 30
0.0
  0
SPLINE
  5
117
330
1F
100
AcDbEntity
  8
DEFAULT_1
  6
NEW_LINE4
 62
   250
100
AcDbSpline
210
0.0
220
0.0
230
1.0
 70
    24
 71
     3
 72
     8
 73
     4
 74
     0
 42
0.0000000001
 43
0.0000000001
 40
0.0
 40
0.0
 40
0.0
 40
0.0
 40
1.0
 40
1.0
 40
1.0
 40
1.0
 10
-4.2423
 20
10.5288
 30
0.0
 10
-4.2423
 20
10.5288
 30
0.0
 10
-17.5971
 20
14.1072
 30
0.0
 10
-17.5971
 20
14.1072
 30
0.0
  0
SPLINE
  5
119
330
1F
100
AcDbEntity
  8
DEFAULT_1
  6
NEW_LINE5
 62
   250
100
AcDbSpline
210
0.0
220
0.0
230
1.0
 70
    24
 71
     3
 72
     8
 73
     4
 74
     0
 42
0.0000000001
 43
0.0000000001
 40
0.0
 40
0.0
 40
0.0
 40
0.0
 40
1.0
 40
1.0
 40
1.0
 40
1.0
 10
7.724
 20
14.674
 30
0.0
 10
7.724
 20
14.674
 30
0.0
 10
10.3046
 20
5.0432
 30
0.0
 10
10.3046
 20
5.0432
 30
0.0
  0
SPLINE
  5
11B
330
1F
100
AcDbEntity
  8
DEFAULT_1
 62
   250
100
AcDbSpline
210
0.0
220
0.0
230
1.0
 70
    11
 71
     3
 72
    40
 73
    36
 74
     0
 42
0.0000000001
 43
0.0000000001
 40
0.0
 40
0.0
 40
0.0
 40
0.0
 40
0.1
 40
0.1
 40
0.1
 40
0.1
 40
0.2
 40
0.2
 40
0.2
 40
0.2
 40
0.3
 40
0.3
 40
0.3
 40
0.3
 40
0.4
 40
0.4
 40
0.4
 40
0.4
 40
0.5
 40
0.5
 40
0.5
 40
0.5
 40
0.6
 40
0.6
 40
0.6
 40
0.6
 40
0.7
 40
0.7
 40
0.7
 40
0.7
 40
0.8
 40
0.8
 40
0.8
 40
0.8
 40
1.0
 40
1.0
 40
1.0
 40
1.0
 10
12.7401
 20
-11.1215
 30
0.0
 10
12.7401
 20
-11.1215
 30
0.0
 10
12.7401
 20
-11.3693
 30
0.0
 10
12.7401
 20
-11.3693
 30
0.0
 10
12.7401
 20
-11.3693
 30
0.0
 10
12.7401
 20
-11.3693
 30
0.0
 10
11.1597
 20
-11.3693
 30
0.0
 10
11.1597
 20
-11.3693
 30
0.0
 10
11.1597
 20
-11.3693
 30
0.0
 10
11.2166
 20
-11.4291
 30
0.0
 10
11.2735
 20
-11.5071
 30
0.0
 10
11.3304
 20
-11.604
 30
0.0
 10
11.3304
 20
-11.604
 30
0.0
 10
11.3874
 20
-11.7014
 30
0.0
 10
11.4301
 20
-11.7884
 30
0.0
 10
11.4583
 20
-11.8655
 30
0.0
 10
11.4583
 20
-11.8655
 30
0.0
 10
11.4583
 20
-11.8655
 30
0.0
 10
11.2189
 20
-11.8655
 30
0.0
 10
11.2189
 20
-11.8655
 30
0.0
 10
11.2189
 20
-11.8655
 30
0.0
 10
11.1535
 20
-11.7268
 30
0.0
 10
11.0746
 20
-11.6055
 30
0.0
 10
10.9819
 20
-11.5015
 30
0.0
 10
10.9819
 20
-11.5015
 30
0.0
 10
10.8887
 20
-11.398
 30
0.0
 10
10.7989
 20
-11.3242
 30
0.0
 10
10.7114
 20
-11.2809
 30
0.0
 10
10.7114
 20
-11.2809
 30
0.0
 10
10.7114
 20
-11.2809
 30
0.0
 10
10.7114
 20
-11.1215
 30
0.0
 10
10.7114
 20
-11.1215
 30
0.0
 10
10.7114
 20
-11.1215
 30
0.0
 10
10.7114
 20
-11.1215
 30
0.0
 10
12.7401
 20
-11.1215
 30
0.0
 10
12.7401
 20
-11.1215
 30
0.0
  0
SPLINE
  5
11C
330
1F
100
AcDbEntity
  8
DEFAULT_1
 62
   250
100
AcDbSpline
210
0.0
220
0.0
230
1.0
 70
    11
 71
     3
 72
    68
 73
    64
 74
     0
 42
0.0000000001
 43
0.0000000001
 40
0.0
 40
0.0
 40
0.0
 40
0.0
 40
0.0588235294117647
 40
0.0588235294117647
 40
0.0588235294117647
 40
0.0588235294117647
 40
0.1176470588235294
 40
0.1176470588235294
 40
0.1176470588235294
 40
0.1176470588235294
 40
0.1764705882352941
 40
0.1764705882352941
 40
0.1764705882352941
 40
0.1764705882352941
 40
0.2352941176470588
 40
0.2352941176470588
 40
0.2352941176470588
 40
0.2352941176470588
 40
0.2941176470588235
 40
0.2941176470588235
 40
0.2941176470588235
 40
0.2941176470588235
 40
0.3529411764705883
 40
0.3529411764705883
 40
0.3529411764705883
 40
0.3529411764705883
 40
0.4117647058823529
 40
0.4117647058823529
 40
0.4117647058823529
 40
0.4117647058823529
 40
0.4705882352941176
 40
0.4705882352941176
 40
0.4705882352941176
 40
0.4705882352941176
 40
0.5294117647058824
 40
0.5294117647058824
 40
0.5294117647058824
 40
0.5294117647058824
 40
0.5882352941176471
 40
0.5882352941176471
 40
0.5882352941176471
 40
0.5882352941176471
 40
0.6470588235294118
 40
0.6470588235294118
 40
0.6470588235294118
 40
0.6470588235294118
 40
0.7058823529411765
 40
0.7058823529411765
 40
0.7058823529411765
 40
0.7058823529411765
 40
0.7647058823529411
 40
0.7647058823529411
 40
0.7647058823529411
 40
0.7647058823529411
 40
0.8235294117647058
 40
0.8235294117647058
 40
0.8235294117647058
 40
0.8235294117647058
 40
0.8823529411764706
 40
0.8823529411764706
 40
0.8823529411764706
 40
0.8823529411764706
 40
1.0
 40
1.0
 40
1.0
 40
1.0
 10
11.6446
 20
-10.1041
 30
0.0
 10
11.607
 20
-10.207
 30
0.0
 10
11.5534
 20
-10.2833
 30
0.0
 10
11.4833
 20
-10.3331
 30
0.0
 10
11.4833
 20
-10.3331
 30
0.0
 10
11.4136
 20
-10.3825
 30
0.0
 10
11.3299
 20
-10.4074
 30
0.0
 10
11.2326
 20
-10.4074
 30
0.0
 10
11.2326
 20
-10.4074
 30
0.0
 10
11.0853
 20
-10.4074
 30
0.0
 10
10.9621
 20
-10.3548
 30
0.0
 10
10.8619
 20
-10.2489
 30
0.0
 10
10.8619
 20
-10.2489
 30
0.0
 10
10.7618
 20
-10.1431
 30
0.0
 10
10.7114
 20
-10.0029
 30
0.0
 10
10.7114
 20
-9.8275
 30
0.0
 10
10.7114
 20
-9.8275
 30
0.0
 10
10.7114
 20
-9.6511
 30
0.0
 10
10.7627
 20
-9.509
 30
0.0
 10
10.8653
 20
-9.4013
 30
0.0
 10
10.8653
 20
-9.4013
 30
0.0
 10
10.9678
 20
-9.2941
 30
0.0
 10
11.0924
 20
-9.2404
 30
0.0
 10
11.2396
 20
-9.2404
 30
0.0
 10
11.2396
 20
-9.2404
 30
0.0
 10
11.3332
 20
-9.2404
 30
0.0
 10
11.4146
 20
-9.2649
 30
0.0
 10
11.4842
 20
-9.3138
 30
0.0
 10
11.4842
 20
-9.3138
 30
0.0
 10
11.5534
 20
-9.3632
 30
0.0
 10
11.607
 20
-9.4375
 30
0.0
 10
11.6446
 20
-9.5377
 30
0.0
 10
11.6446
 20
-9.5377
 30
0.0
 10
11.685
 20
-9.414
 30
0.0
 10
11.75
 20
-9.3195
 30
0.0
 10
11.8403
 20
-9.2546
 30
0.0
 10
11.8403
 20
-9.2546
 30
0.0
 10
11.9301
 20
-9.1901
 30
0.0
 10
12.0379
 20
-9.1576
 30
0.0
 10
12.1625
 20
-9.1576
 30
0.0
 10
12.1625
 20
-9.1576
 30
0.0
 10
12.3355
 20
-9.1576
 30
0.0
 10
12.4805
 20
-9.2188
 30
0.0
 10
12.598
 20
-9.3407
 30
0.0
 10
12.598
 20
-9.3407
 30
0.0
 10
12.7157
 20
-9.463
 30
0.0
 10
12.7745
 20
-9.6238
 30
0.0
 10
12.7745
 20
-9.8233
 30
0.0
 10
12.7745
 20
-9.8233
 30
0.0
 10
12.7745
 20
-10.0226
 30
0.0
 10
12.7157
 20
-10.183
 30
0.0
 10
12.5976
 20
-10.3053
 30
0.0
 10
12.5976
 20
-10.3053
 30
0.0
 10
12.4795
 20
-10.4276
 30
0.0
 10
12.3323
 20
-10.4888
 30
0.0
 10
12.1559
 20
-10.4888
 30
0.0
 10
12.1559
 20
-10.4888
 30
0.0
 10
12.0247
 20
-10.4888
 30
0.0
 10
11.9146
 20
-10.4554
 30
0.0
 10
11.8257
 20
-10.3886
 30
0.0
 10
11.8257
 20
-10.3886
 30
0.0
 10
11.7373
 20
-10.3223
 30
0.0
 10
11.6766
 20
-10.2273
 30
0.0
 10
11.6446
 20
-10.1041
 30
0.0
  0
SPLINE
  5
11D
330
1F
100
AcDbEntity
  8
DEFAULT_1
 62
   250
100
AcDbSpline
210
0.0
220
0.0
230
1.0
 70
    11
 71
     3
 72
    36
 73
    32
 74
     0
 42
0.0000000001
 43
0.0000000001
 40
0.0
 40
0.0
 40
0.0
 40
0.0
 40
0.1111111111111111
 40
0.1111111111111111
 40
0.1111111111111111
 40
0.1111111111111111
 40
0.2222222222222222
 40
0.2222222222222222
 40
0.2222222222222222
 40
0.2222222222222222
 40
0.3333333333333333
 40
0.3333333333333333
 40
0.3333333333333333
 40
0.3333333333333333
 40
0.4444444444444444
 40
0.4444444444444444
 40
0.4444444444444444
 40
0.4444444444444444
 40
0.5555555555555556
 40
0.5555555555555556
 40
0.5555555555555556
 40
0.5555555555555556
 40
0.6666666666666666
 40
0.6666666666666666
 40
0.6666666666666666
 40
0.6666666666666666
 40
0.7777777777777778
 40
0.7777777777777778
 40
0.7777777777777778
 40
0.7777777777777778
 40
1.0
 40
1.0
 40
1.0
 40
1.0
 10
11.2241
 20
-10.1539
 30
0.0
 10
11.3196
 20
-10.1539
 30
0.0
 10
11.3977
 20
-10.1229
 30
0.0
 10
11.4583
 20
-10.0618
 30
0.0
 10
11.4583
 20
-10.0618
 30
0.0
 10
11.5191
 20
-10.0001
 30
0.0
 10
11.5496
 20
-9.9201
 30
0.0
 10
11.5496
 20
-9.8218
 30
0.0
 10
11.5496
 20
-9.8218
 30
0.0
 10
11.5496
 20
-9.7263
 30
0.0
 10
11.5195
 20
-9.6478
 30
0.0
 10
11.4593
 20
-9.5866
 30
0.0
 10
11.4593
 20
-9.5866
 30
0.0
 10
11.399
 20
-9.5255
 30
0.0
 10
11.3253
 20
-9.4954
 30
0.0
 10
11.2383
 20
-9.4954
 30
0.0
 10
11.2383
 20
-9.4954
 30
0.0
 10
11.147
 20
-9.4954
 30
0.0
 10
11.0707
 20
-9.5264
 30
0.0
 10
11.0087
 20
-9.5894
 30
0.0
 10
11.0087
 20
-9.5894
 30
0.0
 10
10.9466
 20
-9.6525
 30
0.0
 10
10.9155
 20
-9.7306
 30
0.0
 10
10.9155
 20
-9.8246
 30
0.0
 10
10.9155
 20
-9.8246
 30
0.0
 10
10.9155
 20
-9.9192
 30
0.0
 10
10.9462
 20
-9.9977
 30
0.0
 10
11.0063
 20
-10.0603
 30
0.0
 10
11.0063
 20
-10.0603
 30
0.0
 10
11.067
 20
-10.1229
 30
0.0
 10
11.14
 20
-10.1539
 30
0.0
 10
11.2241
 20
-10.1539
 30
0.0
  0
SPLINE
  5
11E
330
1F
100
AcDbEntity
  8
DEFAULT_1
 62
   250
100
AcDbSpline
210
0.0
220
0.0
230
1.0
 70
    11
 71
     3
 72
    40
 73
    36
 74
     0
 42
0.0000000001
 43
0.0000000001
 40
0.0
 40
0.0
 40
0.0
 40
0.0
 40
0.1
 40
0.1
 40
0.1
 40
0.1
 40
0.2
 40
0.2
 40
0.2
 40
0.2
 40
0.3
 40
0.3
 40
0.3
 40
0.3
 40
0.4
 40
0.4
 40
0.4
 40
0.4
 40
0.5
 40
0.5
 40
0.5
 40
0.5
 40
0.6
 40
0.6
 40
0.6
 40
0.6
 40
0.7
 40
0.7
 40
0.7
 40
0.7
 40
0.8
 40
0.8
 40
0.8
 40
0.8
 40
1.0
 40
1.0
 40
1.0
 40
1.0
 10
12.1573
 20
-10.2338
 30
0.0
 10
12.2278
 20
-10.2338
 30
0.0
 10
12.2965
 20
-10.217
 30
0.0
 10
12.3624
 20
-10.1835
 30
0.0
 10
12.3624
 20
-10.1835
 30
0.0
 10
12.4288
 20
-10.1501
 30
0.0
 10
12.48
 20
-10.1002
 30
0.0
 10
12.5162
 20
-10.0339
 30
0.0
 10
12.5162
 20
-10.0339
 30
0.0
 10
12.5524
 20
-9.9676
 30
0.0
 10
12.5707
 20
-9.8966
 30
0.0
 10
12.5707
 20
-9.8204
 30
0.0
 10
12.5707
 20
-9.8204
 30
0.0
 10
12.5707
 20
-9.7019
 30
0.0
 10
12.5326
 20
-9.604
 30
0.0
 10
12.456
 20
-9.5269
 30
0.0
 10
12.456
 20
-9.5269
 30
0.0
 10
12.3798
 20
-9.4497
 30
0.0
 10
12.2829
 20
-9.4112
 30
0.0
 10
12.1653
 20
-9.4112
 30
0.0
 10
12.1653
 20
-9.4112
 30
0.0
 10
12.0458
 20
-9.4112
 30
0.0
 10
11.947
 20
-9.4507
 30
0.0
 10
11.869
 20
-9.5302
 30
0.0
 10
11.869
 20
-9.5302
 30
0.0
 10
11.7909
 20
-9.6097
 30
0.0
 10
11.7519
 20
-9.7094
 30
0.0
 10
11.7519
 20
-9.8288
 30
0.0
 10
11.7519
 20
-9.8288
 30
0.0
 10
11.7519
 20
-9.9456
 30
0.0
 10
11.7905
 20
-10.042
 30
0.0
 10
11.8676
 20
-10.1187
 30
0.0
 10
11.8676
 20
-10.1187
 30
0.0
 10
11.9452
 20
-10.1953
 30
0.0
 10
12.0416
 20
-10.2338
 30
0.0
 10
12.1573
 20
-10.2338
 30
0.0
  0
SPLINE
  5
11F
330
1F
100
AcDbEntity
  8
DEFAULT_1
 62
   250
100
AcDbSpline
210
0.0
220
0.0
230
1.0
 70
    11
 71
     3
 72
    52
 73
    48
 74
     0
 42
0.0000000001
 43
0.0000000001
 40
0.0
 40
0.0
 40
0.0
 40
0.0
 40
0.0769230769230769
 40
0.0769230769230769
 40
0.0769230769230769
 40
0.0769230769230769
 40
0.1538461538461539
 40
0.1538461538461539
 40
0.1538461538461539
 40
0.1538461538461539
 40
0.2307692307692308
 40
0.2307692307692308
 40
0.2307692307692308
 40
0.2307692307692308
 40
0.3076923076923077
 40
0.3076923076923077
 40
0.3076923076923077
 40
0.3076923076923077
 40
0.3846153846153846
 40
0.3846153846153846
 40
0.3846153846153846
 40
0.3846153846153846
 40
0.4615384615384616
 40
0.4615384615384616
 40
0.4615384615384616
 40
0.4615384615384616
 40
0.5384615384615384
 40
0.5384615384615384
 40
0.5384615384615384
 40
0.5384615384615384
 40
0.6153846153846154
 40
0.6153846153846154
 40
0.6153846153846154
 40
0.6153846153846154
 40
0.6923076923076923
 40
0.6923076923076923
 40
0.6923076923076923
 40
0.6923076923076923
 40
0.7692307692307693
 40
0.7692307692307693
 40
0.7692307692307693
 40
0.7692307692307693
 40
0.8461538461538461
 40
0.8461538461538461
 40
0.8461538461538461
 40
0.8461538461538461
 40
1.0
 40
1.0
 40
1.0
 40
1.0
 10
11.7439
 20
-8.9164
 30
0.0
 10
11.5049
 20
-8.9164
 30
0.0
 10
11.3125
 20
-8.892
 30
0.0
 10
11.1672
 20
-8.8425
 30
0.0
 10
11.1672
 20
-8.8425
 30
0.0
 10
11.0214
 20
-8.7937
 30
0.0
 10
10.909
 20
-8.7202
 30
0.0
 10
10.83
 20
-8.6234
 30
0.0
 10
10.83
 20
-8.6234
 30
0.0
 10
10.7509
 20
-8.5265
 30
0.0
 10
10.7114
 20
-8.4046
 30
0.0
 10
10.7114
 20
-8.2579
 30
0.0
 10
10.7114
 20
-8.2579
 30
0.0
 10
10.7114
 20
-8.1493
 30
0.0
 10
10.7335
 20
-8.0542
 30
0.0
 10
10.7773
 20
-7.9723
 30
0.0
 10
10.7773
 20
-7.9723
 30
0.0
 10
10.8206
 20
-7.8905
 30
0.0
 10
10.8836
 20
-7.8232
 30
0.0
 10
10.9659
 20
-7.7696
 30
0.0
 10
10.9659
 20
-7.7696
 30
0.0
 10
11.0482
 20
-7.7165
 30
0.0
 10
11.1483
 20
-7.6747
 30
0.0
 10
11.2664
 20
-7.6445
 30
0.0
 10
11.2664
 20
-7.6445
 30
0.0
 10
11.3845
 20
-7.6139
 30
0.0
 10
11.5435
 20
-7.5989
 30
0.0
 10
11.7439
 20
-7.5989
 30
0.0
 10
11.7439
 20
-7.5989
 30
0.0
 10
11.981
 20
-7.5989
 30
0.0
 10
12.1719
 20
-7.6233
 30
0.0
 10
12.3177
 20
-7.6718
 30
0.0
 10
12.3177
 20
-7.6718
 30
0.0
 10
12.4635
 20
-7.7207
 30
0.0
 10
12.5759
 20
-7.7936
 30
0.0
 10
12.6555
 20
-7.8905
 30
0.0
 10
12.6555
 20
-7.8905
 30
0.0
 10
12.7349
 20
-7.9874
 30
0.0
 10
12.7745
 20
-8.1097
 30
0.0
 10
12.7745
 20
-8.2579
 30
0.0
 10
12.7745
 20
-8.2579
 30
0.0
 10
12.7745
 20
-8.4526
 30
0.0
 10
12.7048
 20
-8.6055
 30
0.0
 10
12.5651
 20
-8.7165
 30
0.0
 10
12.5651
 20
-8.7165
 30
0.0
 10
12.3972
 20
-8.8496
 30
0.0
 10
12.123
 20
-8.9164
 30
0.0
 10
11.7439
 20
-8.9164
 30
0.0
  0
SPLINE
  5
120
330
1F
100
AcDbEntity
  8
DEFAULT_1
 62
   250
100
AcDbSpline
210
0.0
220
0.0
230
1.0
 70
    11
 71
     3
 72
    36
 73
    32
 74
     0
 42
0.0000000001
 43
0.0000000001
 40
0.0
 40
0.0
 40
0.0
 40
0.0
 40
0.1111111111111111
 40
0.1111111111111111
 40
0.1111111111111111
 40
0.1111111111111111
 40
0.2222222222222222
 40
0.2222222222222222
 40
0.2222222222222222
 40
0.2222222222222222
 40
0.3333333333333333
 40
0.3333333333333333
 40
0.3333333333333333
 40
0.3333333333333333
 40
0.4444444444444444
 40
0.4444444444444444
 40
0.4444444444444444
 40
0.4444444444444444
 40
0.5555555555555556
 40
0.5555555555555556
 40
0.5555555555555556
 40
0.5555555555555556
 40
0.6666666666666666
 40
0.6666666666666666
 40
0.6666666666666666
 40
0.6666666666666666
 40
0.7777777777777778
 40
0.7777777777777778
 40
0.7777777777777778
 40
0.7777777777777778
 40
1.0
 40
1.0
 40
1.0
 40
1.0
 10
11.7439
 20
-8.6614
 30
0.0
 10
12.0755
 20
-8.6614
 30
0.0
 10
12.2961
 20
-8.6224
 30
0.0
 10
12.4061
 20
-8.5448
 30
0.0
 10
12.4061
 20
-8.5448
 30
0.0
 10
12.5158
 20
-8.4672
 30
0.0
 10
12.5707
 20
-8.3717
 30
0.0
 10
12.5707
 20
-8.2579
 30
0.0
 10
12.5707
 20
-8.2579
 30
0.0
 10
12.5707
 20
-8.1436
 30
0.0
 10
12.5153
 20
-8.0481
 30
0.0
 10
12.4052
 20
-7.9705
 30
0.0
 10
12.4052
 20
-7.9705
 30
0.0
 10
12.2951
 20
-7.8929
 30
0.0
 10
12.0745
 20
-7.8539
 30
0.0
 10
11.7439
 20
-7.8539
 30
0.0
 10
11.7439
 20
-7.8539
 30
0.0
 10
11.4114
 20
-7.8539
 30
0.0
 10
11.1902
 20
-7.8929
 30
0.0
 10
11.0811
 20
-7.9705
 30
0.0
 10
11.0811
 20
-7.9705
 30
0.0
 10
10.9715
 20
-8.0481
 30
0.0
 10
10.917
 20
-8.1445
 30
0.0
 10
10.917
 20
-8.2602
 30
0.0
 10
10.917
 20
-8.2602
 30
0.0
 10
10.917
 20
-8.3745
 30
0.0
 10
10.9654
 20
-8.4653
 30
0.0
 10
11.0618
 20
-8.5335
 30
0.0
 10
11.0618
 20
-8.5335
 30
0.0
 10
11.1846
 20
-8.6187
 30
0.0
 10
11.4123
 20
-8.6614
 30
0.0
 10
11.7439
 20
-8.6614
 30
0.0
  0
SPLINE
  5
121
330
1F
100
AcDbEntity
  8
DEFAULT_1
 62
   250
100
AcDbSpline
210
0.0
220
0.0
230
1.0
 70
    11
 71
     3
 72
    84
 73
    80
 74
     0
 42
0.0000000001
 43
0.0000000001
 40
0.0
 40
0.0
 40
0.0
 40
0.0
 40
0.0476190476190476
 40
0.0476190476190476
 40
0.0476190476190476
 40
0.0476190476190476
 40
0.0952380952380952
 40
0.0952380952380952
 40
0.0952380952380952
 40
0.0952380952380952
 40
0.1428571428571428
 40
0.1428571428571428
 40
0.1428571428571428
 40
0.1428571428571428
 40
0.1904761904761905
 40
0.1904761904761905
 40
0.1904761904761905
 40
0.1904761904761905
 40
0.2380952380952381
 40
0.2380952380952381
 40
0.2380952380952381
 40
0.2380952380952381
 40
0.2857142857142857
 40
0.2857142857142857
 40
0.2857142857142857
 40
0.2857142857142857
 40
0.3333333333333333
 40
0.3333333333333333
 40
0.3333333333333333
 40
0.3333333333333333
 40
0.3809523809523809
 40
0.3809523809523809
 40
0.3809523809523809
 40
0.3809523809523809
 40
0.4285714285714285
 40
0.4285714285714285
 40
0.4285714285714285
 40
0.4285714285714285
 40
0.4761904761904762
 40
0.4761904761904762
 40
0.4761904761904762
 40
0.4761904761904762
 40
0.5238095238095238
 40
0.5238095238095238
 40
0.5238095238095238
 40
0.5238095238095238
 40
0.5714285714285714
 40
0.5714285714285714
 40
0.5714285714285714
 40
0.5714285714285714
 40
0.6190476190476191
 40
0.6190476190476191
 40
0.6190476190476191
 40
0.6190476190476191
 40
0.6666666666666666
 40
0.6666666666666666
 40
0.6666666666666666
 40
0.6666666666666666
 40
0.7142857142857143
 40
0.7142857142857143
 40
0.7142857142857143
 40
0.7142857142857143
 40
0.7619047619047619
 40
0.7619047619047619
 40
0.7619047619047619
 40
0.7619047619047619
 40
0.8095238095238095
 40
0.8095238095238095
 40
0.8095238095238095
 40
0.8095238095238095
 40
0.8571428571428571
 40
0.8571428571428571
 40
0.8571428571428571
 40
0.8571428571428571
 40
0.9047619047619048
 40
0.9047619047619048
 40
0.9047619047619048
 40
0.9047619047619048
 40
1.0
 40
1.0
 40
1.0
 40
1.0
 10
3.7978
 20
-27.0859
 30
0.0
 10
3.7978
 20
-27.0859
 30
0.0
 10
4.0293
 20
-26.8267
 30
0.0
 10
4.0293
 20
-26.8267
 30
0.0
 10
4.0293
 20
-26.8267
 30
0.0
 10
4.0293
 20
-26.8267
 30
0.0
 10
4.1657
 20
-26.9424
 30
0.0
 10
4.1657
 20
-26.9424
 30
0.0
 10
4.1657
 20
-26.9424
 30
0.0
 10
4.1657
 20
-26.9424
 30
0.0
 10
3.9234
 20
-27.2152
 30
0.0
 10
3.9234
 20
-27.2152
 30
0.0
 10
3.9234
 20
-27.2152
 30
0.0
 10
4.0025
 20
-27.3328
 30
0.0
 10
4.0557
 20
-27.4358
 30
0.0
 10
4.0834
 20
-27.5238
 30
0.0
 10
4.0834
 20
-27.5238
 30
0.0
 10
4.12
 20
-27.6394
 30
0.0
 10
4.1385
 20
-27.7693
 30
0.0
 10
4.1385
 20
-27.9123
 30
0.0
 10
4.1385
 20
-27.9123
 30
0.0
 10
4.1385
 20
-28.1192
 30
0.0
 10
4.0965
 20
-28.3036
 30
0.0
 10
4.0128
 20
-28.4649
 30
0.0
 10
4.0128
 20
-28.4649
 30
0.0
 10
3.9291
 20
-28.6267
 30
0.0
 10
3.812
 20
-28.749
 30
0.0
 10
3.661
 20
-28.8318
 30
0.0
 10
3.661
 20
-28.8318
 30
0.0
 10
3.5096
 20
-28.9142
 30
0.0
 10
3.3492
 20
-28.9556
 30
0.0
 10
3.1793
 20
-28.9556
 30
0.0
 10
3.1793
 20
-28.9556
 30
0.0
 10
3.0523
 20
-28.9556
 30
0.0
 10
2.9376
 20
-28.9377
 30
0.0
 10
2.8345
 20
-28.902
 30
0.0
 10
2.8345
 20
-28.902
 30
0.0
 10
2.7555
 20
-28.8741
 30
0.0
 10
2.6633
 20
-28.8215
 30
0.0
 10
2.5576
 20
-28.7434
 30
0.0
 10
2.5576
 20
-28.7434
 30
0.0
 10
2.5576
 20
-28.7434
 30
0.0
 10
2.3261
 20
-29.0025
 30
0.0
 10
2.3261
 20
-29.0025
 30
0.0
 10
2.3261
 20
-29.0025
 30
0.0
 10
2.3261
 20
-29.0025
 30
0.0
 10
2.1897
 20
-28.8868
 30
0.0
 10
2.1897
 20
-28.8868
 30
0.0
 10
2.1897
 20
-28.8868
 30
0.0
 10
2.1897
 20
-28.8868
 30
0.0
 10
2.4324
 20
-28.6155
 30
0.0
 10
2.4324
 20
-28.6155
 30
0.0
 10
2.4324
 20
-28.6155
 30
0.0
 10
2.3421
 20
-28.4786
 30
0.0
 10
2.2819
 20
-28.3614
 30
0.0
 10
2.2518
 20
-28.2646
 30
0.0
 10
2.2518
 20
-28.2646
 30
0.0
 10
2.2217
 20
-28.1676
 30
0.0
 10
2.2062
 20
-28.051
 30
0.0
 10
2.2062
 20
-27.9151
 30
0.0
 10
2.2062
 20
-27.9151
 30
0.0
 10
2.2062
 20
-27.7076
 30
0.0
 10
2.2476
 20
-27.5228
 30
0.0
 10
2.3303
 20
-27.3605
 30
0.0
 10
2.3303
 20
-27.3605
 30
0.0
 10
2.4131
 20
-27.1982
 30
0.0
 10
2.5288
 20
-27.0755
 30
0.0
 10
2.6784
 20
-26.9917
 30
0.0
 10
2.6784
 20
-26.9917
 30
0.0
 10
2.8275
 20
-26.9085
 30
0.0
 10
2.9936
 20
-26.8666
 30
0.0
 10
3.1765
 20
-26.8666
 30
0.0
 10
3.1765
 20
-26.8666
 30
0.0
 10
3.2997
 20
-26.8666
 30
0.0
 10
3.4075
 20
-26.8827
 30
0.0
 10
3.4996
 20
-26.9156
 30
0.0
 10
3.4996
 20
-26.9156
 30
0.0
 10
3.5918
 20
-26.9481
 30
0.0
 10
3.6916
 20
-27.005
 30
0.0
 10
3.7978
 20
-27.0859
 30
0.0
  0
SPLINE
  5
122
330
1F
100
AcDbEntity
  8
DEFAULT_1
 62
   250
100
AcDbSpline
210
0.0
220
0.0
230
1.0
 70
    11
 71
     3
 72
    32
 73
    28
 74
     0
 42
0.0000000001
 43
0.0000000001
 40
0.0
 40
0.0
 40
0.0
 40
0.0
 40
0.125
 40
0.125
 40
0.125
 40
0.125
 40
0.25
 40
0.25
 40
0.25
 40
0.25
 40
0.375
 40
0.375
 40
0.375
 40
0.375
 40
0.5
 40
0.5
 40
0.5
 40
0.5
 40
0.625
 40
0.625
 40
0.625
 40
0.625
 40
0.75
 40
0.75
 40
0.75
 40
0.75
 40
1.0
 40
1.0
 40
1.0
 40
1.0
 10
3.6328
 20
-27.2716
 30
0.0
 10
3.5462
 20
-27.2039
 30
0.0
 10
3.4705
 20
-27.1574
 30
0.0
 10
3.4061
 20
-27.1324
 30
0.0
 10
3.4061
 20
-27.1324
 30
0.0
 10
3.3411
 20
-27.1079
 30
0.0
 10
3.265
 20
-27.0952
 30
0.0
 10
3.178
 20
-27.0952
 30
0.0
 10
3.178
 20
-27.0952
 30
0.0
 10
2.9766
 20
-27.0952
 30
0.0
 10
2.8105
 20
-27.1635
 30
0.0
 10
2.6789
 20
-27.2999
 30
0.0
 10
2.6789
 20
-27.2999
 30
0.0
 10
2.5476
 20
-27.4362
 30
0.0
 10
2.4818
 20
-27.64
 30
0.0
 10
2.4818
 20
-27.9113
 30
0.0
 10
2.4818
 20
-27.9113
 30
0.0
 10
2.4818
 20
-28.0176
 30
0.0
 10
2.4922
 20
-28.1122
 30
0.0
 10
2.5123
 20
-28.195
 30
0.0
 10
2.5123
 20
-28.195
 30
0.0
 10
2.5269
 20
-28.2566
 30
0.0
 10
2.5576
 20
-28.3323
 30
0.0
 10
2.6045
 20
-28.4222
 30
0.0
 10
2.6045
 20
-28.4222
 30
0.0
 10
2.6045
 20
-28.4222
 30
0.0
 10
3.6328
 20
-27.2716
 30
0.0
 10
3.6328
 20
-27.2716
 30
0.0
  0
SPLINE
  5
123
330
1F
100
AcDbEntity
  8
DEFAULT_1
 62
   250
100
AcDbSpline
210
0.0
220
0.0
230
1.0
 70
    11
 71
     3
 72
    28
 73
    24
 74
     0
 42
0.0000000001
 43
0.0000000001
 40
0.0
 40
0.0
 40
0.0
 40
0.0
 40
0.1428571428571428
 40
0.1428571428571428
 40
0.1428571428571428
 40
0.1428571428571428
 40
0.2857142857142857
 40
0.2857142857142857
 40
0.2857142857142857
 40
0.2857142857142857
 40
0.4285714285714285
 40
0.4285714285714285
 40
0.4285714285714285
 40
0.4285714285714285
 40
0.5714285714285714
 40
0.5714285714285714
 40
0.5714285714285714
 40
0.5714285714285714
 40
0.7142857142857143
 40
0.7142857142857143
 40
0.7142857142857143
 40
0.7142857142857143
 40
1.0
 40
1.0
 40
1.0
 40
1.0
 10
3.7457
 20
-27.4137
 30
0.0
 10
3.7457
 20
-27.4137
 30
0.0
 10
2.7217
 20
-28.56
 30
0.0
 10
2.7217
 20
-28.56
 30
0.0
 10
2.7217
 20
-28.56
 30
0.0
 10
2.7922
 20
-28.6178
 30
0.0
 10
2.8576
 20
-28.6583
 30
0.0
 10
2.9173
 20
-28.6814
 30
0.0
 10
2.9173
 20
-28.6814
 30
0.0
 10
2.9954
 20
-28.7119
 30
0.0
 10
3.0801
 20
-28.7269
 30
0.0
 10
3.1709
 20
-28.7269
 30
0.0
 10
3.1709
 20
-28.7269
 30
0.0
 10
3.3712
 20
-28.7269
 30
0.0
 10
3.5364
 20
-28.6564
 30
0.0
 10
3.6672
 20
-28.5148
 30
0.0
 10
3.6672
 20
-28.5148
 30
0.0
 10
3.7974
 20
-28.3732
 30
0.0
 10
3.8628
 20
-28.1748
 30
0.0
 10
3.8628
 20
-27.9193
 30
0.0
 10
3.8628
 20
-27.9193
 30
0.0
 10
3.8628
 20
-27.7283
 30
0.0
 10
3.8237
 20
-27.5595
 30
0.0
 10
3.7457
 20
-27.4137
 30
0.0
  0
SPLINE
  5
124
330
1F
100
AcDbEntity
  8
DEFAULT_1
 62
   250
100
AcDbSpline
210
0.0
220
0.0
230
1.0
 70
    11
 71
     3
 72
    48
 73
    44
 74
     0
 42
0.0000000001
 43
0.0000000001
 40
0.0
 40
0.0
 40
0.0
 40
0.0
 40
0.0833333333333333
 40
0.0833333333333333
 40
0.0833333333333333
 40
0.0833333333333333
 40
0.1666666666666667
 40
0.1666666666666667
 40
0.1666666666666667
 40
0.1666666666666667
 40
0.25
 40
0.25
 40
0.25
 40
0.25
 40
0.3333333333333333
 40
0.3333333333333333
 40
0.3333333333333333
 40
0.3333333333333333
 40
0.4166666666666667
 40
0.4166666666666667
 40
0.4166666666666667
 40
0.4166666666666667
 40
0.5
 40
0.5
 40
0.5
 40
0.5
 40
0.5833333333333334
 40
0.5833333333333334
 40
0.5833333333333334
 40
0.5833333333333334
 40
0.6666666666666666
 40
0.6666666666666666
 40
0.6666666666666666
 40
0.6666666666666666
 40
0.75
 40
0.75
 40
0.75
 40
0.75
 40
0.8333333333333334
 40
0.8333333333333334
 40
0.8333333333333334
 40
0.8333333333333334
 40
1.0
 40
1.0
 40
1.0
 40
1.0
 10
5.1827
 20
-28.9212
 30
0.0
 10
5.1827
 20
-28.9212
 30
0.0
 10
5.1827
 20
-28.4377
 30
0.0
 10
5.1827
 20
-28.4377
 30
0.0
 10
5.1827
 20
-28.4377
 30
0.0
 10
5.1827
 20
-28.4377
 30
0.0
 10
4.3064
 20
-28.4377
 30
0.0
 10
4.3064
 20
-28.4377
 30
0.0
 10
4.3064
 20
-28.4377
 30
0.0
 10
4.3064
 20
-28.4377
 30
0.0
 10
4.3064
 20
-28.21
 30
0.0
 10
4.3064
 20
-28.21
 30
0.0
 10
4.3064
 20
-28.21
 30
0.0
 10
4.3064
 20
-28.21
 30
0.0
 10
5.2283
 20
-26.901
 30
0.0
 10
5.2283
 20
-26.901
 30
0.0
 10
5.2283
 20
-26.901
 30
0.0
 10
5.2283
 20
-26.901
 30
0.0
 10
5.431
 20
-26.901
 30
0.0
 10
5.431
 20
-26.901
 30
0.0
 10
5.431
 20
-26.901
 30
0.0
 10
5.431
 20
-26.901
 30
0.0
 10
5.431
 20
-28.21
 30
0.0
 10
5.431
 20
-28.21
 30
0.0
 10
5.431
 20
-28.21
 30
0.0
 10
5.431
 20
-28.21
 30
0.0
 10
5.7038
 20
-28.21
 30
0.0
 10
5.7038
 20
-28.21
 30
0.0
 10
5.7038
 20
-28.21
 30
0.0
 10
5.7038
 20
-28.21
 30
0.0
 10
5.7038
 20
-28.4377
 30
0.0
 10
5.7038
 20
-28.4377
 30
0.0
 10
5.7038
 20
-28.4377
 30
0.0
 10
5.7038
 20
-28.4377
 30
0.0
 10
5.431
 20
-28.4377
 30
0.0
 10
5.431
 20
-28.4377
 30
0.0
 10
5.431
 20
-28.4377
 30
0.0
 10
5.431
 20
-28.4377
 30
0.0
 10
5.431
 20
-28.9212
 30
0.0
 10
5.431
 20
-28.9212
 30
0.0
 10
5.431
 20
-28.9212
 30
0.0
 10
5.431
 20
-28.9212
 30
0.0
 10
5.1827
 20
-28.9212
 30
0.0
 10
5.1827
 20
-28.9212
 30
0.0
  0
SPLINE
  5
125
330
1F
100
AcDbEntity
  8
DEFAULT_1
 62
   250
100
AcDbSpline
210
0.0
220
0.0
230
1.0
 70
    11
 71
     3
 72
    16
 73
    12
 74
     0
 42
0.0000000001
 43
0.0000000001
 40
0.0
 40
0.0
 40
0.0
 40
0.0
 40
0.25
 40
0.25
 40
0.25
 40
0.25
 40
0.5
 40
0.5
 40
0.5
 40
0.5
 40
1.0
 40
1.0
 40
1.0
 40
1.0
 10
5.1827
 20
-28.21
 30
0.0
 10
5.1827
 20
-28.21
 30
0.0
 10
5.1827
 20
-27.2993
 30
0.0
 10
5.1827
 20
-27.2993
 30
0.0
 10
5.1827
 20
-27.2993
 30
0.0
 10
5.1827
 20
-27.2993
 30
0.0
 10
4.5505
 20
-28.21
 30
0.0
 10
4.5505
 20
-28.21
 30
0.0
 10
4.5505
 20
-28.21
 30
0.0
 10
4.5505
 20
-28.21
 30
0.0
 10
5.1827
 20
-28.21
 30
0.0
 10
5.1827
 20
-28.21
 30
0.0
  0
SPLINE
  5
126
330
1F
100
AcDbEntity
  8
DEFAULT_1
 62
   250
100
AcDbSpline
210
0.0
220
0.0
230
1.0
 70
    11
 71
     3
 72
    52
 73
    48
 74
     0
 42
0.0000000001
 43
0.0000000001
 40
0.0
 40
0.0
 40
0.0
 40
0.0
 40
0.0769230769230769
 40
0.0769230769230769
 40
0.0769230769230769
 40
0.0769230769230769
 40
0.1538461538461539
 40
0.1538461538461539
 40
0.1538461538461539
 40
0.1538461538461539
 40
0.2307692307692308
 40
0.2307692307692308
 40
0.2307692307692308
 40
0.2307692307692308
 40
0.3076923076923077
 40
0.3076923076923077
 40
0.3076923076923077
 40
0.3076923076923077
 40
0.3846153846153846
 40
0.3846153846153846
 40
0.3846153846153846
 40
0.3846153846153846
 40
0.4615384615384616
 40
0.4615384615384616
 40
0.4615384615384616
 40
0.4615384615384616
 40
0.5384615384615384
 40
0.5384615384615384
 40
0.5384615384615384
 40
0.5384615384615384
 40
0.6153846153846154
 40
0.6153846153846154
 40
0.6153846153846154
 40
0.6153846153846154
 40
0.6923076923076923
 40
0.6923076923076923
 40
0.6923076923076923
 40
0.6923076923076923
 40
0.7692307692307693
 40
0.7692307692307693
 40
0.7692307692307693
 40
0.7692307692307693
 40
0.8461538461538461
 40
0.8461538461538461
 40
0.8461538461538461
 40
0.8461538461538461
 40
1.0
 40
1.0
 40
1.0
 40
1.0
 10
5.9573
 20
-27.925
 30
0.0
 10
5.9573
 20
-27.686
 30
0.0
 10
5.9817
 20
-27.4936
 30
0.0
 10
6.0312
 20
-27.3483
 30
0.0
 10
6.0312
 20
-27.3483
 30
0.0
 10
6.0801
 20
-27.2025
 30
0.0
 10
6.1535
 20
-27.0901
 30
0.0
 10
6.2503
 20
-27.0111
 30
0.0
 10
6.2503
 20
-27.0111
 30
0.0
 10
6.3473
 20
-26.932
 30
0.0
 10
6.4691
 20
-26.8925
 30
0.0
 10
6.6158
 20
-26.8925
 30
0.0
 10
6.6158
 20
-26.8925
 30
0.0
 10
6.7245
 20
-26.8925
 30
0.0
 10
6.8195
 20
-26.9146
 30
0.0
 10
6.9014
 20
-26.9584
 30
0.0
 10
6.9014
 20
-26.9584
 30
0.0
 10
6.9832
 20
-27.0017
 30
0.0
 10
7.0505
 20
-27.0647
 30
0.0
 10
7.1041
 20
-27.147
 30
0.0
 10
7.1041
 20
-27.147
 30
0.0
 10
7.1572
 20
-27.2293
 30
0.0
 10
7.199
 20
-27.3294
 30
0.0
 10
7.2292
 20
-27.4475
 30
0.0
 10
7.2292
 20
-27.4475
 30
0.0
 10
7.2598
 20
-27.5656
 30
0.0
 10
7.2748
 20
-27.7246
 30
0.0
 10
7.2748
 20
-27.925
 30
0.0
 10
7.2748
 20
-27.925
 30
0.0
 10
7.2748
 20
-28.1621
 30
0.0
 10
7.2504
 20
-28.353
 30
0.0
 10
7.2019
 20
-28.4988
 30
0.0
 10
7.2019
 20
-28.4988
 30
0.0
 10
7.153
 20
-28.6446
 30
0.0
 10
7.0801
 20
-28.757
 30
0.0
 10
6.9832
 20
-28.8366
 30
0.0
 10
6.9832
 20
-28.8366
 30
0.0
 10
6.8863
 20
-28.916
 30
0.0
 10
6.764
 20
-28.9556
 30
0.0
 10
6.6158
 20
-28.9556
 30
0.0
 10
6.6158
 20
-28.9556
 30
0.0
 10
6.4211
 20
-28.9556
 30
0.0
 10
6.2682
 20
-28.8859
 30
0.0
 10
6.1572
 20
-28.7462
 30
0.0
 10
6.1572
 20
-28.7462
 30
0.0
 10
6.0242
 20
-28.5783
 30
0.0
 10
5.9573
 20
-28.3041
 30
0.0
 10
5.9573
 20
-27.925
 30
0.0
  0
SPLINE
  5
127
330
1F
100
AcDbEntity
  8
DEFAULT_1
 62
   250
100
AcDbSpline
210
0.0
220
0.0
230
1.0
 70
    11
 71
     3
 72
    36
 73
    32
 74
     0
 42
0.0000000001
 43
0.0000000001
 40
0.0
 40
0.0
 40
0.0
 40
0.0
 40
0.1111111111111111
 40
0.1111111111111111
 40
0.1111111111111111
 40
0.1111111111111111
 40
0.2222222222222222
 40
0.2222222222222222
 40
0.2222222222222222
 40
0.2222222222222222
 40
0.3333333333333333
 40
0.3333333333333333
 40
0.3333333333333333
 40
0.3333333333333333
 40
0.4444444444444444
 40
0.4444444444444444
 40
0.4444444444444444
 40
0.4444444444444444
 40
0.5555555555555556
 40
0.5555555555555556
 40
0.5555555555555556
 40
0.5555555555555556
 40
0.6666666666666666
 40
0.6666666666666666
 40
0.6666666666666666
 40
0.6666666666666666
 40
0.7777777777777778
 40
0.7777777777777778
 40
0.7777777777777778
 40
0.7777777777777778
 40
1.0
 40
1.0
 40
1.0
 40
1.0
 10
6.2123
 20
-27.925
 30
0.0
 10
6.2123
 20
-28.2566
 30
0.0
 10
6.2513
 20
-28.4772
 30
0.0
 10
6.3289
 20
-28.5872
 30
0.0
 10
6.3289
 20
-28.5872
 30
0.0
 10
6.4065
 20
-28.6969
 30
0.0
 10
6.502
 20
-28.7518
 30
0.0
 10
6.6158
 20
-28.7518
 30
0.0
 10
6.6158
 20
-28.7518
 30
0.0
 10
6.7301
 20
-28.7518
 30
0.0
 10
6.8256
 20
-28.6964
 30
0.0
 10
6.9032
 20
-28.5863
 30
0.0
 10
6.9032
 20
-28.5863
 30
0.0
 10
6.9808
 20
-28.4762
 30
0.0
 10
7.0198
 20
-28.2556
 30
0.0
 10
7.0198
 20
-27.925
 30
0.0
 10
7.0198
 20
-27.925
 30
0.0
 10
7.0198
 20
-27.5925
 30
0.0
 10
6.9808
 20
-27.3713
 30
0.0
 10
6.9032
 20
-27.2622
 30
0.0
 10
6.9032
 20
-27.2622
 30
0.0
 10
6.8256
 20
-27.1526
 30
0.0
 10
6.7292
 20
-27.0981
 30
0.0
 10
6.6135
 20
-27.0981
 30
0.0
 10
6.6135
 20
-27.0981
 30
0.0
 10
6.4992
 20
-27.0981
 30
0.0
 10
6.4084
 20
-27.1465
 30
0.0
 10
6.3402
 20
-27.2429
 30
0.0
 10
6.3402
 20
-27.2429
 30
0.0
 10
6.2551
 20
-27.3657
 30
0.0
 10
6.2123
 20
-27.5934
 30
0.0
 10
6.2123
 20
-27.925
 30
0.0
  0
SPLINE
  5
128
330
1F
100
AcDbEntity
  8
DEFAULT_1
 62
   250
100
AcDbSpline
210
0.0
220
0.0
230
1.0
 70
    11
 71
     3
 72
    92
 73
    88
 74
     0
 42
0.0000000001
 43
0.0000000001
 40
0.0
 40
0.0
 40
0.0
 40
0.0
 40
0.0434782608695652
 40
0.0434782608695652
 40
0.0434782608695652
 40
0.0434782608695652
 40
0.0869565217391304
 40
0.0869565217391304
 40
0.0869565217391304
 40
0.0869565217391304
 40
0.1304347826086956
 40
0.1304347826086956
 40
0.1304347826086956
 40
0.1304347826086956
 40
0.1739130434782609
 40
0.1739130434782609
 40
0.1739130434782609
 40
0.1739130434782609
 40
0.2173913043478261
 40
0.2173913043478261
 40
0.2173913043478261
 40
0.2173913043478261
 40
0.2608695652173913
 40
0.2608695652173913
 40
0.2608695652173913
 40
0.2608695652173913
 40
0.3043478260869565
 40
0.3043478260869565
 40
0.3043478260869565
 40
0.3043478260869565
 40
0.3478260869565217
 40
0.3478260869565217
 40
0.3478260869565217
 40
0.3478260869565217
 40
0.391304347826087
 40
0.391304347826087
 40
0.391304347826087
 40
0.391304347826087
 40
0.4347826086956522
 40
0.4347826086956522
 40
0.4347826086956522
 40
0.4347826086956522
 40
0.4782608695652174
 40
0.4782608695652174
 40
0.4782608695652174
 40
0.4782608695652174
 40
0.5217391304347826
 40
0.5217391304347826
 40
0.5217391304347826
 40
0.5217391304347826
 40
0.5652173913043478
 40
0.5652173913043478
 40
0.5652173913043478
 40
0.5652173913043478
 40
0.6086956521739131
 40
0.6086956521739131
 40
0.6086956521739131
 40
0.6086956521739131
 40
0.6521739130434783
 40
0.6521739130434783
 40
0.6521739130434783
 40
0.6521739130434783
 40
0.6956521739130435
 40
0.6956521739130435
 40
0.6956521739130435
 40
0.6956521739130435
 40
0.7391304347826086
 40
0.7391304347826086
 40
0.7391304347826086
 40
0.7391304347826086
 40
0.782608695652174
 40
0.782608695652174
 40
0.782608695652174
 40
0.782608695652174
 40
0.8260869565217391
 40
0.8260869565217391
 40
0.8260869565217391
 40
0.8260869565217391
 40
0.8695652173913043
 40
0.8695652173913043
 40
0.8695652173913043
 40
0.8695652173913043
 40
0.9130434782608695
 40
0.9130434782608695
 40
0.9130434782608695
 40
0.9130434782608695
 40
1.0
 40
1.0
 40
1.0
 40
1.0
 10
20.0017
 20
-3.5859
 30
0.0
 10
20.0017
 20
-3.5859
 30
0.0
 10
20.2402
 20
-3.5859
 30
0.0
 10
20.2402
 20
-3.5859
 30
0.0
 10
20.2402
 20
-3.5859
 30
0.0
 10
20.2402
 20
-3.5859
 30
0.0
 10
20.2402
 20
-4.9212
 30
0.0
 10
20.2402
 20
-4.9212
 30
0.0
 10
20.2402
 20
-4.9212
 30
0.0
 10
20.1805
 20
-4.9231
 30
0.0
 10
20.1231
 20
-4.9137
 30
0.0
 10
20.068
 20
-4.8925
 30
0.0
 10
20.068
 20
-4.8925
 30
0.0
 10
19.9768
 20
-4.8586
 30
0.0
 10
19.8874
 20
-4.8041
 30
0.0
 10
19.799
 20
-4.7293
 30
0.0
 10
19.799
 20
-4.7293
 30
0.0
 10
19.7111
 20
-4.654
 30
0.0
 10
19.6089
 20
-4.5458
 30
0.0
 10
19.4933
 20
-4.4047
 30
0.0
 10
19.4933
 20
-4.4047
 30
0.0
 10
19.3131
 20
-4.1851
 30
0.0
 10
19.1705
 20
-4.0365
 30
0.0
 10
19.0652
 20
-3.9593
 30
0.0
 10
19.0652
 20
-3.9593
 30
0.0
 10
18.9603
 20
-3.8822
 30
0.0
 10
18.8607
 20
-3.8436
 30
0.0
 10
18.767
 20
-3.8436
 30
0.0
 10
18.767
 20
-3.8436
 30
0.0
 10
18.6687
 20
-3.8436
 30
0.0
 10
18.5859
 20
-3.8789
 30
0.0
 10
18.5182
 20
-3.9489
 30
0.0
 10
18.5182
 20
-3.9489
 30
0.0
 10
18.4509
 20
-4.0195
 30
0.0
 10
18.4171
 20
-4.1112
 30
0.0
 10
18.4171
 20
-4.2241
 30
0.0
 10
18.4171
 20
-4.2241
 30
0.0
 10
18.4171
 20
-4.3436
 30
0.0
 10
18.4528
 20
-4.4391
 30
0.0
 10
18.5248
 20
-4.5106
 30
0.0
 10
18.5248
 20
-4.5106
 30
0.0
 10
18.5963
 20
-4.5826
 30
0.0
 10
18.6955
 20
-4.6188
 30
0.0
 10
18.8221
 20
-4.6197
 30
0.0
 10
18.8221
 20
-4.6197
 30
0.0
 10
18.8221
 20
-4.6197
 30
0.0
 10
18.7962
 20
-4.8747
 30
0.0
 10
18.7962
 20
-4.8747
 30
0.0
 10
18.7962
 20
-4.8747
 30
0.0
 10
18.6057
 20
-4.8572
 30
0.0
 10
18.4609
 20
-4.7914
 30
0.0
 10
18.3611
 20
-4.6776
 30
0.0
 10
18.3611
 20
-4.6776
 30
0.0
 10
18.2614
 20
-4.5637
 30
0.0
 10
18.2115
 20
-4.4104
 30
0.0
 10
18.2115
 20
-4.2185
 30
0.0
 10
18.2115
 20
-4.2185
 30
0.0
 10
18.2115
 20
-4.0247
 30
0.0
 10
18.2656
 20
-3.8713
 30
0.0
 10
18.3728
 20
-3.7585
 30
0.0
 10
18.3728
 20
-3.7585
 30
0.0
 10
18.4805
 20
-3.6451
 30
0.0
 10
18.6137
 20
-3.5887
 30
0.0
 10
18.7727
 20
-3.5887
 30
0.0
 10
18.7727
 20
-3.5887
 30
0.0
 10
18.8535
 20
-3.5887
 30
0.0
 10
18.9331
 20
-3.6051
 30
0.0
 10
19.0111
 20
-3.6385
 30
0.0
 10
19.0111
 20
-3.6385
 30
0.0
 10
19.0892
 20
-3.6714
 30
0.0
 10
19.1716
 20
-3.7265
 30
0.0
 10
19.2576
 20
-3.8032
 30
0.0
 10
19.2576
 20
-3.8032
 30
0.0
 10
19.3442
 20
-3.8798
 30
0.0
 10
19.4627
 20
-4.0073
 30
0.0
 10
19.6132
 20
-4.1856
 30
0.0
 10
19.6132
 20
-4.1856
 30
0.0
 10
19.7383
 20
-4.3342
 30
0.0
 10
19.823
 20
-4.4297
 30
0.0
 10
19.8677
 20
-4.472
 30
0.0
 10
19.8677
 20
-4.472
 30
0.0
 10
19.9119
 20
-4.5143
 30
0.0
 10
19.9566
 20
-4.5492
 30
0.0
 10
20.0017
 20
-4.5769
 30
0.0
 10
20.0017
 20
-4.5769
 30
0.0
 10
20.0017
 20
-4.5769
 30
0.0
 10
20.0017
 20
-3.5859
 30
0.0
 10
20.0017
 20
-3.5859
 30
0.0
  0
SPLINE
  5
129
330
1F
100
AcDbEntity
  8
DEFAULT_1
 62
   250
100
AcDbSpline
210
0.0
220
0.0
230
1.0
 70
    11
 71
     3
 72
    80
 73
    76
 74
     0
 42
0.0000000001
 43
0.0000000001
 40
0.0
 40
0.0
 40
0.0
 40
0.0
 40
0.05
 40
0.05
 40
0.05
 40
0.05
 40
0.1
 40
0.1
 40
0.1
 40
0.1
 40
0.15
 40
0.15
 40
0.15
 40
0.15
 40
0.2
 40
0.2
 40
0.2
 40
0.2
 40
0.25
 40
0.25
 40
0.25
 40
0.25
 40
0.3
 40
0.3
 40
0.3
 40
0.3
 40
0.35
 40
0.35
 40
0.35
 40
0.35
 40
0.4
 40
0.4
 40
0.4
 40
0.4
 40
0.45
 40
0.45
 40
0.45
 40
0.45
 40
0.5
 40
0.5
 40
0.5
 40
0.5
 40
0.55
 40
0.55
 40
0.55
 40
0.55
 40
0.6
 40
0.6
 40
0.6
 40
0.6
 40
0.65
 40
0.65
 40
0.65
 40
0.65
 40
0.7
 40
0.7
 40
0.7
 40
0.7
 40
0.75
 40
0.75
 40
0.75
 40
0.75
 40
0.8
 40
0.8
 40
0.8
 40
0.8
 40
0.85
 40
0.85
 40
0.85
 40
0.85
 40
0.9
 40
0.9
 40
0.9
 40
0.9
 40
1.0
 40
1.0
 40
1.0
 40
1.0
 10
18.7148
 20
-2.0331
 30
0.0
 10
18.7148
 20
-2.0331
 30
0.0
 10
18.7341
 20
-2.2796
 30
0.0
 10
18.7341
 20
-2.2796
 30
0.0
 10
18.7341
 20
-2.2796
 30
0.0
 10
18.6368
 20
-2.3017
 30
0.0
 10
18.5657
 20
-2.3328
 30
0.0
 10
18.522
 20
-2.3732
 30
0.0
 10
18.522
 20
-2.3732
 30
0.0
 10
18.4509
 20
-2.4405
 30
0.0
 10
18.4156
 20
-2.5233
 30
0.0
 10
18.4156
 20
-2.6216
 30
0.0
 10
18.4156
 20
-2.6216
 30
0.0
 10
18.4156
 20
-2.7006
 30
0.0
 10
18.4378
 20
-2.7697
 30
0.0
 10
18.482
 20
-2.8295
 30
0.0
 10
18.482
 20
-2.8295
 30
0.0
 10
18.5389
 20
-2.9075
 30
0.0
 10
18.6222
 20
-2.9692
 30
0.0
 10
18.7313
 20
-3.0143
 30
0.0
 10
18.7313
 20
-3.0143
 30
0.0
 10
18.8404
 20
-3.059
 30
0.0
 10
18.9961
 20
-3.0825
 30
0.0
 10
19.1984
 20
-3.0845
 30
0.0
 10
19.1984
 20
-3.0845
 30
0.0
 10
19.1075
 20
-3.0247
 30
0.0
 10
19.0399
 20
-2.9518
 30
0.0
 10
18.9956
 20
-2.8652
 30
0.0
 10
18.9956
 20
-2.8652
 30
0.0
 10
18.9519
 20
-2.7791
 30
0.0
 10
18.9298
 20
-2.6884
 30
0.0
 10
18.9298
 20
-2.5938
 30
0.0
 10
18.9298
 20
-2.5938
 30
0.0
 10
18.9298
 20
-2.4283
 30
0.0
 10
18.9904
 20
-2.2877
 30
0.0
 10
19.1123
 20
-2.1715
 30
0.0
 10
19.1123
 20
-2.1715
 30
0.0
 10
19.2341
 20
-2.0553
 30
0.0
 10
19.3912
 20
-1.9969
 30
0.0
 10
19.584
 20
-1.9969
 30
0.0
 10
19.584
 20
-1.9969
 30
0.0
 10
19.7111
 20
-1.9969
 30
0.0
 10
19.8286
 20
-2.0247
 30
0.0
 10
19.9378
 20
-2.0793
 30
0.0
 10
19.9378
 20
-2.0793
 30
0.0
 10
20.0464
 20
-2.1338
 30
0.0
 10
20.1301
 20
-2.2091
 30
0.0
 10
20.1879
 20
-2.3045
 30
0.0
 10
20.1879
 20
-2.3045
 30
0.0
 10
20.2459
 20
-2.4
 30
0.0
 10
20.2746
 20
-2.5083
 30
0.0
 10
20.2746
 20
-2.6296
 30
0.0
 10
20.2746
 20
-2.6296
 30
0.0
 10
20.2746
 20
-2.8366
 30
0.0
 10
20.1988
 20
-3.0049
 30
0.0
 10
20.0464
 20
-3.1352
 30
0.0
 10
20.0464
 20
-3.1352
 30
0.0
 10
19.8945
 20
-3.266
 30
0.0
 10
19.6438
 20
-3.3309
 30
0.0
 10
19.2948
 20
-3.3309
 30
0.0
 10
19.2948
 20
-3.3309
 30
0.0
 10
18.9043
 20
-3.3309
 30
0.0
 10
18.6207
 20
-3.2589
 30
0.0
 10
18.4434
 20
-3.1145
 30
0.0
 10
18.4434
 20
-3.1145
 30
0.0
 10
18.2891
 20
-2.989
 30
0.0
 10
18.2115
 20
-2.8196
 30
0.0
 10
18.2115
 20
-2.606
 30
0.0
 10
18.2115
 20
-2.606
 30
0.0
 10
18.2115
 20
-2.4475
 30
0.0
 10
18.2562
 20
-2.3173
 30
0.0
 10
18.3456
 20
-2.2157
 30
0.0
 10
18.3456
 20
-2.2157
 30
0.0
 10
18.4345
 20
-2.114
 30
0.0
 10
18.5577
 20
-2.0534
 30
0.0
 10
18.7148
 20
-2.0331
 30
0.0
  0
SPLINE
  5
12A
330
1F
100
AcDbEntity
  8
DEFAULT_1
 62
   250
100
AcDbSpline
210
0.0
220
0.0
230
1.0
 70
    11
 71
     3
 72
    40
 73
    36
 74
     0
 42
0.0000000001
 43
0.0000000001
 40
0.0
 40
0.0
 40
0.0
 40
0.0
 40
0.1
 40
0.1
 40
0.1
 40
0.1
 40
0.2
 40
0.2
 40
0.2
 40
0.2
 40
0.3
 40
0.3
 40
0.3
 40
0.3
 40
0.4
 40
0.4
 40
0.4
 40
0.4
 40
0.5
 40
0.5
 40
0.5
 40
0.5
 40
0.6
 40
0.6
 40
0.6
 40
0.6
 40
0.7
 40
0.7
 40
0.7
 40
0.7
 40
0.8
 40
0.8
 40
0.8
 40
0.8
 40
1.0
 40
1.0
 40
1.0
 40
1.0
 10
19.5855
 20
-3.0459
 30
0.0
 10
19.671
 20
-3.0459
 30
0.0
 10
19.7529
 20
-3.0275
 30
0.0
 10
19.831
 20
-2.9913
 30
0.0
 10
19.831
 20
-2.9913
 30
0.0
 10
19.9091
 20
-2.955
 30
0.0
 10
19.9683
 20
-2.9042
 30
0.0
 10
20.0093
 20
-2.8394
 30
0.0
 10
20.0093
 20
-2.8394
 30
0.0
 10
20.0501
 20
-2.774
 30
0.0
 10
20.0708
 20
-2.7053
 30
0.0
 10
20.0708
 20
-2.6338
 30
0.0
 10
20.0708
 20
-2.6338
 30
0.0
 10
20.0708
 20
-2.529
 30
0.0
 10
20.0285
 20
-2.439
 30
0.0
 10
19.9439
 20
-2.3638
 30
0.0
 10
19.9439
 20
-2.3638
 30
0.0
 10
19.8592
 20
-2.2886
 30
0.0
 10
19.7445
 20
-2.2509
 30
0.0
 10
19.5995
 20
-2.2509
 30
0.0
 10
19.5995
 20
-2.2509
 30
0.0
 10
19.4598
 20
-2.2509
 30
0.0
 10
19.3498
 20
-2.2881
 30
0.0
 10
19.2694
 20
-2.3624
 30
0.0
 10
19.2694
 20
-2.3624
 30
0.0
 10
19.189
 20
-2.4368
 30
0.0
 10
19.1489
 20
-2.5303
 30
0.0
 10
19.1489
 20
-2.6432
 30
0.0
 10
19.1489
 20
-2.6432
 30
0.0
 10
19.1489
 20
-2.7557
 30
0.0
 10
19.189
 20
-2.8506
 30
0.0
 10
19.2694
 20
-2.9288
 30
0.0
 10
19.2694
 20
-2.9288
 30
0.0
 10
19.3498
 20
-3.0068
 30
0.0
 10
19.4552
 20
-3.0459
 30
0.0
 10
19.5855
 20
-3.0459
 30
0.0
  0
SPLINE
  5
12B
330
1F
100
AcDbEntity
  8
DEFAULT_1
 62
   250
100
AcDbSpline
210
0.0
220
0.0
230
1.0
 70
    11
 71
     3
 72
    92
 73
    88
 74
     0
 42
0.0000000001
 43
0.0000000001
 40
0.0
 40
0.0
 40
0.0
 40
0.0
 40
0.0434782608695652
 40
0.0434782608695652
 40
0.0434782608695652
 40
0.0434782608695652
 40
0.0869565217391304
 40
0.0869565217391304
 40
0.0869565217391304
 40
0.0869565217391304
 40
0.1304347826086956
 40
0.1304347826086956
 40
0.1304347826086956
 40
0.1304347826086956
 40
0.1739130434782609
 40
0.1739130434782609
 40
0.1739130434782609
 40
0.1739130434782609
 40
0.2173913043478261
 40
0.2173913043478261
 40
0.2173913043478261
 40
0.2173913043478261
 40
0.2608695652173913
 40
0.2608695652173913
 40
0.2608695652173913
 40
0.2608695652173913
 40
0.3043478260869565
 40
0.3043478260869565
 40
0.3043478260869565
 40
0.3043478260869565
 40
0.3478260869565217
 40
0.3478260869565217
 40
0.3478260869565217
 40
0.3478260869565217
 40
0.391304347826087
 40
0.391304347826087
 40
0.391304347826087
 40
0.391304347826087
 40
0.4347826086956522
 40
0.4347826086956522
 40
0.4347826086956522
 40
0.4347826086956522
 40
0.4782608695652174
 40
0.4782608695652174
 40
0.4782608695652174
 40
0.4782608695652174
 40
0.5217391304347826
 40
0.5217391304347826
 40
0.5217391304347826
 40
0.5217391304347826
 40
0.5652173913043478
 40
0.5652173913043478
 40
0.5652173913043478
 40
0.5652173913043478
 40
0.6086956521739131
 40
0.6086956521739131
 40
0.6086956521739131
 40
0.6086956521739131
 40
0.6521739130434783
 40
0.6521739130434783
 40
0.6521739130434783
 40
0.6521739130434783
 40
0.6956521739130435
 40
0.6956521739130435
 40
0.6956521739130435
 40
0.6956521739130435
 40
0.7391304347826086
 40
0.7391304347826086
 40
0.7391304347826086
 40
0.7391304347826086
 40
0.782608695652174
 40
0.782608695652174
 40
0.782608695652174
 40
0.782608695652174
 40
0.8260869565217391
 40
0.8260869565217391
 40
0.8260869565217391
 40
0.8260869565217391
 40
0.8695652173913043
 40
0.8695652173913043
 40
0.8695652173913043
 40
0.8695652173913043
 40
0.9130434782608695
 40
0.9130434782608695
 40
0.9130434782608695
 40
0.9130434782608695
 40
1.0
 40
1.0
 40
1.0
 40
1.0
 10
19.7111
 20
-1.7505
 30
0.0
 10
19.7111
 20
-1.7505
 30
0.0
 10
19.6889
 20
-1.4899
 30
0.0
 10
19.6889
 20
-1.4899
 30
0.0
 10
19.6889
 20
-1.4899
 30
0.0
 10
19.816
 20
-1.4706
 30
0.0
 10
19.911
 20
-1.4259
 30
0.0
 10
19.9749
 20
-1.3558
 30
0.0
 10
19.9749
 20
-1.3558
 30
0.0
 10
20.0389
 20
-1.2853
 30
0.0
 10
20.0708
 20
-1.2006
 30
0.0
 10
20.0708
 20
-1.1014
 30
0.0
 10
20.0708
 20
-1.1014
 30
0.0
 10
20.0708
 20
-0.9819
 30
0.0
 10
20.0257
 20
-0.8808
 30
0.0
 10
19.9359
 20
-0.7985
 30
0.0
 10
19.9359
 20
-0.7985
 30
0.0
 10
19.8456
 20
-0.7157
 30
0.0
 10
19.7261
 20
-0.6743
 30
0.0
 10
19.5775
 20
-0.6743
 30
0.0
 10
19.5775
 20
-0.6743
 30
0.0
 10
19.4358
 20
-0.6743
 30
0.0
 10
19.3244
 20
-0.7138
 30
0.0
 10
19.2426
 20
-0.7933
 30
0.0
 10
19.2426
 20
-0.7933
 30
0.0
 10
19.1607
 20
-0.8728
 30
0.0
 10
19.1198
 20
-0.9767
 30
0.0
 10
19.1198
 20
-1.1057
 30
0.0
 10
19.1198
 20
-1.1057
 30
0.0
 10
19.1198
 20
-1.1855
 30
0.0
 10
19.1382
 20
-1.2576
 30
0.0
 10
19.1744
 20
-1.322
 30
0.0
 10
19.1744
 20
-1.322
 30
0.0
 10
19.2106
 20
-1.3865
 30
0.0
 10
19.2576
 20
-1.4368
 30
0.0
 10
19.3155
 20
-1.4735
 30
0.0
 10
19.3155
 20
-1.4735
 30
0.0
 10
19.3155
 20
-1.4735
 30
0.0
 10
19.2854
 20
-1.7063
 30
0.0
 10
19.2854
 20
-1.7063
 30
0.0
 10
19.2854
 20
-1.7063
 30
0.0
 10
19.2854
 20
-1.7063
 30
0.0
 10
18.2477
 20
-1.5106
 30
0.0
 10
18.2477
 20
-1.5106
 30
0.0
 10
18.2477
 20
-1.5106
 30
0.0
 10
18.2477
 20
-1.5106
 30
0.0
 10
18.2477
 20
-0.5059
 30
0.0
 10
18.2477
 20
-0.5059
 30
0.0
 10
18.2477
 20
-0.5059
 30
0.0
 10
18.2477
 20
-0.5059
 30
0.0
 10
18.4848
 20
-0.5059
 30
0.0
 10
18.4848
 20
-0.5059
 30
0.0
 10
18.4848
 20
-0.5059
 30
0.0
 10
18.4848
 20
-0.5059
 30
0.0
 10
18.4848
 20
-1.3121
 30
0.0
 10
18.4848
 20
-1.3121
 30
0.0
 10
18.4848
 20
-1.3121
 30
0.0
 10
18.4848
 20
-1.3121
 30
0.0
 10
19.0276
 20
-1.4212
 30
0.0
 10
19.0276
 20
-1.4212
 30
0.0
 10
19.0276
 20
-1.4212
 30
0.0
 10
18.9429
 20
-1.2999
 30
0.0
 10
18.9006
 20
-1.1724
 30
0.0
 10
18.9006
 20
-1.0393
 30
0.0
 10
18.9006
 20
-1.0393
 30
0.0
 10
18.9006
 20
-0.8629
 30
0.0
 10
18.9617
 20
-0.7142
 30
0.0
 10
19.084
 20
-0.5929
 30
0.0
 10
19.084
 20
-0.5929
 30
0.0
 10
19.2063
 20
-0.4716
 30
0.0
 10
19.3634
 20
-0.4109
 30
0.0
 10
19.5553
 20
-0.4109
 30
0.0
 10
19.5553
 20
-0.4109
 30
0.0
 10
19.7383
 20
-0.4109
 30
0.0
 10
19.8964
 20
-0.4645
 30
0.0
 10
20.0294
 20
-0.5708
 30
0.0
 10
20.0294
 20
-0.5708
 30
0.0
 10
20.1927
 20
-0.7006
 30
0.0
 10
20.2746
 20
-0.8775
 30
0.0
 10
20.2746
 20
-1.1014
 30
0.0
 10
20.2746
 20
-1.1014
 30
0.0
 10
20.2746
 20
-1.2853
 30
0.0
 10
20.2232
 20
-1.4353
 30
0.0
 10
20.1203
 20
-1.5515
 30
0.0
 10
20.1203
 20
-1.5515
 30
0.0
 10
20.0172
 20
-1.6677
 30
0.0
 10
19.8809
 20
-1.734
 30
0.0
 10
19.7111
 20
-1.7505
 30
0.0
  0
SPLINE
  5
12C
330
1F
100
AcDbEntity
  8
DEFAULT_1
 62
   250
100
AcDbSpline
210
0.0
220
0.0
230
1.0
 70
    11
 71
     3
 72
   120
 73
   116
 74
     0
 42
0.0000000001
 43
0.0000000001
 40
0.0
 40
0.0
 40
0.0
 40
0.0
 40
0.0333333333333333
 40
0.0333333333333333
 40
0.0333333333333333
 40
0.0333333333333333
 40
0.0666666666666667
 40
0.0666666666666667
 40
0.0666666666666667
 40
0.0666666666666667
 40
0.1
 40
0.1
 40
0.1
 40
0.1
 40
0.1333333333333333
 40
0.1333333333333333
 40
0.1333333333333333
 40
0.1333333333333333
 40
0.1666666666666667
 40
0.1666666666666667
 40
0.1666666666666667
 40
0.1666666666666667
 40
0.2
 40
0.2
 40
0.2
 40
0.2
 40
0.2333333333333333
 40
0.2333333333333333
 40
0.2333333333333333
 40
0.2333333333333333
 40
0.2666666666666667
 40
0.2666666666666667
 40
0.2666666666666667
 40
0.2666666666666667
 40
0.3
 40
0.3
 40
0.3
 40
0.3
 40
0.3333333333333333
 40
0.3333333333333333
 40
0.3333333333333333
 40
0.3333333333333333
 40
0.3666666666666666
 40
0.3666666666666666
 40
0.3666666666666666
 40
0.3666666666666666
 40
0.4
 40
0.4
 40
0.4
 40
0.4
 40
0.4333333333333333
 40
0.4333333333333333
 40
0.4333333333333333
 40
0.4333333333333333
 40
0.4666666666666667
 40
0.4666666666666667
 40
0.4666666666666667
 40
0.4666666666666667
 40
0.5
 40
0.5
 40
0.5
 40
0.5
 40
0.5333333333333333
 40
0.5333333333333333
 40
0.5333333333333333
 40
0.5333333333333333
 40
0.5666666666666667
 40
0.5666666666666667
 40
0.5666666666666667
 40
0.5666666666666667
 40
0.6
 40
0.6
 40
0.6
 40
0.6
 40
0.6333333333333333
 40
0.6333333333333333
 40
0.6333333333333333
 40
0.6333333333333333
 40
0.6666666666666666
 40
0.6666666666666666
 40
0.6666666666666666
 40
0.6666666666666666
 40
0.7
 40
0.7
 40
0.7
 40
0.7
 40
0.7333333333333333
 40
0.7333333333333333
 40
0.7333333333333333
 40
0.7333333333333333
 40
0.7666666666666667
 40
0.7666666666666667
 40
0.7666666666666667
 40
0.7666666666666667
 40
0.8
 40
0.8
 40
0.8
 40
0.8
 40
0.8333333333333334
 40
0.8333333333333334
 40
0.8333333333333334
 40
0.8333333333333334
 40
0.8666666666666667
 40
0.8666666666666667
 40
0.8666666666666667
 40
0.8666666666666667
 40
0.9
 40
0.9
 40
0.9
 40
0.9
 40
0.9333333333333333
 40
0.9333333333333333
 40
0.9333333333333333
 40
0.9333333333333333
 40
1.0
 40
1.0
 40
1.0
 40
1.0
 10
-6.8116
 20
24.3135
 30
0.0
 10
-6.8116
 20
24.3135
 30
0.0
 10
-6.8116
 20
24.5501
 30
0.0
 10
-6.8116
 20
24.5501
 30
0.0
 10
-6.8116
 20
24.5501
 30
0.0
 10
-6.8116
 20
24.5501
 30
0.0
 10
-5.956
 20
24.5514
 30
0.0
 10
-5.956
 20
24.5514
 30
0.0
 10
-5.956
 20
24.5514
 30
0.0
 10
-5.956
 20
24.5514
 30
0.0
 10
-5.956
 20
23.8022
 30
0.0
 10
-5.956
 20
23.8022
 30
0.0
 10
-5.956
 20
23.8022
 30
0.0
 10
-6.0872
 20
23.6973
 30
0.0
 10
-6.2227
 20
23.6188
 30
0.0
 10
-6.3624
 20
23.5656
 30
0.0
 10
-6.3624
 20
23.5656
 30
0.0
 10
-6.5021
 20
23.5129
 30
0.0
 10
-6.6455
 20
23.4865
 30
0.0
 10
-6.7923
 20
23.4865
 30
0.0
 10
-6.7923
 20
23.4865
 30
0.0
 10
-6.9908
 20
23.4865
 30
0.0
 10
-7.1714
 20
23.5289
 30
0.0
 10
-7.3332
 20
23.614
 30
0.0
 10
-7.3332
 20
23.614
 30
0.0
 10
-7.4955
 20
23.6987
 30
0.0
 10
-7.6178
 20
23.8219
 30
0.0
 10
-7.7006
 20
23.9824
 30
0.0
 10
-7.7006
 20
23.9824
 30
0.0
 10
-7.7834
 20
24.1432
 30
0.0
 10
-7.8248
 20
24.3229
 30
0.0
 10
-7.8248
 20
24.5213
 30
0.0
 10
-7.8248
 20
24.5213
 30
0.0
 10
-7.8248
 20
24.718
 30
0.0
 10
-7.7834
 20
24.9014
 30
0.0
 10
-7.701
 20
25.0717
 30
0.0
 10
-7.701
 20
25.0717
 30
0.0
 10
-7.6192
 20
25.2424
 30
0.0
 10
-7.5007
 20
25.3689
 30
0.0
 10
-7.3464
 20
25.4517
 30
0.0
 10
-7.3464
 20
25.4517
 30
0.0
 10
-7.1921
 20
25.5341
 30
0.0
 10
-7.0143
 20
25.5755
 30
0.0
 10
-6.813
 20
25.5755
 30
0.0
 10
-6.813
 20
25.5755
 30
0.0
 10
-6.6672
 20
25.5755
 30
0.0
 10
-6.535
 20
25.552
 30
0.0
 10
-6.417
 20
25.5044
 30
0.0
 10
-6.417
 20
25.5044
 30
0.0
 10
-6.2989
 20
25.4574
 30
0.0
 10
-6.2062
 20
25.3915
 30
0.0
 10
-6.1395
 20
25.3069
 30
0.0
 10
-6.1395
 20
25.3069
 30
0.0
 10
-6.0722
 20
25.2222
 30
0.0
 10
-6.0214
 20
25.1121
 30
0.0
 10
-5.9861
 20
24.9762
 30
0.0
 10
-5.9861
 20
24.9762
 30
0.0
 10
-5.9861
 20
24.9762
 30
0.0
 10
-6.2274
 20
24.9099
 30
0.0
 10
-6.2274
 20
24.9099
 30
0.0
 10
-6.2274
 20
24.9099
 30
0.0
 10
-6.258
 20
25.0129
 30
0.0
 10
-6.2956
 20
25.0938
 30
0.0
 10
-6.3403
 20
25.1526
 30
0.0
 10
-6.3403
 20
25.1526
 30
0.0
 10
-6.3854
 20
25.2114
 30
0.0
 10
-6.4499
 20
25.2584
 30
0.0
 10
-6.5336
 20
25.2937
 30
0.0
 10
-6.5336
 20
25.2937
 30
0.0
 10
-6.6169
 20
25.329
 30
0.0
 10
-6.71
 20
25.3469
 30
0.0
 10
-6.8116
 20
25.3469
 30
0.0
 10
-6.8116
 20
25.3469
 30
0.0
 10
-6.9339
 20
25.3469
 30
0.0
 10
-7.0398
 20
25.3281
 30
0.0
 10
-7.1286
 20
25.2909
 30
0.0
 10
-7.1286
 20
25.2909
 30
0.0
 10
-7.218
 20
25.2537
 30
0.0
 10
-7.2895
 20
25.2048
 30
0.0
 10
-7.3445
 20
25.1441
 30
0.0
 10
-7.3445
 20
25.1441
 30
0.0
 10
-7.3991
 20
25.0835
 30
0.0
 10
-7.4414
 20
25.0172
 30
0.0
 10
-7.4719
 20
24.9442
 30
0.0
 10
-7.4719
 20
24.9442
 30
0.0
 10
-7.5233
 20
24.8195
 30
0.0
 10
-7.5491
 20
24.6841
 30
0.0
 10
-7.5491
 20
24.5378
 30
0.0
 10
-7.5491
 20
24.5378
 30
0.0
 10
-7.5491
 20
24.3576
 30
0.0
 10
-7.5181
 20
24.2072
 30
0.0
 10
-7.456
 20
24.0858
 30
0.0
 10
-7.456
 20
24.0858
 30
0.0
 10
-7.3939
 20
23.9645
 30
0.0
 10
-7.3036
 20
23.8747
 30
0.0
 10
-7.185
 20
23.8158
 30
0.0
 10
-7.185
 20
23.8158
 30
0.0
 10
-7.0666
 20
23.757
 30
0.0
 10
-6.9409
 20
23.7274
 30
0.0
 10
-6.8078
 20
23.7274
 30
0.0
 10
-6.8078
 20
23.7274
 30
0.0
 10
-6.6917
 20
23.7274
 30
0.0
 10
-6.5788
 20
23.75
 30
0.0
 10
-6.4687
 20
23.7947
 30
0.0
 10
-6.4687
 20
23.7947
 30
0.0
 10
-6.3581
 20
23.8389
 30
0.0
 10
-6.2749
 20
23.8864
 30
0.0
 10
-6.218
 20
23.9372
 30
0.0
 10
-6.218
 20
23.9372
 30
0.0
 10
-6.218
 20
23.9372
 30
0.0
 10
-6.218
 20
24.3135
 30
0.0
 10
-6.218
 20
24.3135
 30
0.0
 10
-6.218
 20
24.3135
 30
0.0
 10
-6.218
 20
24.3135
 30
0.0
 10
-6.8116
 20
24.3135
 30
0.0
 10
-6.8116
 20
24.3135
 30
0.0
  0
SPLINE
  5
12D
330
1F
100
AcDbEntity
  8
DEFAULT_1
 62
   250
100
AcDbSpline
210
0.0
220
0.0
230
1.0
 70
    11
 71
     3
 72
    80
 73
    76
 74
     0
 42
0.0000000001
 43
0.0000000001
 40
0.0
 40
0.0
 40
0.0
 40
0.0
 40
0.05
 40
0.05
 40
0.05
 40
0.05
 40
0.1
 40
0.1
 40
0.1
 40
0.1
 40
0.15
 40
0.15
 40
0.15
 40
0.15
 40
0.2
 40
0.2
 40
0.2
 40
0.2
 40
0.25
 40
0.25
 40
0.25
 40
0.25
 40
0.3
 40
0.3
 40
0.3
 40
0.3
 40
0.35
 40
0.35
 40
0.35
 40
0.35
 40
0.4
 40
0.4
 40
0.4
 40
0.4
 40
0.45
 40
0.45
 40
0.45
 40
0.45
 40
0.5
 40
0.5
 40
0.5
 40
0.5
 40
0.55
 40
0.55
 40
0.55
 40
0.55
 40
0.6
 40
0.6
 40
0.6
 40
0.6
 40
0.65
 40
0.65
 40
0.65
 40
0.65
 40
0.7
 40
0.7
 40
0.7
 40
0.7
 40
0.75
 40
0.75
 40
0.75
 40
0.75
 40
0.8
 40
0.8
 40
0.8
 40
0.8
 40
0.85
 40
0.85
 40
0.85
 40
0.85
 40
0.9
 40
0.9
 40
0.9
 40
0.9
 40
1.0
 40
1.0
 40
1.0
 40
1.0
 10
-3.5914
 20
25.0463
 30
0.0
 10
-3.5914
 20
25.0463
 30
0.0
 10
-3.8379
 20
25.027
 30
0.0
 10
-3.8379
 20
25.027
 30
0.0
 10
-3.8379
 20
25.027
 30
0.0
 10
-3.86
 20
25.1243
 30
0.0
 10
-3.8911
 20
25.1954
 30
0.0
 10
-3.9315
 20
25.2391
 30
0.0
 10
-3.9315
 20
25.2391
 30
0.0
 10
-3.9988
 20
25.3102
 30
0.0
 10
-4.0816
 20
25.3455
 30
0.0
 10
-4.1799
 20
25.3455
 30
0.0
 10
-4.1799
 20
25.3455
 30
0.0
 10
-4.2589
 20
25.3455
 30
0.0
 10
-4.328
 20
25.3233
 30
0.0
 10
-4.3877
 20
25.2791
 30
0.0
 10
-4.3877
 20
25.2791
 30
0.0
 10
-4.4658
 20
25.2222
 30
0.0
 10
-4.5275
 20
25.1389
 30
0.0
 10
-4.5726
 20
25.0298
 30
0.0
 10
-4.5726
 20
25.0298
 30
0.0
 10
-4.6173
 20
24.9207
 30
0.0
 10
-4.6408
 20
24.765
 30
0.0
 10
-4.6427
 20
24.5627
 30
0.0
 10
-4.6427
 20
24.5627
 30
0.0
 10
-4.583
 20
24.6536
 30
0.0
 10
-4.51
 20
24.7212
 30
0.0
 10
-4.4235
 20
24.7655
 30
0.0
 10
-4.4235
 20
24.7655
 30
0.0
 10
-4.3374
 20
24.8092
 30
0.0
 10
-4.2467
 20
24.8313
 30
0.0
 10
-4.1521
 20
24.8313
 30
0.0
 10
-4.1521
 20
24.8313
 30
0.0
 10
-3.9866
 20
24.8313
 30
0.0
 10
-3.8459
 20
24.7707
 30
0.0
 10
-3.7297
 20
24.6488
 30
0.0
 10
-3.7297
 20
24.6488
 30
0.0
 10
-3.6136
 20
24.527
 30
0.0
 10
-3.5552
 20
24.3699
 30
0.0
 10
-3.5552
 20
24.1771
 30
0.0
 10
-3.5552
 20
24.1771
 30
0.0
 10
-3.5552
 20
24.05
 30
0.0
 10
-3.583
 20
23.9325
 30
0.0
 10
-3.6375
 20
23.8233
 30
0.0
 10
-3.6375
 20
23.8233
 30
0.0
 10
-3.6921
 20
23.7147
 30
0.0
 10
-3.7673
 20
23.631
 30
0.0
 10
-3.8628
 20
23.5732
 30
0.0
 10
-3.8628
 20
23.5732
 30
0.0
 10
-3.9583
 20
23.5152
 30
0.0
 10
-4.0665
 20
23.4865
 30
0.0
 10
-4.1878
 20
23.4865
 30
0.0
 10
-4.1878
 20
23.4865
 30
0.0
 10
-4.3949
 20
23.4865
 30
0.0
 10
-4.5632
 20
23.5623
 30
0.0
 10
-4.6935
 20
23.7147
 30
0.0
 10
-4.6935
 20
23.7147
 30
0.0
 10
-4.8243
 20
23.8666
 30
0.0
 10
-4.8891
 20
24.1173
 30
0.0
 10
-4.8891
 20
24.4663
 30
0.0
 10
-4.8891
 20
24.4663
 30
0.0
 10
-4.8891
 20
24.8568
 30
0.0
 10
-4.8172
 20
25.1404
 30
0.0
 10
-4.6728
 20
25.3177
 30
0.0
 10
-4.6728
 20
25.3177
 30
0.0
 10
-4.5472
 20
25.472
 30
0.0
 10
-4.3779
 20
25.5496
 30
0.0
 10
-4.1643
 20
25.5496
 30
0.0
 10
-4.1643
 20
25.5496
 30
0.0
 10
-4.0058
 20
25.5496
 30
0.0
 10
-3.8756
 20
25.5049
 30
0.0
 10
-3.774
 20
25.4155
 30
0.0
 10
-3.774
 20
25.4155
 30
0.0
 10
-3.6723
 20
25.3266
 30
0.0
 10
-3.6116
 20
25.2034
 30
0.0
 10
-3.5914
 20
25.0463
 30
0.0
  0
SPLINE
  5
12E
330
1F
100
AcDbEntity
  8
DEFAULT_1
 62
   250
100
AcDbSpline
210
0.0
220
0.0
230
1.0
 70
    11
 71
     3
 72
    40
 73
    36
 74
     0
 42
0.0000000001
 43
0.0000000001
 40
0.0
 40
0.0
 40
0.0
 40
0.0
 40
0.1
 40
0.1
 40
0.1
 40
0.1
 40
0.2
 40
0.2
 40
0.2
 40
0.2
 40
0.3
 40
0.3
 40
0.3
 40
0.3
 40
0.4
 40
0.4
 40
0.4
 40
0.4
 40
0.5
 40
0.5
 40
0.5
 40
0.5
 40
0.6
 40
0.6
 40
0.6
 40
0.6
 40
0.7
 40
0.7
 40
0.7
 40
0.7
 40
0.8
 40
0.8
 40
0.8
 40
0.8
 40
1.0
 40
1.0
 40
1.0
 40
1.0
 10
-4.6041
 20
24.1756
 30
0.0
 10
-4.6041
 20
24.0901
 30
0.0
 10
-4.5858
 20
24.0082
 30
0.0
 10
-4.5496
 20
23.9301
 30
0.0
 10
-4.5496
 20
23.9301
 30
0.0
 10
-4.5133
 20
23.852
 30
0.0
 10
-4.4625
 20
23.7928
 30
0.0
 10
-4.3977
 20
23.7518
 30
0.0
 10
-4.3977
 20
23.7518
 30
0.0
 10
-4.3323
 20
23.711
 30
0.0
 10
-4.2636
 20
23.6903
 30
0.0
 10
-4.1921
 20
23.6903
 30
0.0
 10
-4.1921
 20
23.6903
 30
0.0
 10
-4.0872
 20
23.6903
 30
0.0
 10
-3.9973
 20
23.7326
 30
0.0
 10
-3.9221
 20
23.8172
 30
0.0
 10
-3.9221
 20
23.8172
 30
0.0
 10
-3.8468
 20
23.9019
 30
0.0
 10
-3.8092
 20
24.0166
 30
0.0
 10
-3.8092
 20
24.1616
 30
0.0
 10
-3.8092
 20
24.1616
 30
0.0
 10
-3.8092
 20
24.3013
 30
0.0
 10
-3.8464
 20
24.4113
 30
0.0
 10
-3.9207
 20
24.4917
 30
0.0
 10
-3.9207
 20
24.4917
 30
0.0
 10
-3.995
 20
24.5721
 30
0.0
 10
-4.0886
 20
24.6122
 30
0.0
 10
-4.2015
 20
24.6122
 30
0.0
 10
-4.2015
 20
24.6122
 30
0.0
 10
-4.314
 20
24.6122
 30
0.0
 10
-4.4089
 20
24.5721
 30
0.0
 10
-4.4871
 20
24.4917
 30
0.0
 10
-4.4871
 20
24.4917
 30
0.0
 10
-4.5651
 20
24.4113
 30
0.0
 10
-4.6041
 20
24.3059
 30
0.0
 10
-4.6041
 20
24.1756
 30
0.0
  0
SPLINE
  5
12F
330
1F
100
AcDbEntity
  8
DEFAULT_1
 62
   250
100
AcDbSpline
210
0.0
220
0.0
230
1.0
 70
    11
 71
     3
 72
    20
 73
    16
 74
     0
 42
0.0000000001
 43
0.0000000001
 40
0.0
 40
0.0
 40
0.0
 40
0.0
 40
0.2
 40
0.2
 40
0.2
 40
0.2
 40
0.4
 40
0.4
 40
0.4
 40
0.4
 40
0.6
 40
0.6
 40
0.6
 40
0.6
 40
1.0
 40
1.0
 40
1.0
 40
1.0
 10
-3.4259
 20
23.4865
 30
0.0
 10
-3.4259
 20
23.4865
 30
0.0
 10
-2.8403
 20
25.5755
 30
0.0
 10
-2.8403
 20
25.5755
 30
0.0
 10
-2.8403
 20
25.5755
 30
0.0
 10
-2.8403
 20
25.5755
 30
0.0
 10
-2.6418
 20
25.5755
 30
0.0
 10
-2.6418
 20
25.5755
 30
0.0
 10
-2.6418
 20
25.5755
 30
0.0
 10
-2.6418
 20
25.5755
 30
0.0
 10
-3.226
 20
23.4865
 30
0.0
 10
-3.226
 20
23.4865
 30
0.0
 10
-3.226
 20
23.4865
 30
0.0
 10
-3.226
 20
23.4865
 30
0.0
 10
-3.4259
 20
23.4865
 30
0.0
 10
-3.4259
 20
23.4865
 30
0.0
  0
SPLINE
  5
130
330
1F
100
AcDbEntity
  8
DEFAULT_1
 62
   250
100
AcDbSpline
210
0.0
220
0.0
230
1.0
 70
    11
 71
     3
 72
    48
 73
    44
 74
     0
 42
0.0000000001
 43
0.0000000001
 40
0.0
 40
0.0
 40
0.0
 40
0.0
 40
0.0833333333333333
 40
0.0833333333333333
 40
0.0833333333333333
 40
0.0833333333333333
 40
0.1666666666666667
 40
0.1666666666666667
 40
0.1666666666666667
 40
0.1666666666666667
 40
0.25
 40
0.25
 40
0.25
 40
0.25
 40
0.3333333333333333
 40
0.3333333333333333
 40
0.3333333333333333
 40
0.3333333333333333
 40
0.4166666666666667
 40
0.4166666666666667
 40
0.4166666666666667
 40
0.4166666666666667
 40
0.5
 40
0.5
 40
0.5
 40
0.5
 40
0.5833333333333334
 40
0.5833333333333334
 40
0.5833333333333334
 40
0.5833333333333334
 40
0.6666666666666666
 40
0.6666666666666666
 40
0.6666666666666666
 40
0.6666666666666666
 40
0.75
 40
0.75
 40
0.75
 40
0.75
 40
0.8333333333333334
 40
0.8333333333333334
 40
0.8333333333333334
 40
0.8333333333333334
 40
1.0
 40
1.0
 40
1.0
 40
1.0
 10
-1.7297
 20
23.5209
 30
0.0
 10
-1.7297
 20
23.5209
 30
0.0
 10
-1.7297
 20
24.0044
 30
0.0
 10
-1.7297
 20
24.0044
 30
0.0
 10
-1.7297
 20
24.0044
 30
0.0
 10
-1.7297
 20
24.0044
 30
0.0
 10
-2.606
 20
24.0044
 30
0.0
 10
-2.606
 20
24.0044
 30
0.0
 10
-2.606
 20
24.0044
 30
0.0
 10
-2.606
 20
24.0044
 30
0.0
 10
-2.606
 20
24.2321
 30
0.0
 10
-2.606
 20
24.2321
 30
0.0
 10
-2.606
 20
24.2321
 30
0.0
 10
-2.606
 20
24.2321
 30
0.0
 10
-1.6841
 20
25.5411
 30
0.0
 10
-1.6841
 20
25.5411
 30
0.0
 10
-1.6841
 20
25.5411
 30
0.0
 10
-1.6841
 20
25.5411
 30
0.0
 10
-1.4814
 20
25.5411
 30
0.0
 10
-1.4814
 20
25.5411
 30
0.0
 10
-1.4814
 20
25.5411
 30
0.0
 10
-1.4814
 20
25.5411
 30
0.0
 10
-1.4814
 20
24.2321
 30
0.0
 10
-1.4814
 20
24.2321
 30
0.0
 10
-1.4814
 20
24.2321
 30
0.0
 10
-1.4814
 20
24.2321
 30
0.0
 10
-1.2086
 20
24.2321
 30
0.0
 10
-1.2086
 20
24.2321
 30
0.0
 10
-1.2086
 20
24.2321
 30
0.0
 10
-1.2086
 20
24.2321
 30
0.0
 10
-1.2086
 20
24.0044
 30
0.0
 10
-1.2086
 20
24.0044
 30
0.0
 10
-1.2086
 20
24.0044
 30
0.0
 10
-1.2086
 20
24.0044
 30
0.0
 10
-1.4814
 20
24.0044
 30
0.0
 10
-1.4814
 20
24.0044
 30
0.0
 10
-1.4814
 20
24.0044
 30
0.0
 10
-1.4814
 20
24.0044
 30
0.0
 10
-1.4814
 20
23.5209
 30
0.0
 10
-1.4814
 20
23.5209
 30
0.0
 10
-1.4814
 20
23.5209
 30
0.0
 10
-1.4814
 20
23.5209
 30
0.0
 10
-1.7297
 20
23.5209
 30
0.0
 10
-1.7297
 20
23.5209
 30
0.0
  0
SPLINE
  5
131
330
1F
100
AcDbEntity
  8
DEFAULT_1
 62
   250
100
AcDbSpline
210
0.0
220
0.0
230
1.0
 70
    11
 71
     3
 72
    16
 73
    12
 74
     0
 42
0.0000000001
 43
0.0000000001
 40
0.0
 40
0.0
 40
0.0
 40
0.0
 40
0.25
 40
0.25
 40
0.25
 40
0.25
 40
0.5
 40
0.5
 40
0.5
 40
0.5
 40
1.0
 40
1.0
 40
1.0
 40
1.0
 10
-1.7297
 20
24.2321
 30
0.0
 10
-1.7297
 20
24.2321
 30
0.0
 10
-1.7297
 20
25.1428
 30
0.0
 10
-1.7297
 20
25.1428
 30
0.0
 10
-1.7297
 20
25.1428
 30
0.0
 10
-1.7297
 20
25.1428
 30
0.0
 10
-2.3619
 20
24.2321
 30
0.0
 10
-2.3619
 20
24.2321
 30
0.0
 10
-2.3619
 20
24.2321
 30
0.0
 10
-2.3619
 20
24.2321
 30
0.0
 10
-1.7297
 20
24.2321
 30
0.0
 10
-1.7297
 20
24.2321
 30
0.0
  0
SPLINE
  5
132
330
1F
100
AcDbEntity
  8
DEFAULT_1
 62
   250
100
AcDbSpline
210
0.0
220
0.0
230
1.0
 70
    11
 71
     3
 72
    28
 73
    24
 74
     0
 42
0.0000000001
 43
0.0000000001
 40
0.0
 40
0.0
 40
0.0
 40
0.0
 40
0.1428571428571428
 40
0.1428571428571428
 40
0.1428571428571428
 40
0.1428571428571428
 40
0.2857142857142857
 40
0.2857142857142857
 40
0.2857142857142857
 40
0.2857142857142857
 40
0.4285714285714285
 40
0.4285714285714285
 40
0.4285714285714285
 40
0.4285714285714285
 40
0.5714285714285714
 40
0.5714285714285714
 40
0.5714285714285714
 40
0.5714285714285714
 40
0.7142857142857143
 40
0.7142857142857143
 40
0.7142857142857143
 40
0.7142857142857143
 40
1.0
 40
1.0
 40
1.0
 40
1.0
 10
-0.8736
 20
24.8257
 30
0.0
 10
-0.8736
 20
24.8257
 30
0.0
 10
-0.9429
 20
25.2104
 30
0.0
 10
-0.9429
 20
25.2104
 30
0.0
 10
-0.9429
 20
25.2104
 30
0.0
 10
-0.9429
 20
25.2104
 30
0.0
 10
-0.9429
 20
25.5411
 30
0.0
 10
-0.9429
 20
25.5411
 30
0.0
 10
-0.9429
 20
25.5411
 30
0.0
 10
-0.9429
 20
25.5411
 30
0.0
 10
-0.6601
 20
25.5411
 30
0.0
 10
-0.6601
 20
25.5411
 30
0.0
 10
-0.6601
 20
25.5411
 30
0.0
 10
-0.6601
 20
25.5411
 30
0.0
 10
-0.6601
 20
25.2104
 30
0.0
 10
-0.6601
 20
25.2104
 30
0.0
 10
-0.6601
 20
25.2104
 30
0.0
 10
-0.6601
 20
25.2104
 30
0.0
 10
-0.7222
 20
24.8257
 30
0.0
 10
-0.7222
 20
24.8257
 30
0.0
 10
-0.7222
 20
24.8257
 30
0.0
 10
-0.7222
 20
24.8257
 30
0.0
 10
-0.8736
 20
24.8257
 30
0.0
 10
-0.8736
 20
24.8257
 30
0.0
  0
SPLINE
  5
133
330
1F
100
AcDbEntity
  8
DEFAULT_1
 62
   250
100
AcDbSpline
210
0.0
220
0.0
230
1.0
 70
    11
 71
     3
 72
    28
 73
    24
 74
     0
 42
0.0000000001
 43
0.0000000001
 40
0.0
 40
0.0
 40
0.0
 40
0.0
 40
0.1428571428571428
 40
0.1428571428571428
 40
0.1428571428571428
 40
0.1428571428571428
 40
0.2857142857142857
 40
0.2857142857142857
 40
0.2857142857142857
 40
0.2857142857142857
 40
0.4285714285714285
 40
0.4285714285714285
 40
0.4285714285714285
 40
0.4285714285714285
 40
0.5714285714285714
 40
0.5714285714285714
 40
0.5714285714285714
 40
0.5714285714285714
 40
0.7142857142857143
 40
0.7142857142857143
 40
0.7142857142857143
 40
0.7142857142857143
 40
1.0
 40
1.0
 40
1.0
 40
1.0
 10
-0.4175
 20
24.8257
 30
0.0
 10
-0.4175
 20
24.8257
 30
0.0
 10
-0.4851
 20
25.2104
 30
0.0
 10
-0.4851
 20
25.2104
 30
0.0
 10
-0.4851
 20
25.2104
 30
0.0
 10
-0.4851
 20
25.2104
 30
0.0
 10
-0.4851
 20
25.5411
 30
0.0
 10
-0.4851
 20
25.5411
 30
0.0
 10
-0.4851
 20
25.5411
 30
0.0
 10
-0.4851
 20
25.5411
 30
0.0
 10
-0.2024
 20
25.5411
 30
0.0
 10
-0.2024
 20
25.5411
 30
0.0
 10
-0.2024
 20
25.5411
 30
0.0
 10
-0.2024
 20
25.5411
 30
0.0
 10
-0.2024
 20
25.2104
 30
0.0
 10
-0.2024
 20
25.2104
 30
0.0
 10
-0.2024
 20
25.2104
 30
0.0
 10
-0.2024
 20
25.2104
 30
0.0
 10
-0.2688
 20
24.8257
 30
0.0
 10
-0.2688
 20
24.8257
 30
0.0
 10
-0.2688
 20
24.8257
 30
0.0
 10
-0.2688
 20
24.8257
 30
0.0
 10
-0.4175
 20
24.8257
 30
0.0
 10
-0.4175
 20
24.8257
 30
0.0
  0
SPLINE
  5
134
330
1F
100
AcDbEntity
  8
DEFAULT_1
 62
   250
100
AcDbSpline
210
0.0
220
0.0
230
1.0
 70
    11
 71
     3
 72
    40
 73
    36
 74
     0
 42
0.0000000001
 43
0.0000000001
 40
0.0
 40
0.0
 40
0.0
 40
0.0
 40
0.1
 40
0.1
 40
0.1
 40
0.1
 40
0.2
 40
0.2
 40
0.2
 40
0.2
 40
0.3
 40
0.3
 40
0.3
 40
0.3
 40
0.4
 40
0.4
 40
0.4
 40
0.4
 40
0.5
 40
0.5
 40
0.5
 40
0.5
 40
0.6
 40
0.6
 40
0.6
 40
0.6
 40
0.7
 40
0.7
 40
0.7
 40
0.7
 40
0.8
 40
0.8
 40
0.8
 40
0.8
 40
1.0
 40
1.0
 40
1.0
 40
1.0
 10
-5.5827
 20
28.4295
 30
0.0
 10
-5.5827
 20
28.4295
 30
0.0
 10
-5.8305
 20
28.4295
 30
0.0
 10
-5.8305
 20
28.4295
 30
0.0
 10
-5.8305
 20
28.4295
 30
0.0
 10
-5.8305
 20
28.4295
 30
0.0
 10
-5.8305
 20
30.0099
 30
0.0
 10
-5.8305
 20
30.0099
 30
0.0
 10
-5.8305
 20
30.0099
 30
0.0
 10
-5.8903
 20
29.953
 30
0.0
 10
-5.9683
 20
29.8961
 30
0.0
 10
-6.0652
 20
29.8392
 30
0.0
 10
-6.0652
 20
29.8392
 30
0.0
 10
-6.1626
 20
29.7822
 30
0.0
 10
-6.2496
 20
29.7395
 30
0.0
 10
-6.3267
 20
29.7113
 30
0.0
 10
-6.3267
 20
29.7113
 30
0.0
 10
-6.3267
 20
29.7113
 30
0.0
 10
-6.3267
 20
29.9507
 30
0.0
 10
-6.3267
 20
29.9507
 30
0.0
 10
-6.3267
 20
29.9507
 30
0.0
 10
-6.188
 20
30.0161
 30
0.0
 10
-6.0667
 20
30.095
 30
0.0
 10
-5.9627
 20
30.1877
 30
0.0
 10
-5.9627
 20
30.1877
 30
0.0
 10
-5.8592
 20
30.2809
 30
0.0
 10
-5.7854
 20
30.3707
 30
0.0
 10
-5.7421
 20
30.4582
 30
0.0
 10
-5.7421
 20
30.4582
 30
0.0
 10
-5.7421
 20
30.4582
 30
0.0
 10
-5.5827
 20
30.4582
 30
0.0
 10
-5.5827
 20
30.4582
 30
0.0
 10
-5.5827
 20
30.4582
 30
0.0
 10
-5.5827
 20
30.4582
 30
0.0
 10
-5.5827
 20
28.4295
 30
0.0
 10
-5.5827
 20
28.4295
 30
0.0
  0
SPLINE
  5
135
330
1F
100
AcDbEntity
  8
DEFAULT_1
 62
   250
100
AcDbSpline
210
0.0
220
0.0
230
1.0
 70
    11
 71
     3
 72
    92
 73
    88
 74
     0
 42
0.0000000001
 43
0.0000000001
 40
0.0
 40
0.0
 40
0.0
 40
0.0
 40
0.0434782608695652
 40
0.0434782608695652
 40
0.0434782608695652
 40
0.0434782608695652
 40
0.0869565217391304
 40
0.0869565217391304
 40
0.0869565217391304
 40
0.0869565217391304
 40
0.1304347826086956
 40
0.1304347826086956
 40
0.1304347826086956
 40
0.1304347826086956
 40
0.1739130434782609
 40
0.1739130434782609
 40
0.1739130434782609
 40
0.1739130434782609
 40
0.2173913043478261
 40
0.2173913043478261
 40
0.2173913043478261
 40
0.2173913043478261
 40
0.2608695652173913
 40
0.2608695652173913
 40
0.2608695652173913
 40
0.2608695652173913
 40
0.3043478260869565
 40
0.3043478260869565
 40
0.3043478260869565
 40
0.3043478260869565
 40
0.3478260869565217
 40
0.3478260869565217
 40
0.3478260869565217
 40
0.3478260869565217
 40
0.391304347826087
 40
0.391304347826087
 40
0.391304347826087
 40
0.391304347826087
 40
0.4347826086956522
 40
0.4347826086956522
 40
0.4347826086956522
 40
0.4347826086956522
 40
0.4782608695652174
 40
0.4782608695652174
 40
0.4782608695652174
 40
0.4782608695652174
 40
0.5217391304347826
 40
0.5217391304347826
 40
0.5217391304347826
 40
0.5217391304347826
 40
0.5652173913043478
 40
0.5652173913043478
 40
0.5652173913043478
 40
0.5652173913043478
 40
0.6086956521739131
 40
0.6086956521739131
 40
0.6086956521739131
 40
0.6086956521739131
 40
0.6521739130434783
 40
0.6521739130434783
 40
0.6521739130434783
 40
0.6521739130434783
 40
0.6956521739130435
 40
0.6956521739130435
 40
0.6956521739130435
 40
0.6956521739130435
 40
0.7391304347826086
 40
0.7391304347826086
 40
0.7391304347826086
 40
0.7391304347826086
 40
0.782608695652174
 40
0.782608695652174
 40
0.782608695652174
 40
0.782608695652174
 40
0.8260869565217391
 40
0.8260869565217391
 40
0.8260869565217391
 40
0.8260869565217391
 40
0.8695652173913043
 40
0.8695652173913043
 40
0.8695652173913043
 40
0.8695652173913043
 40
0.9130434782608695
 40
0.9130434782608695
 40
0.9130434782608695
 40
0.9130434782608695
 40
1.0
 40
1.0
 40
1.0
 40
1.0
 10
-4.91
 20
28.8966
 30
0.0
 10
-4.91
 20
28.8966
 30
0.0
 10
-4.6715
 20
28.9187
 30
0.0
 10
-4.6715
 20
28.9187
 30
0.0
 10
-4.6715
 20
28.9187
 30
0.0
 10
-4.6514
 20
28.8067
 30
0.0
 10
-4.6128
 20
28.7253
 30
0.0
 10
-4.5559
 20
28.6745
 30
0.0
 10
-4.5559
 20
28.6745
 30
0.0
 10
-4.4989
 20
28.6242
 30
0.0
 10
-4.426
 20
28.5989
 30
0.0
 10
-4.3366
 20
28.5989
 30
0.0
 10
-4.3366
 20
28.5989
 30
0.0
 10
-4.2605
 20
28.5989
 30
0.0
 10
-4.1936
 20
28.6163
 30
0.0
 10
-4.1363
 20
28.6515
 30
0.0
 10
-4.1363
 20
28.6515
 30
0.0
 10
-4.0789
 20
28.6863
 30
0.0
 10
-4.0319
 20
28.7329
 30
0.0
 10
-3.9952
 20
28.7912
 30
0.0
 10
-3.9952
 20
28.7912
 30
0.0
 10
-3.958
 20
28.8496
 30
0.0
 10
-3.9274
 20
28.9285
 30
0.0
 10
-3.9025
 20
29.0273
 30
0.0
 10
-3.9025
 20
29.0273
 30
0.0
 10
-3.878
 20
29.1266
 30
0.0
 10
-3.8653
 20
29.2277
 30
0.0
 10
-3.8653
 20
29.3307
 30
0.0
 10
-3.8653
 20
29.3307
 30
0.0
 10
-3.8653
 20
29.3416
 30
0.0
 10
-3.8658
 20
29.3584
 30
0.0
 10
-3.8668
 20
29.3801
 30
0.0
 10
-3.8668
 20
29.3801
 30
0.0
 10
-3.9166
 20
29.3015
 30
0.0
 10
-3.9843
 20
29.2371
 30
0.0
 10
-4.07
 20
29.1882
 30
0.0
 10
-4.07
 20
29.1882
 30
0.0
 10
-4.1561
 20
29.1388
 30
0.0
 10
-4.2492
 20
29.1144
 30
0.0
 10
-4.3489
 20
29.1144
 30
0.0
 10
-4.3489
 20
29.1144
 30
0.0
 10
-4.5163
 20
29.1144
 30
0.0
 10
-4.6579
 20
29.175
 30
0.0
 10
-4.7737
 20
29.2964
 30
0.0
 10
-4.7737
 20
29.2964
 30
0.0
 10
-4.8893
 20
29.4177
 30
0.0
 10
-4.9472
 20
29.5772
 30
0.0
 10
-4.9472
 20
29.7757
 30
0.0
 10
-4.9472
 20
29.7757
 30
0.0
 10
-4.9472
 20
29.9808
 30
0.0
 10
-4.887
 20
30.1454
 30
0.0
 10
-4.7661
 20
30.2705
 30
0.0
 10
-4.7661
 20
30.2705
 30
0.0
 10
-4.6453
 20
30.3956
 30
0.0
 10
-4.4938
 20
30.4582
 30
0.0
 10
-4.3117
 20
30.4582
 30
0.0
 10
-4.3117
 20
30.4582
 30
0.0
 10
-4.1805
 20
30.4582
 30
0.0
 10
-4.0606
 20
30.4224
 30
0.0
 10
-3.9514
 20
30.3518
 30
0.0
 10
-3.9514
 20
30.3518
 30
0.0
 10
-3.8428
 20
30.2814
 30
0.0
 10
-3.76
 20
30.1802
 30
0.0
 10
-3.7035
 20
30.0494
 30
0.0
 10
-3.7035
 20
30.0494
 30
0.0
 10
-3.6471
 20
29.9187
 30
0.0
 10
-3.6188
 20
29.7292
 30
0.0
 10
-3.6188
 20
29.4807
 30
0.0
 10
-3.6188
 20
29.4807
 30
0.0
 10
-3.6188
 20
29.223
 30
0.0
 10
-3.6466
 20
29.0174
 30
0.0
 10
-3.7026
 20
28.8641
 30
0.0
 10
-3.7026
 20
28.8641
 30
0.0
 10
-3.759
 20
28.7112
 30
0.0
 10
-3.8423
 20
28.595
 30
0.0
 10
-3.9528
 20
28.5151
 30
0.0
 10
-3.9528
 20
28.5151
 30
0.0
 10
-4.0639
 20
28.4352
 30
0.0
 10
-4.1932
 20
28.3951
 30
0.0
 10
-4.3423
 20
28.3951
 30
0.0
 10
-4.3423
 20
28.3951
 30
0.0
 10
-4.5003
 20
28.3951
 30
0.0
 10
-4.6292
 20
28.4389
 30
0.0
 10
-4.7294
 20
28.5269
 30
0.0
 10
-4.7294
 20
28.5269
 30
0.0
 10
-4.8296
 20
28.6144
 30
0.0
 10
-4.8898
 20
28.7376
 30
0.0
 10
-4.91
 20
28.8966
 30
0.0
  0
SPLINE
  5
136
330
1F
100
AcDbEntity
  8
DEFAULT_1
 62
   250
100
AcDbSpline
210
0.0
220
0.0
230
1.0
 70
    11
 71
     3
 72
    36
 73
    32
 74
     0
 42
0.0000000001
 43
0.0000000001
 40
0.0
 40
0.0
 40
0.0
 40
0.0
 40
0.1111111111111111
 40
0.1111111111111111
 40
0.1111111111111111
 40
0.1111111111111111
 40
0.2222222222222222
 40
0.2222222222222222
 40
0.2222222222222222
 40
0.2222222222222222
 40
0.3333333333333333
 40
0.3333333333333333
 40
0.3333333333333333
 40
0.3333333333333333
 40
0.4444444444444444
 40
0.4444444444444444
 40
0.4444444444444444
 40
0.4444444444444444
 40
0.5555555555555556
 40
0.5555555555555556
 40
0.5555555555555556
 40
0.5555555555555556
 40
0.6666666666666666
 40
0.6666666666666666
 40
0.6666666666666666
 40
0.6666666666666666
 40
0.7777777777777778
 40
0.7777777777777778
 40
0.7777777777777778
 40
0.7777777777777778
 40
1.0
 40
1.0
 40
1.0
 40
1.0
 10
-3.8945
 20
29.7883
 30
0.0
 10
-3.8945
 20
29.9304
 30
0.0
 10
-3.9321
 20
30.0438
 30
0.0
 10
-4.0079
 20
30.127
 30
0.0
 10
-4.0079
 20
30.127
 30
0.0
 10
-4.084
 20
30.2108
 30
0.0
 10
-4.1749
 20
30.2526
 30
0.0
 10
-4.2816
 20
30.2526
 30
0.0
 10
-4.2816
 20
30.2526
 30
0.0
 10
-4.3917
 20
30.2526
 30
0.0
 10
-4.4877
 20
30.2075
 30
0.0
 10
-4.5695
 20
30.1177
 30
0.0
 10
-4.5695
 20
30.1177
 30
0.0
 10
-4.6514
 20
30.0274
 30
0.0
 10
-4.6922
 20
29.9106
 30
0.0
 10
-4.6922
 20
29.7677
 30
0.0
 10
-4.6922
 20
29.7677
 30
0.0
 10
-4.6922
 20
29.6388
 30
0.0
 10
-4.6532
 20
29.5344
 30
0.0
 10
-4.5756
 20
29.4539
 30
0.0
 10
-4.5756
 20
29.4539
 30
0.0
 10
-4.498
 20
29.3735
 30
0.0
 10
-4.4025
 20
29.3335
 30
0.0
 10
-4.2887
 20
29.3335
 30
0.0
 10
-4.2887
 20
29.3335
 30
0.0
 10
-4.1734
 20
29.3335
 30
0.0
 10
-4.0794
 20
29.3735
 30
0.0
 10
-4.0055
 20
29.4539
 30
0.0
 10
-4.0055
 20
29.4539
 30
0.0
 10
-3.9312
 20
29.5344
 30
0.0
 10
-3.8945
 20
29.6459
 30
0.0
 10
-3.8945
 20
29.7883
 30
0.0
  0
SPLINE
  5
137
330
1F
100
AcDbEntity
  8
DEFAULT_1
 62
   250
100
AcDbSpline
210
0.0
220
0.0
230
1.0
 70
    11
 71
     3
 72
    52
 73
    48
 74
     0
 42
0.0000000001
 43
0.0000000001
 40
0.0
 40
0.0
 40
0.0
 40
0.0
 40
0.0769230769230769
 40
0.0769230769230769
 40
0.0769230769230769
 40
0.0769230769230769
 40
0.1538461538461539
 40
0.1538461538461539
 40
0.1538461538461539
 40
0.1538461538461539
 40
0.2307692307692308
 40
0.2307692307692308
 40
0.2307692307692308
 40
0.2307692307692308
 40
0.3076923076923077
 40
0.3076923076923077
 40
0.3076923076923077
 40
0.3076923076923077
 40
0.3846153846153846
 40
0.3846153846153846
 40
0.3846153846153846
 40
0.3846153846153846
 40
0.4615384615384616
 40
0.4615384615384616
 40
0.4615384615384616
 40
0.4615384615384616
 40
0.5384615384615384
 40
0.5384615384615384
 40
0.5384615384615384
 40
0.5384615384615384
 40
0.6153846153846154
 40
0.6153846153846154
 40
0.6153846153846154
 40
0.6153846153846154
 40
0.6923076923076923
 40
0.6923076923076923
 40
0.6923076923076923
 40
0.6923076923076923
 40
0.7692307692307693
 40
0.7692307692307693
 40
0.7692307692307693
 40
0.7692307692307693
 40
0.8461538461538461
 40
0.8461538461538461
 40
0.8461538461538461
 40
0.8461538461538461
 40
1.0
 40
1.0
 40
1.0
 40
1.0
 10
-3.3776
 20
29.4257
 30
0.0
 10
-3.3776
 20
29.6647
 30
0.0
 10
-3.3532
 20
29.8571
 30
0.0
 10
-3.3037
 20
30.0024
 30
0.0
 10
-3.3037
 20
30.0024
 30
0.0
 10
-3.2549
 20
30.1482
 30
0.0
 10
-3.1814
 20
30.2606
 30
0.0
 10
-3.0846
 20
30.3396
 30
0.0
 10
-3.0846
 20
30.3396
 30
0.0
 10
-2.9877
 20
30.4187
 30
0.0
 10
-2.8658
 20
30.4582
 30
0.0
 10
-2.7191
 20
30.4582
 30
0.0
 10
-2.7191
 20
30.4582
 30
0.0
 10
-2.6105
 20
30.4582
 30
0.0
 10
-2.5154
 20
30.4361
 30
0.0
 10
-2.4335
 20
30.3923
 30
0.0
 10
-2.4335
 20
30.3923
 30
0.0
 10
-2.3517
 20
30.349
 30
0.0
 10
-2.2844
 20
30.286
 30
0.0
 10
-2.2308
 20
30.2037
 30
0.0
 10
-2.2308
 20
30.2037
 30
0.0
 10
-2.1777
 20
30.1214
 30
0.0
 10
-2.1359
 20
30.0213
 30
0.0
 10
-2.1057
 20
29.9032
 30
0.0
 10
-2.1057
 20
29.9032
 30
0.0
 10
-2.0751
 20
29.7851
 30
0.0
 10
-2.0601
 20
29.6261
 30
0.0
 10
-2.0601
 20
29.4257
 30
0.0
 10
-2.0601
 20
29.4257
 30
0.0
 10
-2.0601
 20
29.1886
 30
0.0
 10
-2.0845
 20
28.9977
 30
0.0
 10
-2.133
 20
28.8519
 30
0.0
 10
-2.133
 20
28.8519
 30
0.0
 10
-2.1819
 20
28.7061
 30
0.0
 10
-2.2548
 20
28.5937
 30
0.0
 10
-2.3517
 20
28.5141
 30
0.0
 10
-2.3517
 20
28.5141
 30
0.0
 10
-2.4486
 20
28.4347
 30
0.0
 10
-2.5709
 20
28.3951
 30
0.0
 10
-2.7191
 20
28.3951
 30
0.0
 10
-2.7191
 20
28.3951
 30
0.0
 10
-2.9138
 20
28.3951
 30
0.0
 10
-3.0667
 20
28.4648
 30
0.0
 10
-3.1777
 20
28.6045
 30
0.0
 10
-3.1777
 20
28.6045
 30
0.0
 10
-3.3108
 20
28.7724
 30
0.0
 10
-3.3776
 20
29.0466
 30
0.0
 10
-3.3776
 20
29.4257
 30
0.0
  0
SPLINE
  5
138
330
1F
100
AcDbEntity
  8
DEFAULT_1
 62
   250
100
AcDbSpline
210
0.0
220
0.0
230
1.0
 70
    11
 71
     3
 72
    36
 73
    32
 74
     0
 42
0.0000000001
 43
0.0000000001
 40
0.0
 40
0.0
 40
0.0
 40
0.0
 40
0.1111111111111111
 40
0.1111111111111111
 40
0.1111111111111111
 40
0.1111111111111111
 40
0.2222222222222222
 40
0.2222222222222222
 40
0.2222222222222222
 40
0.2222222222222222
 40
0.3333333333333333
 40
0.3333333333333333
 40
0.3333333333333333
 40
0.3333333333333333
 40
0.4444444444444444
 40
0.4444444444444444
 40
0.4444444444444444
 40
0.4444444444444444
 40
0.5555555555555556
 40
0.5555555555555556
 40
0.5555555555555556
 40
0.5555555555555556
 40
0.6666666666666666
 40
0.6666666666666666
 40
0.6666666666666666
 40
0.6666666666666666
 40
0.7777777777777778
 40
0.7777777777777778
 40
0.7777777777777778
 40
0.7777777777777778
 40
1.0
 40
1.0
 40
1.0
 40
1.0
 10
-3.1226
 20
29.4257
 30
0.0
 10
-3.1226
 20
29.0941
 30
0.0
 10
-3.0836
 20
28.8735
 30
0.0
 10
-3.006
 20
28.7635
 30
0.0
 10
-3.006
 20
28.7635
 30
0.0
 10
-2.9284
 20
28.6538
 30
0.0
 10
-2.8329
 20
28.5989
 30
0.0
 10
-2.7191
 20
28.5989
 30
0.0
 10
-2.7191
 20
28.5989
 30
0.0
 10
-2.6048
 20
28.5989
 30
0.0
 10
-2.5093
 20
28.6543
 30
0.0
 10
-2.4317
 20
28.7644
 30
0.0
 10
-2.4317
 20
28.7644
 30
0.0
 10
-2.3541
 20
28.8745
 30
0.0
 10
-2.3151
 20
29.0951
 30
0.0
 10
-2.3151
 20
29.4257
 30
0.0
 10
-2.3151
 20
29.4257
 30
0.0
 10
-2.3151
 20
29.7582
 30
0.0
 10
-2.3541
 20
29.9794
 30
0.0
 10
-2.4317
 20
30.0885
 30
0.0
 10
-2.4317
 20
30.0885
 30
0.0
 10
-2.5093
 20
30.1981
 30
0.0
 10
-2.6057
 20
30.2526
 30
0.0
 10
-2.7214
 20
30.2526
 30
0.0
 10
-2.7214
 20
30.2526
 30
0.0
 10
-2.8357
 20
30.2526
 30
0.0
 10
-2.9265
 20
30.2042
 30
0.0
 10
-2.9947
 20
30.1078
 30
0.0
 10
-2.9947
 20
30.1078
 30
0.0
 10
-3.0799
 20
29.985
 30
0.0
 10
-3.1226
 20
29.7573
 30
0.0
 10
-3.1226
 20
29.4257
 30
0.0
  0
SPLINE
  5
139
330
1F
100
AcDbEntity
  8
DEFAULT_1
 62
   250
100
AcDbSpline
210
0.0
220
0.0
230
1.0
 70
    11
 71
     3
 72
    20
 73
    16
 74
     0
 42
0.0000000001
 43
0.0000000001
 40
0.0
 40
0.0
 40
0.0
 40
0.0
 40
0.2
 40
0.2
 40
0.2
 40
0.2
 40
0.4
 40
0.4
 40
0.4
 40
0.4
 40
0.6
 40
0.6
 40
0.6
 40
0.6
 40
1.0
 40
1.0
 40
1.0
 40
1.0
 10
12.5881
 20
2.1846
 30
0.0
 10
12.5881
 20
2.1846
 30
0.0
 10
13.0214
 20
5.2543
 30
0.0
 10
13.0214
 20
5.2543
 30
0.0
 10
13.0214
 20
5.2543
 30
0.0
 10
13.0214
 20
5.2543
 30
0.0
 10
13.1176
 20
5.2543
 30
0.0
 10
13.1176
 20
5.2543
 30
0.0
 10
13.1176
 20
5.2543
 30
0.0
 10
13.1176
 20
5.2543
 30
0.0
 10
13.5797
 20
2.1846
 30
0.0
 10
13.5797
 20
2.1846
 30
0.0
 10
13.5797
 20
2.1846
 30
0.0
 10
13.5797
 20
2.1846
 30
0.0
 10
12.5881
 20
2.1846
 30
0.0
 10
12.5881
 20
2.1846
 30
0.0
  0
SPLINE
  5
13A
330
1F
100
AcDbEntity
  8
DEFAULT_1
 62
   250
100
AcDbSpline
210
0.0
220
0.0
230
1.0
 70
    11
 71
     3
 72
    20
 73
    16
 74
     0
 42
0.0000000001
 43
0.0000000001
 40
0.0
 40
0.0
 40
0.0
 40
0.0
 40
0.2
 40
0.2
 40
0.2
 40
0.2
 40
0.4
 40
0.4
 40
0.4
 40
0.4
 40
0.6
 40
0.6
 40
0.6
 40
0.6
 40
1.0
 40
1.0
 40
1.0
 40
1.0
 10
-11.2463
 20
-29.3485
 30
0.0
 10
-11.2463
 20
-29.3485
 30
0.0
 10
-8.1765
 20
-29.7817
 30
0.0
 10
-8.1765
 20
-29.7817
 30
0.0
 10
-8.1765
 20
-29.7817
 30
0.0
 10
-8.1765
 20
-29.7817
 30
0.0
 10
-8.1765
 20
-29.8779
 30
0.0
 10
-8.1765
 20
-29.8779
 30
0.0
 10
-8.1765
 20
-29.8779
 30
0.0
 10
-8.1765
 20
-29.8779
 30
0.0
 10
-11.2463
 20
-30.34
 30
0.0
 10
-11.2463
 20
-30.34
 30
0.0
 10
-11.2463
 20
-30.34
 30
0.0
 10
-11.2463
 20
-30.34
 30
0.0
 10
-11.2463
 20
-29.3485
 30
0.0
 10
-11.2463
 20
-29.3485
 30
0.0
  0
SPLINE
  5
13B
330
1F
100
AcDbEntity
  8
DEFAULT_1
 62
   250
100
AcDbSpline
210
0.0
220
0.0
230
1.0
 70
    11
 71
     3
 72
    20
 73
    16
 74
     0
 42
0.0000000001
 43
0.0000000001
 40
0.0
 40
0.0
 40
0.0
 40
0.0
 40
0.2
 40
0.2
 40
0.2
 40
0.2
 40
0.4
 40
0.4
 40
0.4
 40
0.4
 40
0.6
 40
0.6
 40
0.6
 40
0.6
 40
1.0
 40
1.0
 40
1.0
 40
1.0
 10
1.9979
 20
-30.2963
 30
0.0
 10
1.9979
 20
-30.2963
 30
0.0
 10
-1.0719
 20
-29.8631
 30
0.0
 10
-1.0719
 20
-29.8631
 30
0.0
 10
-1.0719
 20
-29.8631
 30
0.0
 10
-1.0719
 20
-29.8631
 30
0.0
 10
-1.0719
 20
-29.7668
 30
0.0
 10
-1.0719
 20
-29.7668
 30
0.0
 10
-1.0719
 20
-29.7668
 30
0.0
 10
-1.0719
 20
-29.7668
 30
0.0
 10
1.9979
 20
-29.3048
 30
0.0
 10
1.9979
 20
-29.3048
 30
0.0
 10
1.9979
 20
-29.3048
 30
0.0
 10
1.9979
 20
-29.3048
 30
0.0
 10
1.9979
 20
-30.2963
 30
0.0
 10
1.9979
 20
-30.2963
 30
0.0
  0
SPLINE
  5
13C
330
1F
100
AcDbEntity
  8
DEFAULT_1
 62
   250
100
AcDbSpline
210
0.0
220
0.0
230
1.0
 70
    11
 71
     3
 72
    20
 73
    16
 74
     0
 42
0.0000000001
 43
0.0000000001
 40
0.0
 40
0.0
 40
0.0
 40
0.0
 40
0.2
 40
0.2
 40
0.2
 40
0.2
 40
0.4
 40
0.4
 40
0.4
 40
0.4
 40
0.6
 40
0.6
 40
0.6
 40
0.6
 40
1.0
 40
1.0
 40
1.0
 40
1.0
 10
-11.9611
 20
23.4252
 30
0.0
 10
-11.9611
 20
23.4252
 30
0.0
 10
-8.8913
 20
22.992
 30
0.0
 10
-8.8913
 20
22.992
 30
0.0
 10
-8.8913
 20
22.992
 30
0.0
 10
-8.8913
 20
22.992
 30
0.0
 10
-8.8913
 20
22.8957
 30
0.0
 10
-8.8913
 20
22.8957
 30
0.0
 10
-8.8913
 20
22.8957
 30
0.0
 10
-8.8913
 20
22.8957
 30
0.0
 10
-11.9611
 20
22.4337
 30
0.0
 10
-11.9611
 20
22.4337
 30
0.0
 10
-11.9611
 20
22.4337
 30
0.0
 10
-11.9611
 20
22.4337
 30
0.0
 10
-11.9611
 20
23.4252
 30
0.0
 10
-11.9611
 20
23.4252
 30
0.0
  0
SPLINE
  5
13D
330
1F
100
AcDbEntity
  8
DEFAULT_1
 62
   250
100
AcDbSpline
210
0.0
220
0.0
230
1.0
 70
    11
 71
     3
 72
    20
 73
    16
 74
     0
 42
0.0000000001
 43
0.0000000001
 40
0.0
 40
0.0
 40
0.0
 40
0.0
 40
0.2
 40
0.2
 40
0.2
 40
0.2
 40
0.4
 40
0.4
 40
0.4
 40
0.4
 40
0.6
 40
0.6
 40
0.6
 40
0.6
 40
1.0
 40
1.0
 40
1.0
 40
1.0
 10
2.6685
 20
22.4549
 30
0.0
 10
2.6685
 20
22.4549
 30
0.0
 10
-0.4012
 20
22.8882
 30
0.0
 10
-0.4012
 20
22.8882
 30
0.0
 10
-0.4012
 20
22.8882
 30
0.0
 10
-0.4012
 20
22.8882
 30
0.0
 10
-0.4012
 20
22.9844
 30
0.0
 10
-0.4012
 20
22.9844
 30
0.0
 10
-0.4012
 20
22.9844
 30
0.0
 10
-0.4012
 20
22.9844
 30
0.0
 10
2.6685
 20
23.4465
 30
0.0
 10
2.6685
 20
23.4465
 30
0.0
 10
2.6685
 20
23.4465
 30
0.0
 10
2.6685
 20
23.4465
 30
0.0
 10
2.6685
 20
22.4549
 30
0.0
 10
2.6685
 20
22.4549
 30
0.0
  0
SPLINE
  5
13E
330
1F
100
AcDbEntity
  8
DEFAULT_1
 62
   250
100
AcDbSpline
210
0.0
220
0.0
230
1.0
 70
    11
 71
     3
 72
    20
 73
    16
 74
     0
 42
0.0000000001
 43
0.0000000001
 40
0.0
 40
0.0
 40
0.0
 40
0.0
 40
0.2
 40
0.2
 40
0.2
 40
0.2
 40
0.4
 40
0.4
 40
0.4
 40
0.4
 40
0.6
 40
0.6
 40
0.6
 40
0.6
 40
1.0
 40
1.0
 40
1.0
 40
1.0
 10
8.3104
 20
28.4396
 30
0.0
 10
8.3104
 20
28.4396
 30
0.0
 10
11.3802
 20
28.0064
 30
0.0
 10
11.3802
 20
28.0064
 30
0.0
 10
11.3802
 20
28.0064
 30
0.0
 10
11.3802
 20
28.0064
 30
0.0
 10
11.3802
 20
27.9102
 30
0.0
 10
11.3802
 20
27.9102
 30
0.0
 10
11.3802
 20
27.9102
 30
0.0
 10
11.3802
 20
27.9102
 30
0.0
 10
8.3104
 20
27.4481
 30
0.0
 10
8.3104
 20
27.4481
 30
0.0
 10
8.3104
 20
27.4481
 30
0.0
 10
8.3104
 20
27.4481
 30
0.0
 10
8.3104
 20
28.4396
 30
0.0
 10
8.3104
 20
28.4396
 30
0.0
  0
SPLINE
  5
13F
330
1F
100
AcDbEntity
  8
DEFAULT_1
 62
   250
100
AcDbSpline
210
0.0
220
0.0
230
1.0
 70
    11
 71
     3
 72
    20
 73
    16
 74
     0
 42
0.0000000001
 43
0.0000000001
 40
0.0
 40
0.0
 40
0.0
 40
0.0
 40
0.2
 40
0.2
 40
0.2
 40
0.2
 40
0.4
 40
0.4
 40
0.4
 40
0.4
 40
0.6
 40
0.6
 40
0.6
 40
0.6
 40
1.0
 40
1.0
 40
1.0
 40
1.0
 10
-17.7121
 20
27.5373
 30
0.0
 10
-17.7121
 20
27.5373
 30
0.0
 10
-20.7818
 20
27.9706
 30
0.0
 10
-20.7818
 20
27.9706
 30
0.0
 10
-20.7818
 20
27.9706
 30
0.0
 10
-20.7818
 20
27.9706
 30
0.0
 10
-20.7818
 20
28.0668
 30
0.0
 10
-20.7818
 20
28.0668
 30
0.0
 10
-20.7818
 20
28.0668
 30
0.0
 10
-20.7818
 20
28.0668
 30
0.0
 10
-17.7121
 20
28.5289
 30
0.0
 10
-17.7121
 20
28.5289
 30
0.0
 10
-17.7121
 20
28.5289
 30
0.0
 10
-17.7121
 20
28.5289
 30
0.0
 10
-17.7121
 20
27.5373
 30
0.0
 10
-17.7121
 20
27.5373
 30
0.0
  0
SPLINE
  5
140
330
1F
100
AcDbEntity
  8
DEFAULT_1
 62
   250
100
AcDbSpline
210
0.0
220
0.0
230
1.0
 70
    11
 71
     3
 72
    20
 73
    16
 74
     0
 42
0.0000000001
 43
0.0000000001
 40
0.0
 40
0.0
 40
0.0
 40
0.0
 40
0.2
 40
0.2
 40
0.2
 40
0.2
 40
0.4
 40
0.4
 40
0.4
 40
0.4
 40
0.6
 40
0.6
 40
0.6
 40
0.6
 40
1.0
 40
1.0
 40
1.0
 40
1.0
 10
13.5541
 20
-22.2634
 30
0.0
 10
13.5541
 20
-22.2634
 30
0.0
 10
13.1208
 20
-25.3331
 30
0.0
 10
13.1208
 20
-25.3331
 30
0.0
 10
13.1208
 20
-25.3331
 30
0.0
 10
13.1208
 20
-25.3331
 30
0.0
 10
13.0246
 20
-25.3331
 30
0.0
 10
13.0246
 20
-25.3331
 30
0.0
 10
13.0246
 20
-25.3331
 30
0.0
 10
13.0246
 20
-25.3331
 30
0.0
 10
12.5626
 20
-22.2634
 30
0.0
 10
12.5626
 20
-22.2634
 30
0.0
 10
12.5626
 20
-22.2634
 30
0.0
 10
12.5626
 20
-22.2634
 30
0.0
 10
13.5541
 20
-22.2634
 30
0.0
 10
13.5541
 20
-22.2634
 30
0.0
  0
SPLINE
  5
141
330
1F
100
AcDbEntity
  8
DEFAULT_1
 62
   250
100
AcDbSpline
210
0.0
220
0.0
230
1.0
 70
    11
 71
     3
 72
    20
 73
    16
 74
     0
 42
0.0000000001
 43
0.0000000001
 40
0.0
 40
0.0
 40
0.0
 40
0.0
 40
0.2
 40
0.2
 40
0.2
 40
0.2
 40
0.4
 40
0.4
 40
0.4
 40
0.4
 40
0.6
 40
0.6
 40
0.6
 40
0.6
 40
1.0
 40
1.0
 40
1.0
 40
1.0
 10
21.1131
 20
-22.2434
 30
0.0
 10
21.1131
 20
-22.2434
 30
0.0
 10
20.6798
 20
-25.3132
 30
0.0
 10
20.6798
 20
-25.3132
 30
0.0
 10
20.6798
 20
-25.3132
 30
0.0
 10
20.6798
 20
-25.3132
 30
0.0
 10
20.5836
 20
-25.3132
 30
0.0
 10
20.5836
 20
-25.3132
 30
0.0
 10
20.5836
 20
-25.3132
 30
0.0
 10
20.5836
 20
-25.3132
 30
0.0
 10
20.1215
 20
-22.2434
 30
0.0
 10
20.1215
 20
-22.2434
 30
0.0
 10
20.1215
 20
-22.2434
 30
0.0
 10
20.1215
 20
-22.2434
 30
0.0
 10
21.1131
 20
-22.2434
 30
0.0
 10
21.1131
 20
-22.2434
 30
0.0
  0
SPLINE
  5
142
330
1F
100
AcDbEntity
  8
DEFAULT_1
 62
   250
100
AcDbSpline
210
0.0
220
0.0
230
1.0
 70
    11
 71
     3
 72
    20
 73
    16
 74
     0
 42
0.0000000001
 43
0.0000000001
 40
0.0
 40
0.0
 40
0.0
 40
0.0
 40
0.2
 40
0.2
 40
0.2
 40
0.2
 40
0.4
 40
0.4
 40
0.4
 40
0.4
 40
0.6
 40
0.6
 40
0.6
 40
0.6
 40
1.0
 40
1.0
 40
1.0
 40
1.0
 10
20.1928
 20
16.6337
 30
0.0
 10
20.1928
 20
16.6337
 30
0.0
 10
20.626
 20
19.7035
 30
0.0
 10
20.626
 20
19.7035
 30
0.0
 10
20.626
 20
19.7035
 30
0.0
 10
20.626
 20
19.7035
 30
0.0
 10
20.7223
 20
19.7035
 30
0.0
 10
20.7223
 20
19.7035
 30
0.0
 10
20.7223
 20
19.7035
 30
0.0
 10
20.7223
 20
19.7035
 30
0.0
 10
21.1843
 20
16.6337
 30
0.0
 10
21.1843
 20
16.6337
 30
0.0
 10
21.1843
 20
16.6337
 30
0.0
 10
21.1843
 20
16.6337
 30
0.0
 10
20.1928
 20
16.6337
 30
0.0
 10
20.1928
 20
16.6337
 30
0.0
  0
ENDSEC
  0
SECTION
  2
OBJECTS
  0
DICTIONARY
  5
C
330
0
100
AcDbDictionary
  3
ACAD_GROUP
350
D
  3
ACAD_LAYOUT
350
1A
  3
ACAD_MATERIAL
350
3B
  3
ACAD_MLEADERSTYLE
350
165
  3
ACAD_MLINESTYLE
350
17
  3
ACAD_PLOTSETTINGS
350
19
  3
ACAD_VISUALSTYLE
350
2A
  3
ACDBHEADERROUNDTRIPXREC
350
143
  3
ACDBVARIABLEDICTIONARY
350
163
  0
DICTIONARY
  5
D
102
{ACAD_REACTORS
330
C
102
}
330
C
100
AcDbDictionary
  0
DICTIONARY
  5
1A
102
{ACAD_REACTORS
330
C
102
}
330
C
100
AcDbDictionary
  0
DICTIONARY
  5
3B
102
{ACAD_REACTORS
330
C
102
}
330
C
100
AcDbDictionary
  3
BYBLOCK
350
3D
  3
BYLAYER
350
3C
  3
GLOBAL
350
3E
  0
DICTIONARY
  5
165
102
{ACAD_REACTORS
330
C
102
}
330
C
100
AcDbDictionary
  0
DICTIONARY
  5
17
102
{ACAD_REACTORS
330
C
102
}
330
C
100
AcDbDictionary
  3
STANDARD
350
18
  0
DICTIONARY
  5
19
102
{ACAD_REACTORS
330
C
102
}
330
C
100
AcDbDictionary
  0
DICTIONARY
  5
2A
102
{ACAD_REACTORS
330
C
102
}
330
C
100
AcDbDictionary
  3
2DWIREFRAME
350
2F
  3
3D_HIDDEN
350
31
  3
3DWIREFRAME
350
30
  3
BASIC
350
32
  3
BRIGHTEN
350
36
  3
COLORCHANGE
350
3A
  3
CONCEPTUAL
350
34
  3
DIM
350
35
  3
FACEPATTERN
350
39
  3
FLAT
350
2B
  3
FLATWITHEDGES
350
2C
  3
GOURAUD
350
2D
  3
GOURAUDWITHEDGES
350
2E
  3
LINEPATTERN
350
38
  3
REALISTIC
350
33
  3
THICKEN
350
37
  0
DICTIONARY
  5
143
102
{ACAD_REACTORS
330
C
102
}
330
C
100
AcDbDictionary
  3
CEPSNTYPE
350
14C
  3
DIMSTYLEDATA
350
162
  3
FINGERPRINTGUID
350
14D
  3
HYPERLINKBASE
350
146
  3
INSUNITS
350
14B
  3
LAYOUTDICT
350
148
  3
LWETCUNION
350
14A
  3
PLOTSETDICT
350
149
  3
PSVPSCALE
350
14F
  3
PUCSBASE
350
152
  3
PUCSORGBACK
350
158
  3
PUCSORGBOTTOM
350
154
  3
PUCSORGFRONT
350
157
  3
PUCSORGLEFT
350
155
  3
PUCSORGRIGHT
350
156
  3
PUCSORGTOP
350
153
  3
PUCSORTHOREF
350
150
  3
PUCSORTHOVIEW
350
151
  3
STYLESHEET
350
147
  3
TSTACKALIGN
350
144
  3
TSTACKSIZE
350
145
  3
UCSBASE
350
15B
  3
UCSORGBACK
350
161
  3
UCSORGBOTTOM
350
15D
  3
UCSORGFRONT
350
160
  3
UCSORGLEFT
350
15E
  3
UCSORGRIGHT
350
15F
  3
UCSORGTOP
350
15C
  3
UCSORTHOREF
350
159
  3
UCSORTHOVIEW
350
15A
  3
VERSIONGUID
350
14E
  0
DICTIONARY
  5
163
102
{ACAD_REACTORS
330
C
102
}
330
C
100
AcDbDictionary
  3
DIMASSOC
350
166
  3
HIDETEXT
350
167
  0
MATERIAL
  5
3D
102
{ACAD_REACTORS
330
3B
102
}
102
{ACAD_XDICTIONARY
360
16A
102
}
330
3B
100
AcDbMaterial
  1
ByBlock
  0
MATERIAL
  5
3C
102
{ACAD_REACTORS
330
3B
102
}
102
{ACAD_XDICTIONARY
360
168
102
}
330
3B
100
AcDbMaterial
  1
ByLayer
  0
MATERIAL
  5
3E
102
{ACAD_REACTORS
330
3B
102
}
102
{ACAD_XDICTIONARY
360
16C
102
}
330
3B
100
AcDbMaterial
  1
Global
  0
MLINESTYLE
  5
18
102
{ACAD_REACTORS
330
17
102
}
330
17
100
AcDbMlineStyle
  2
Standard
 70
     0
  3

 62
   256
 51
90.0
 52
90.0
 71
     2
 49
0.5
 62
   256
  6
BYLAYER
 49
-0.5
 62
   256
  6
BYLAYER
  0
ACAD_PROXY_OBJECT
  5
2F
102
{ACAD_REACTORS
330
2A
102
}
330
2A
100
AcDbProxyObject
 90
      499
 91
      501
 93
      436
310
42CC9915DA5C99599C985B595049028333333333333E3BF0000000000000FB0107901411070040501600405405064090741402480A0340
1001
ACAD
1000
AcDbSavedByObjectVersion
1070
     0
  0
ACAD_PROXY_OBJECT
  5
31
102
{ACAD_REACTORS
330
2A
102
}
330
2A
100
AcDbProxyObject
 90
      499
 91
      501
 93
      500
310
424CD108121A5919195B90640502408333333333333E3BF0000000000000FB01079024090700405020000000000001110200405405064090740C02480A0340
1001
ACAD
1000
AcDbSavedByObjectVersion
1070
     0
  0
ACAD_PROXY_OBJECT
  5
30
102
{ACAD_REACTORS
330
2A
102
}
330
2A
100
AcDbProxyObject
 90
      499
 91
      501
 93
      436
310
42CCD915DA5C99599C985B595059028333333333333E3BF0000000000000FB0107901411070040501600405405064090741402480A0340
1001
ACAD
1000
AcDbSavedByObjectVersion
1070
     0
  0
ACAD_PROXY_OBJECT
  5
32
102
{ACAD_REACTORS
330
2A
102
}
330
2A
100
AcDbProxyObject
 90
      499
 91
      501
 93
      388
310
4150985CDA58D07406404333333333333E3BF0000000000000FB0107A41107004050150841D405064090741402480A0350
1001
ACAD
1000
AcDbSavedByObjectVersion
1070
     0
  0
ACAD_PROXY_OBJECT
  5
36
102
{ACAD_REACTORS
330
2A
102
}
330
2A
100
AcDbProxyObject
 90
      499
 91
      501
 93
      428
310
42109C9A59DA1D195B90C409028333333333333E3BF0000000000000FB010790141107004050150841D405064090741402480A029950
1001
ACAD
1000
AcDbSavedByObjectVersion
1070
     0
  0
ACAD_PROXY_OBJECT
  5
3A
102
{ACAD_REACTORS
330
2A
102
}
330
2A
100
AcDbProxyObject
 90
      499
 91
      501
 93
      452
310
42D0DBDB1BDC90DA185B99D95104090240C333333333333E3BF0000000000000FB0108901411070040501508421405064090741402480A0350
1001
ACAD
1000
AcDbSavedByObjectVersion
1070
     0
  0
ACAD_PROXY_OBJECT
  5
34
102
{ACAD_REACTORS
330
2A
102
}
330
2A
100
AcDbProxyObject
 90
      499
 91
      501
 93
      500
310
4290DBDB98D95C1D1D585B10940D028333333333333E3BF0000000000000FB0107902409070040501000000000000111010841D405064090740C02480A0340
1001
ACAD
1000
AcDbSavedByObjectVersion
1070
     0
  0
ACAD_PROXY_OBJECT
  5
35
102
{ACAD_REACTORS
330
2A
102
}
330
2A
100
AcDbProxyObject
 90
      499
 91
      501
 93
      412
310
40D11A5B50B409028333333333333E3BF0000000000000FB010790141107004050150841D405064090741402480A02677FFFFFD0
1001
ACAD
1000
AcDbSavedByObjectVersion
1070
     0
  0
ACAD_PROXY_OBJECT
  5
39
102
{ACAD_REACTORS
330
2A
102
}
330
2A
100
AcDbProxyObject
 90
      499
 91
      501
 93
      444
310
42D19858D95C185D1D195C9B90F409028333333333333E3BF0000000000000FB010790141107004050150841D405064090741402480A0350
1001
ACAD
1000
AcDbSavedByObjectVersion
1070
     0
  0
ACAD_PROXY_OBJECT
  5
2B
102
{ACAD_REACTORS
330
2A
102
}
330
2A
100
AcDbProxyObject
 90
      499
 91
      501
 93
      388
310
41119B185D240901404333333333333E3BF0000000000000F9010740A41107004050150841D405064090741402480A1B50
1001
ACAD
1000
AcDbSavedByObjectVersion
1070
     0
  0
ACAD_PROXY_OBJECT
  5
2C
102
{ACAD_REACTORS
330
2A
102
}
330
2A
100
AcDbProxyObject
 90
      499
 91
      501
 93
      476
310
43519B185D15DA5D1A115919D95CD0140901404333333333333E3BF0000000000000F9010740901411070040501600405405064090741402480A1B50
1001
ACAD
1000
AcDbSavedByObjectVersion
1070
     0
  0
ACAD_PROXY_OBJECT
  5
2D
102
{ACAD_REACTORS
330
2A
102
}
330
2A
100
AcDbProxyObject
 90
      499
 91
      501
 93
      412
310
41D1DBDD5C985D5910240902404333333333333E3BF0000000000000F9010740A411070040501641D405064090741402480A1B50
1001
ACAD
1000
AcDbSavedByObjectVersion
1070
     0
  0
ACAD_PROXY_OBJECT
  5
2E
102
{ACAD_REACTORS
330
2A
102
}
330
2A
100
AcDbProxyObject
 90
      499
 91
      501
 93
      500
310
4411DBDD5C985D5915DA5D1A115919D95CD0340902404333333333333E3BF0000000000000F9010740901411070040501600405405064090741402480A1B50
1001
ACAD
1000
AcDbSavedByObjectVersion
1070
     0
  0
ACAD_PROXY_OBJECT
  5
38
102
{ACAD_REACTORS
330
2A
102
}
330
2A
100
AcDbProxyObject
 90
      499
 91
      501
 93
      444
310
42D31A5B995C185D1D195C9B90E409028333333333333E3BF0000000000000FB010790141107004050750841D405064090741402483A0350
1001
ACAD
1000
AcDbSavedByObjectVersion
1070
     0
  0
ACAD_PROXY_OBJECT
  5
33
102
{ACAD_REACTORS
330
2A
102
}
330
2A
100
AcDbProxyObject
 90
      499
 91
      501
 93
      420
310
425499585B1A5CDD1A58D08409028333333333333E3BF0000000000000FB01079019070040501508421405064090741402480A1B40
1001
ACAD
1000
AcDbSavedByObjectVersion
1070
     0
  0
ACAD_PROXY_OBJECT
  5
37
102
{ACAD_REACTORS
330
2A
102
}
330
2A
100
AcDbProxyObject
 90
      499
 91
      501
 93
      412
310
41D51A1A58DAD95B90D409028333333333333E3BF0000000000000FB010790141107004050150C41D405064090741402480A0350
1001
ACAD
1000
AcDbSavedByObjectVersion
1070
     0
  0
XRECORD
  5
14C
102
{ACAD_REACTORS
330
143
102
}
330
143
100
AcDbXrecord
 90
        0
  0
XRECORD
  5
162
102
{ACAD_REACTORS
330
143
102
}
330
143
100
AcDbXrecord
1000
DSTYLE
1002
{
1070
   340
340
11
1002
}
  0
XRECORD
  5
14D
102
{ACAD_REACTORS
330
143
102
}
330
143
100
AcDbXrecord
  1
{36C6A274-8982-4667-A528-21176ED2F283}
  0
XRECORD
  5
146
102
{ACAD_REACTORS
330
143
102
}
330
143
100
AcDbXrecord
  1

  0
XRECORD
  5
14B
102
{ACAD_REACTORS
330
143
102
}
330
143
100
AcDbXrecord
 90
        4
  0
XRECORD
  5
148
102
{ACAD_REACTORS
330
143
102
}
330
143
100
AcDbXrecord
340
1A
  0
XRECORD
  5
14A
102
{ACAD_REACTORS
330
143
102
}
330
143
100
AcDbXrecord
 90
    10781
  0
XRECORD
  5
149
102
{ACAD_REACTORS
330
143
102
}
330
143
100
AcDbXrecord
340
19
  0
XRECORD
  5
14F
102
{ACAD_REACTORS
330
143
102
}
330
143
100
AcDbXrecord
 40
0.0
  0
XRECORD
  5
152
102
{ACAD_REACTORS
330
143
102
}
330
143
100
AcDbXrecord
340
0
  0
XRECORD
  5
158
102
{ACAD_REACTORS
330
143
102
}
330
143
100
AcDbXrecord
 10
0.0
 20
0.0
 30
0.0
  0
XRECORD
  5
154
102
{ACAD_REACTORS
330
143
102
}
330
143
100
AcDbXrecord
 10
0.0
 20
0.0
 30
0.0
  0
XRECORD
  5
157
102
{ACAD_REACTORS
330
143
102
}
330
143
100
AcDbXrecord
 10
0.0
 20
0.0
 30
0.0
  0
XRECORD
  5
155
102
{ACAD_REACTORS
330
143
102
}
330
143
100
AcDbXrecord
 10
0.0
 20
0.0
 30
0.0
  0
XRECORD
  5
156
102
{ACAD_REACTORS
330
143
102
}
330
143
100
AcDbXrecord
 10
0.0
 20
0.0
 30
0.0
  0
XRECORD
  5
153
102
{ACAD_REACTORS
330
143
102
}
330
143
100
AcDbXrecord
 10
0.0
 20
0.0
 30
0.0
  0
XRECORD
  5
150
102
{ACAD_REACTORS
330
143
102
}
330
143
100
AcDbXrecord
340
0
  0
XRECORD
  5
151
102
{ACAD_REACTORS
330
143
102
}
330
143
100
AcDbXrecord
 70
     0
  0
XRECORD
  5
147
102
{ACAD_REACTORS
330
143
102
}
330
143
100
AcDbXrecord
  1

  0
XRECORD
  5
144
102
{ACAD_REACTORS
330
143
102
}
330
143
100
AcDbXrecord
 90
        1
  0
XRECORD
  5
145
102
{ACAD_REACTORS
330
143
102
}
330
143
100
AcDbXrecord
 90
       70
  0
XRECORD
  5
15B
102
{ACAD_REACTORS
330
143
102
}
330
143
100
AcDbXrecord
340
0
  0
XRECORD
  5
161
102
{ACAD_REACTORS
330
143
102
}
330
143
100
AcDbXrecord
 10
0.0
 20
0.0
 30
0.0
  0
XRECORD
  5
15D
102
{ACAD_REACTORS
330
143
102
}
330
143
100
AcDbXrecord
 10
0.0
 20
0.0
 30
0.0
  0
XRECORD
  5
160
102
{ACAD_REACTORS
330
143
102
}
330
143
100
AcDbXrecord
 10
0.0
 20
0.0
 30
0.0
  0
XRECORD
  5
15E
102
{ACAD_REACTORS
330
143
102
}
330
143
100
AcDbXrecord
 10
0.0
 20
0.0
 30
0.0
  0
XRECORD
  5
15F
102
{ACAD_REACTORS
330
143
102
}
330
143
100
AcDbXrecord
 10
0.0
 20
0.0
 30
0.0
  0
XRECORD
  5
15C
102
{ACAD_REACTORS
330
143
102
}
330
143
100
AcDbXrecord
 10
0.0
 20
0.0
 30
0.0
  0
XRECORD
  5
159
102
{ACAD_REACTORS
330
143
102
}
330
143
100
AcDbXrecord
340
0
  0
XRECORD
  5
15A
102
{ACAD_REACTORS
330
143
102
}
330
143
100
AcDbXrecord
 70
     0
  0
XRECORD
  5
14E
102
{ACAD_REACTORS
330
143
102
}
330
143
100
AcDbXrecord
  1
{FAEB1C32-E019-11D5-929B-00C0DF256EC4}
  0
DICTIONARYVAR
  5
166
102
{ACAD_REACTORS
330
163
102
}
330
163
100
DictionaryVariables
280
     0
  1
2
  0
DICTIONARYVAR
  5
167
102
{ACAD_REACTORS
330
163
102
}
330
163
100
DictionaryVariables
280
     0
  1
1
  0
DICTIONARY
  5
16A
330
3D
100
AcDbDictionary
280
     1
  3
ACAD_XREC_ROUNDTRIP
360
16B
  0
DICTIONARY
  5
168
330
3C
100
AcDbDictionary
280
     1
  3
ACAD_XREC_ROUNDTRIP
360
169
  0
DICTIONARY
  5
16C
330
3E
100
AcDbDictionary
280
     1
  3
ACAD_XREC_ROUNDTRIP
360
16D
  0
XRECORD
  5
16B
102
{ACAD_REACTORS
330
16A
102
}
330
16A
100
AcDbXrecord
102
MATERIAL
148
0.0
149
0.0
149
0.0
 93
        0
 94
      127
282
     0
 72
     1
 77
     1
171
     1
175
     1
179
     1
273
     0
  0
XRECORD
  5
169
102
{ACAD_REACTORS
330
168
102
}
330
168
100
AcDbXrecord
102
MATERIAL
148
0.0
149
0.0
149
0.0
 93
        0
 94
      127
282
     0
 72
     1
 77
     1
171
     1
175
     1
179
     1
273
     0
  0
XRECORD
  5
16D
102
{ACAD_REACTORS
330
16C
102
}
330
16C
100
AcDbXrecord
102
MATERIAL
148
0.0
149
0.0
149
0.0
 93
        0
 94
      127
282
     0
 72
     1
 77
     1
171
     1
175
     1
179
     1
273
     0
  0
ENDSEC
  0
EOF
