  0
SECTION
  2
HEADER
  9
$ACADVER
  1
AC1015
  9
$ACADMAINTVER
 70
     6
  9
$DWGCODEPAGE
  3
ANSI_1250
  9
$INSBASE
 10
0.0
 20
0.0
 30
0.0
  9
$EXTMIN
 10
-35.5244
 20
-27.5124
 30
0.0
  9
$EXTMAX
 10
35.5243
 20
27.4033
 30
0.0
  9
$LIMMIN
 10
0.0
 20
0.0
  9
$LIMMAX
 10
12.0
 20
9.0
  9
$ORTHOMODE
 70
     0
  9
$REGENMODE
 70
     1
  9
$FILLMODE
 70
     1
  9
$QTEXTMODE
 70
     0
  9
$MIRRTEXT
 70
     1
  9
$LTSCALE
 40
1.0
  9
$ATTMODE
 70
     1
  9
$TEXTSIZE
 40
0.2
  9
$TRACEWID
 40
0.05
  9
$TEXTSTYLE
  7
Standard
  9
$CLAYER
  8
0
  9
$CELTYPE
  6
ByLayer
  9
$CECOLOR
 62
   256
  9
$CELTSCALE
 40
1.0
  9
$DISPSILH
 70
     0
  9
$DIMSCALE
 40
1.0
  9
$DIMASZ
 40
0.18
  9
$DIMEXO
 40
0.0625
  9
$DIMDLI
 40
0.38
  9
$DIMRND
 40
0.0
  9
$DIMDLE
 40
0.0
  9
$DIMEXE
 40
0.18
  9
$DIMTP
 40
0.0
  9
$DIMTM
 40
0.0
  9
$DIMTXT
 40
0.18
  9
$DIMCEN
 40
0.09
  9
$DIMTSZ
 40
0.0
  9
$DIMTOL
 70
     0
  9
$DIMLIM
 70
     0
  9
$DIMTIH
 70
     1
  9
$DIMTOH
 70
     1
  9
$DIMSE1
 70
     0
  9
$DIMSE2
 70
     0
  9
$DIMTAD
 70
     0
  9
$DIMZIN
 70
     0
  9
$DIMBLK
  1

  9
$DIMASO
 70
     1
  9
$DIMSHO
 70
     1
  9
$DIMPOST
  1

  9
$DIMAPOST
  1

  9
$DIMALT
 70
     0
  9
$DIMALTD
 70
     2
  9
$DIMALTF
 40
25.4
  9
$DIMLFAC
 40
1.0
  9
$DIMTOFL
 70
     0
  9
$DIMTVP
 40
0.0
  9
$DIMTIX
 70
     0
  9
$DIMSOXD
 70
     0
  9
$DIMSAH
 70
     0
  9
$DIMBLK1
  1

  9
$DIMBLK2
  1

  9
$DIMSTYLE
  2
Standard
  9
$DIMCLRD
 70
     0
  9
$DIMCLRE
 70
     0
  9
$DIMCLRT
 70
     0
  9
$DIMTFAC
 40
1.0
  9
$DIMGAP
 40
0.09
  9
$DIMJUST
 70
     0
  9
$DIMSD1
 70
     0
  9
$DIMSD2
 70
     0
  9
$DIMTOLJ
 70
     1
  9
$DIMTZIN
 70
     0
  9
$DIMALTZ
 70
     0
  9
$DIMALTTZ
 70
     0
  9
$DIMUPT
 70
     0
  9
$DIMDEC
 70
     4
  9
$DIMTDEC
 70
     4
  9
$DIMALTU
 70
     2
  9
$DIMALTTD
 70
     2
  9
$DIMTXSTY
  7
Standard
  9
$DIMAUNIT
 70
     0
  9
$DIMADEC
 70
     0
  9
$DIMALTRND
 40
0.0
  9
$DIMAZIN
 70
     0
  9
$DIMDSEP
 70
    46
  9
$DIMATFIT
 70
     3
  9
$DIMFRAC
 70
     0
  9
$DIMLDRBLK
  1

  9
$DIMLUNIT
 70
     2
  9
$DIMLWD
 70
    -2
  9
$DIMLWE
 70
    -2
  9
$DIMTMOVE
 70
     0
  9
$LUNITS
 70
     2
  9
$LUPREC
 70
     4
  9
$SKETCHINC
 40
0.1
  9
$FILLETRAD
 40
0.5
  9
$AUNITS
 70
     0
  9
$AUPREC
 70
     0
  9
$MENU
  1
.
  9
$ELEVATION
 40
0.0
  9
$PELEVATION
 40
0.0
  9
$THICKNESS
 40
0.0
  9
$LIMCHECK
 70
     0
  9
$CHAMFERA
 40
0.5
  9
$CHAMFERB
 40
0.5
  9
$CHAMFERC
 40
1.0
  9
$CHAMFERD
 40
0.0
  9
$SKPOLY
 70
     0
  9
$TDCREATE
 40
2457623.313784583
  9
$TDUCREATE
 40
2457623.23045125
  9
$TDUPDATE
 40
2457623.313784595
  9
$TDUUPDATE
 40
2457623.230451262
  9
$TDINDWG
 40
0.0000000116
  9
$TDUSRTIMER
 40
0.0000000116
  9
$USRTIMER
 70
     1
  9
$ANGBASE
 50
0.0
  9
$ANGDIR
 70
     0
  9
$PDMODE
 70
     0
  9
$PDSIZE
 40
0.0
  9
$PLINEWID
 40
0.0
  9
$SPLFRAME
 70
     0
  9
$SPLINETYPE
 70
     6
  9
$SPLINESEGS
 70
     8
  9
$HANDSEED
  5
12A
  9
$SURFTAB1
 70
     6
  9
$SURFTAB2
 70
     6
  9
$SURFTYPE
 70
     6
  9
$SURFU
 70
     6
  9
$SURFV
 70
     6
  9
$UCSBASE
  2

  9
$UCSNAME
  2

  9
$UCSORG
 10
0.0
 20
0.0
 30
0.0
  9
$UCSXDIR
 10
1.0
 20
0.0
 30
0.0
  9
$UCSYDIR
 10
0.0
 20
1.0
 30
0.0
  9
$UCSORTHOREF
  2

  9
$UCSORTHOVIEW
 70
     0
  9
$UCSORGTOP
 10
0.0
 20
0.0
 30
0.0
  9
$UCSORGBOTTOM
 10
0.0
 20
0.0
 30
0.0
  9
$UCSORGLEFT
 10
0.0
 20
0.0
 30
0.0
  9
$UCSORGRIGHT
 10
0.0
 20
0.0
 30
0.0
  9
$UCSORGFRONT
 10
0.0
 20
0.0
 30
0.0
  9
$UCSORGBACK
 10
0.0
 20
0.0
 30
0.0
  9
$PUCSBASE
  2

  9
$PUCSNAME
  2

  9
$PUCSORG
 10
0.0
 20
0.0
 30
0.0
  9
$PUCSXDIR
 10
1.0
 20
0.0
 30
0.0
  9
$PUCSYDIR
 10
0.0
 20
1.0
 30
0.0
  9
$PUCSORTHOREF
  2

  9
$PUCSORTHOVIEW
 70
     0
  9
$PUCSORGTOP
 10
0.0
 20
0.0
 30
0.0
  9
$PUCSORGBOTTOM
 10
0.0
 20
0.0
 30
0.0
  9
$PUCSORGLEFT
 10
0.0
 20
0.0
 30
0.0
  9
$PUCSORGRIGHT
 10
0.0
 20
0.0
 30
0.0
  9
$PUCSORGFRONT
 10
0.0
 20
0.0
 30
0.0
  9
$PUCSORGBACK
 10
0.0
 20
0.0
 30
0.0
  9
$USERI1
 70
     0
  9
$USERI2
 70
     0
  9
$USERI3
 70
     0
  9
$USERI4
 70
     0
  9
$USERI5
 70
     0
  9
$USERR1
 40
0.0
  9
$USERR2
 40
0.0
  9
$USERR3
 40
0.0
  9
$USERR4
 40
0.0
  9
$USERR5
 40
0.0
  9
$WORLDVIEW
 70
     1
  9
$SHADEDGE
 70
     3
  9
$SHADEDIF
 70
    70
  9
$TILEMODE
 70
     1
  9
$MAXACTVP
 70
    64
  9
$PINSBASE
 10
0.0
 20
0.0
 30
0.0
  9
$PLIMCHECK
 70
     0
  9
$PEXTMIN
 10
1.000000000000000E+20
 20
1.000000000000000E+20
 30
1.000000000000000E+20
  9
$PEXTMAX
 10
-1.000000000000000E+20
 20
-1.000000000000000E+20
 30
-1.000000000000000E+20
  9
$PLIMMIN
 10
0.0
 20
0.0
  9
$PLIMMAX
 10
12.0
 20
9.0
  9
$UNITMODE
 70
     0
  9
$VISRETAIN
 70
     1
  9
$PLINEGEN
 70
     0
  9
$PSLTSCALE
 70
     1
  9
$TREEDEPTH
 70
  3020
  9
$CMLSTYLE
  2
Standard
  9
$CMLJUST
 70
     0
  9
$CMLSCALE
 40
1.0
  9
$PROXYGRAPHICS
 70
     1
  9
$MEASUREMENT
 70
     0
  9
$CELWEIGHT
370
    -1
  9
$ENDCAPS
280
     0
  9
$JOINSTYLE
280
     0
  9
$LWDISPLAY
290
     0
  9
$INSUNITS
 70
     4
  9
$HYPERLINKBASE
  1

  9
$STYLESHEET
  1

  9
$XEDIT
290
     1
  9
$CEPSNTYPE
380
     0
  9
$PSTYLEMODE
290
     1
  9
$FINGERPRINTGUID
  2
{05630698-684F-4F52-B2B8-9CCA366C1EA9}
  9
$VERSIONGUID
  2
{FAEB1C32-E019-11D5-929B-00C0DF256EC4}
  9
$EXTNAMES
290
     1
  9
$PSVPSCALE
 40
0.0
  9
$OLESTARTUP
290
     0
  0
ENDSEC
  0
SECTION
  2
CLASSES
  0
CLASS
  1
ACDBDICTIONARYWDFLT
  2
AcDbDictionaryWithDefault
  3
ObjectDBX Classes
 90
        0
280
     0
281
     0
  0
CLASS
  1
VISUALSTYLE
  2
AcDbVisualStyle
  3
ObjectDBX Classes
 90
     4095
280
     0
281
     0
  0
CLASS
  1
MATERIAL
  2
AcDbMaterial
  3
ObjectDBX Classes
 90
     1153
280
     0
281
     0
  0
CLASS
  1
DICTIONARYVAR
  2
AcDbDictionaryVar
  3
ObjectDBX Classes
 90
        0
280
     0
281
     0
  0
CLASS
  1
ACDBPLACEHOLDER
  2
AcDbPlaceHolder
  3
ObjectDBX Classes
 90
        0
280
     0
281
     0
  0
CLASS
  1
LAYOUT
  2
AcDbLayout
  3
ObjectDBX Classes
 90
        0
280
     0
281
     0
  0
ENDSEC
  0
SECTION
  2
TABLES
  0
TABLE
  2
VPORT
  5
8
330
0
100
AcDbSymbolTable
 70
     1
  0
VPORT
  5
29
330
8
100
AcDbSymbolTableRecord
100
AcDbViewportTableRecord
  2
*Active
 70
     0
 10
0.0
 20
0.0
 11
1.0
 21
1.0
 12
10.42990654205607
 22
4.5
 13
0.0
 23
0.0
 14
0.5
 24
0.5
 15
0.5
 25
0.5
 16
0.0
 26
0.0
 36
1.0
 17
0.0
 27
0.0
 37
0.0
 40
9.0
 41
1.972972972850329
 42
50.0
 43
0.0
 44
0.0
 50
0.0
 51
0.0
 71
     0
 72
   100
 73
     1
 74
     3
 75
     0
 76
     0
 77
     0
 78
     0
281
     0
 65
     1
110
0.0
120
0.0
130
0.0
111
1.0
121
0.0
131
0.0
112
0.0
122
1.0
132
0.0
 79
     0
146
0.0
  0
ENDTAB
  0
TABLE
  2
LTYPE
  5
5
330
0
100
AcDbSymbolTable
 70
     3
  0
LTYPE
  5
14
330
5
100
AcDbSymbolTableRecord
100
AcDbLinetypeTableRecord
  2
ByBlock
 70
     0
  3

 72
    65
 73
     0
 40
0.0
  0
LTYPE
  5
15
330
5
100
AcDbSymbolTableRecord
100
AcDbLinetypeTableRecord
  2
ByLayer
 70
     0
  3

 72
    65
 73
     0
 40
0.0
  0
LTYPE
  5
16
330
5
100
AcDbSymbolTableRecord
100
AcDbLinetypeTableRecord
  2
Continuous
 70
     0
  3
Solid line
 72
    65
 73
     0
 40
0.0
  0
LTYPE
  5
8D
330
5
100
AcDbSymbolTableRecord
100
AcDbLinetypeTableRecord
  2
New Line1
 70
     0
  3

 72
    65
 73
     4
 40
1.2
 49
0.5
 74
     4
 75
     0
340
0
 46
1.0
 50
0.0
 44
0.0
 45
0.0
 49
-0.3
 74
     4
 75
     0
340
0
 46
1.0
 50
0.0
 44
0.0
 45
0.0
 49
0.1
 74
     4
 75
     0
340
0
 46
1.0
 50
0.0
 44
0.0
 45
0.0
 49
-0.3
 74
     4
 75
     0
340
0
 46
1.0
 50
0.0
 44
0.0
 45
0.0
  0
LTYPE
  5
8F
330
5
100
AcDbSymbolTableRecord
100
AcDbLinetypeTableRecord
  2
New Line2
 70
     0
  3

 72
    65
 73
     4
 40
1.2
 49
0.5
 74
     4
 75
     0
340
0
 46
1.0
 50
0.0
 44
0.0
 45
0.0
 49
-0.3
 74
     4
 75
     0
340
0
 46
1.0
 50
0.0
 44
0.0
 45
0.0
 49
0.1
 74
     4
 75
     0
340
0
 46
1.0
 50
0.0
 44
0.0
 45
0.0
 49
-0.3
 74
     4
 75
     0
340
0
 46
1.0
 50
0.0
 44
0.0
 45
0.0
  0
ENDTAB
  0
TABLE
  2
LAYER
  5
2
330
0
100
AcDbSymbolTable
 70
     2
  0
LAYER
  5
10
330
2
100
AcDbSymbolTableRecord
100
AcDbLayerTableRecord
  2
0
 70
     0
 62
     7
  6
Continuous
370
    -3
390
F
  0
LAYER
  5
40
330
2
100
AcDbSymbolTableRecord
100
AcDbLayerTableRecord
  2
Ilustrace
 70
     0
 62
     7
  6
Continuous
370
    -3
390
F
  0
ENDTAB
  0
TABLE
  2
STYLE
  5
3
330
0
100
AcDbSymbolTable
 70
     1
  0
STYLE
  5
11
330
3
100
AcDbSymbolTableRecord
100
AcDbTextStyleTableRecord
  2
Standard
 70
     0
 40
0.0
 41
1.0
 50
0.0
 71
     0
 42
0.2
  3
txt
  4

  0
ENDTAB
  0
TABLE
  2
VIEW
  5
6
330
0
100
AcDbSymbolTable
 70
     0
  0
ENDTAB
  0
TABLE
  2
UCS
  5
7
330
0
100
AcDbSymbolTable
 70
     0
  0
ENDTAB
  0
TABLE
  2
APPID
  5
9
330
0
100
AcDbSymbolTable
 70
     2
  0
APPID
  5
12
330
9
100
AcDbSymbolTableRecord
100
AcDbRegAppTableRecord
  2
ACAD
 70
     0
  0
APPID
  5
3F
330
9
100
AcDbSymbolTableRecord
100
AcDbRegAppTableRecord
  2
ODA
 70
     0
  0
ENDTAB
  0
TABLE
  2
DIMSTYLE
  5
A
330
0
100
AcDbSymbolTable
 70
     1
100
AcDbDimStyleTable
  0
DIMSTYLE
105
27
330
A
100
AcDbSymbolTableRecord
100
AcDbDimStyleTableRecord
  2
Standard
 70
     0
340
11
  0
ENDTAB
  0
TABLE
  2
BLOCK_RECORD
  5
1
330
0
100
AcDbSymbolTable
 70
     1
  0
BLOCK_RECORD
  5
1F
330
1
100
AcDbSymbolTableRecord
100
AcDbBlockTableRecord
  2
*Model_Space
340
22
  0
BLOCK_RECORD
  5
1B
330
1
100
AcDbSymbolTableRecord
100
AcDbBlockTableRecord
  2
*Paper_Space
340
1E
  0
BLOCK_RECORD
  5
23
330
1
100
AcDbSymbolTableRecord
100
AcDbBlockTableRecord
  2
*Paper_Space0
340
26
  0
ENDTAB
  0
ENDSEC
  0
SECTION
  2
BLOCKS
  0
BLOCK
  5
20
330
1F
100
AcDbEntity
  8
0
100
AcDbBlockBegin
  2
*Model_Space
 70
     0
 10
0.0
 20
0.0
 30
0.0
  3
*Model_Space
  1

  0
ENDBLK
  5
21
330
1F
100
AcDbEntity
  8
0
100
AcDbBlockEnd
  0
BLOCK
  5
1C
330
1B
100
AcDbEntity
 67
     1
  8
0
100
AcDbBlockBegin
  2
*Paper_Space
 70
     0
 10
0.0
 20
0.0
 30
0.0
  3
*Paper_Space
  1

  0
ENDBLK
  5
1D
330
1B
100
AcDbEntity
 67
     1
  8
0
100
AcDbBlockEnd
  0
BLOCK
  5
24
330
23
100
AcDbEntity
  8
0
100
AcDbBlockBegin
  2
*Paper_Space0
 70
     0
 10
0.0
 20
0.0
 30
0.0
  3
*Paper_Space0
  1

  0
ENDBLK
  5
25
330
23
100
AcDbEntity
  8
0
100
AcDbBlockEnd
  0
ENDSEC
  0
SECTION
  2
ENTITIES
  0
SPLINE
  5
41
330
1F
100
AcDbEntity
  8
Ilustrace
 62
     9
370
     9
100
AcDbSpline
210
0.0
220
0.0
230
1.0
 70
    11
 71
     3
 72
   136
 73
   132
 74
     0
 42
0.0000000001
 43
0.0000000001
 40
0.0
 40
0.0
 40
0.0
 40
0.0
 40
0.0294117647058824
 40
0.0294117647058824
 40
0.0294117647058824
 40
0.0294117647058824
 40
0.0588235294117647
 40
0.0588235294117647
 40
0.0588235294117647
 40
0.0588235294117647
 40
0.0882352941176471
 40
0.0882352941176471
 40
0.0882352941176471
 40
0.0882352941176471
 40
0.1176470588235294
 40
0.1176470588235294
 40
0.1176470588235294
 40
0.1176470588235294
 40
0.1470588235294118
 40
0.1470588235294118
 40
0.1470588235294118
 40
0.1470588235294118
 40
0.1764705882352941
 40
0.1764705882352941
 40
0.1764705882352941
 40
0.1764705882352941
 40
0.2058823529411765
 40
0.2058823529411765
 40
0.2058823529411765
 40
0.2058823529411765
 40
0.2352941176470588
 40
0.2352941176470588
 40
0.2352941176470588
 40
0.2352941176470588
 40
0.2647058823529412
 40
0.2647058823529412
 40
0.2647058823529412
 40
0.2647058823529412
 40
0.2941176470588235
 40
0.2941176470588235
 40
0.2941176470588235
 40
0.2941176470588235
 40
0.3235294117647059
 40
0.3235294117647059
 40
0.3235294117647059
 40
0.3235294117647059
 40
0.3529411764705883
 40
0.3529411764705883
 40
0.3529411764705883
 40
0.3529411764705883
 40
0.3823529411764706
 40
0.3823529411764706
 40
0.3823529411764706
 40
0.3823529411764706
 40
0.4117647058823529
 40
0.4117647058823529
 40
0.4117647058823529
 40
0.4117647058823529
 40
0.4411764705882353
 40
0.4411764705882353
 40
0.4411764705882353
 40
0.4411764705882353
 40
0.4705882352941176
 40
0.4705882352941176
 40
0.4705882352941176
 40
0.4705882352941176
 40
0.5
 40
0.5
 40
0.5
 40
0.5
 40
0.5294117647058824
 40
0.5294117647058824
 40
0.5294117647058824
 40
0.5294117647058824
 40
0.5588235294117647
 40
0.5588235294117647
 40
0.5588235294117647
 40
0.5588235294117647
 40
0.5882352941176471
 40
0.5882352941176471
 40
0.5882352941176471
 40
0.5882352941176471
 40
0.6176470588235294
 40
0.6176470588235294
 40
0.6176470588235294
 40
0.6176470588235294
 40
0.6470588235294118
 40
0.6470588235294118
 40
0.6470588235294118
 40
0.6470588235294118
 40
0.6764705882352942
 40
0.6764705882352942
 40
0.6764705882352942
 40
0.6764705882352942
 40
0.7058823529411765
 40
0.7058823529411765
 40
0.7058823529411765
 40
0.7058823529411765
 40
0.7352941176470589
 40
0.7352941176470589
 40
0.7352941176470589
 40
0.7352941176470589
 40
0.7647058823529411
 40
0.7647058823529411
 40
0.7647058823529411
 40
0.7647058823529411
 40
0.7941176470588235
 40
0.7941176470588235
 40
0.7941176470588235
 40
0.7941176470588235
 40
0.8235294117647058
 40
0.8235294117647058
 40
0.8235294117647058
 40
0.8235294117647058
 40
0.8529411764705882
 40
0.8529411764705882
 40
0.8529411764705882
 40
0.8529411764705882
 40
0.8823529411764706
 40
0.8823529411764706
 40
0.8823529411764706
 40
0.8823529411764706
 40
0.9117647058823529
 40
0.9117647058823529
 40
0.9117647058823529
 40
0.9117647058823529
 40
0.9411764705882353
 40
0.9411764705882353
 40
0.9411764705882353
 40
0.9411764705882353
 40
1.0
 40
1.0
 40
1.0
 40
1.0
 10
-18.915
 20
19.3313
 30
0.0
 10
-18.915
 20
19.3313
 30
0.0
 10
-11.3523
 20
19.3424
 30
0.0
 10
-11.3523
 20
19.3424
 30
0.0
 10
-11.3523
 20
19.3424
 30
0.0
 10
-11.3523
 20
19.3424
 30
0.0
 10
-11.1126
 20
19.235
 30
0.0
 10
-11.1126
 20
19.235
 30
0.0
 10
-11.1126
 20
19.235
 30
0.0
 10
-11.1126
 20
19.235
 30
0.0
 10
-11.0354
 20
19.0889
 30
0.0
 10
-11.0354
 20
19.0889
 30
0.0
 10
-11.0354
 20
19.0889
 30
0.0
 10
-11.0354
 20
19.0889
 30
0.0
 10
-10.9968
 20
18.9539
 30
0.0
 10
-10.9968
 20
18.9539
 30
0.0
 10
-10.9968
 20
18.9539
 30
0.0
 10
-10.9968
 20
18.9539
 30
0.0
 10
-10.9913
 20
18.7389
 30
0.0
 10
-10.9913
 20
18.7389
 30
0.0
 10
-10.9913
 20
18.7389
 30
0.0
 10
-10.9913
 20
18.7389
 30
0.0
 10
3.134
 20
18.6975
 30
0.0
 10
3.134
 20
18.6975
 30
0.0
 10
3.134
 20
18.6975
 30
0.0
 10
3.134
 20
18.6975
 30
0.0
 10
3.1175
 20
18.8849
 30
0.0
 10
3.1175
 20
18.8849
 30
0.0
 10
3.1175
 20
18.8849
 30
0.0
 10
3.1175
 20
18.8849
 30
0.0
 10
3.1836
 20
19.1109
 30
0.0
 10
3.1836
 20
19.1109
 30
0.0
 10
3.1836
 20
19.1109
 30
0.0
 10
3.1836
 20
19.1109
 30
0.0
 10
3.2552
 20
19.2597
 30
0.0
 10
3.2552
 20
19.2597
 30
0.0
 10
3.2552
 20
19.2597
 30
0.0
 10
3.2552
 20
19.2597
 30
0.0
 10
3.371
 20
19.3424
 30
0.0
 10
3.371
 20
19.3424
 30
0.0
 10
3.371
 20
19.3424
 30
0.0
 10
3.371
 20
19.3424
 30
0.0
 10
3.5501
 20
19.3838
 30
0.0
 10
3.5501
 20
19.3838
 30
0.0
 10
3.5501
 20
19.3838
 30
0.0
 10
3.5501
 20
19.3838
 30
0.0
 10
11.0465
 20
19.3563
 30
0.0
 10
11.0465
 20
19.3563
 30
0.0
 10
11.0465
 20
19.3563
 30
0.0
 10
11.0465
 20
19.3563
 30
0.0
 10
11.0328
 20
19.5685
 30
0.0
 10
11.0328
 20
19.5685
 30
0.0
 10
11.0328
 20
19.5685
 30
0.0
 10
11.0328
 20
19.5685
 30
0.0
 10
10.9528
 20
20.1059
 30
0.0
 10
10.9528
 20
20.1059
 30
0.0
 10
10.9528
 20
20.1059
 30
0.0
 10
10.9528
 20
20.1059
 30
0.0
 10
10.7682
 20
20.3319
 30
0.0
 10
10.7682
 20
20.3319
 30
0.0
 10
10.7682
 20
20.3319
 30
0.0
 10
10.7682
 20
20.3319
 30
0.0
 10
10.589
 20
20.4477
 30
0.0
 10
10.589
 20
20.4477
 30
0.0
 10
10.589
 20
20.4477
 30
0.0
 10
10.589
 20
20.4477
 30
0.0
 10
10.2666
 20
20.5442
 30
0.0
 10
10.2666
 20
20.5442
 30
0.0
 10
10.2666
 20
20.5442
 30
0.0
 10
10.2666
 20
20.5442
 30
0.0
 10
9.8586
 20
20.5635
 30
0.0
 10
9.8586
 20
20.5635
 30
0.0
 10
9.8586
 20
20.5635
 30
0.0
 10
9.8586
 20
20.5635
 30
0.0
 10
4.1674
 20
21.0567
 30
0.0
 10
4.1674
 20
21.0567
 30
0.0
 10
4.1674
 20
21.0567
 30
0.0
 10
4.1674
 20
21.0567
 30
0.0
 10
0.8821
 20
21.2111
 30
0.0
 10
0.8821
 20
21.2111
 30
0.0
 10
0.8821
 20
21.2111
 30
0.0
 10
0.8821
 20
21.2111
 30
0.0
 10
-2.9987
 20
21.2663
 30
0.0
 10
-2.9987
 20
21.2663
 30
0.0
 10
-2.9987
 20
21.2663
 30
0.0
 10
-2.9987
 20
21.2663
 30
0.0
 10
-5.3359
 20
21.2774
 30
0.0
 10
-5.3359
 20
21.2774
 30
0.0
 10
-5.3359
 20
21.2774
 30
0.0
 10
-5.3359
 20
21.2774
 30
0.0
 10
-8.5991
 20
21.2222
 30
0.0
 10
-8.5991
 20
21.2222
 30
0.0
 10
-8.5991
 20
21.2222
 30
0.0
 10
-8.5991
 20
21.2222
 30
0.0
 10
-11.5757
 20
21.0569
 30
0.0
 10
-11.5757
 20
21.0569
 30
0.0
 10
-11.5757
 20
21.0569
 30
0.0
 10
-11.5757
 20
21.0569
 30
0.0
 10
-16.845
 20
20.6379
 30
0.0
 10
-16.845
 20
20.6379
 30
0.0
 10
-16.845
 20
20.6379
 30
0.0
 10
-16.845
 20
20.6379
 30
0.0
 10
-17.4844
 20
20.5717
 30
0.0
 10
-17.4844
 20
20.5717
 30
0.0
 10
-17.4844
 20
20.5717
 30
0.0
 10
-17.4844
 20
20.5717
 30
0.0
 10
-17.9474
 20
20.5607
 30
0.0
 10
-17.9474
 20
20.5607
 30
0.0
 10
-17.9474
 20
20.5607
 30
0.0
 10
-17.9474
 20
20.5607
 30
0.0
 10
-18.2782
 20
20.4945
 30
0.0
 10
-18.2782
 20
20.4945
 30
0.0
 10
-18.2782
 20
20.4945
 30
0.0
 10
-18.2782
 20
20.4945
 30
0.0
 10
-18.5869
 20
20.3733
 30
0.0
 10
-18.5869
 20
20.3733
 30
0.0
 10
-18.5869
 20
20.3733
 30
0.0
 10
-18.5869
 20
20.3733
 30
0.0
 10
-18.7081
 20
20.2079
 30
0.0
 10
-18.7081
 20
20.2079
 30
0.0
 10
-18.7081
 20
20.2079
 30
0.0
 10
-18.7081
 20
20.2079
 30
0.0
 10
-18.8184
 20
19.8992
 30
0.0
 10
-18.8184
 20
19.8992
 30
0.0
 10
-18.8184
 20
19.8992
 30
0.0
 10
-18.8184
 20
19.8992
 30
0.0
 10
-18.8625
 20
19.6898
 30
0.0
 10
-18.8625
 20
19.6898
 30
0.0
 10
-18.8625
 20
19.6898
 30
0.0
 10
-18.8625
 20
19.6898
 30
0.0
 10
-18.915
 20
19.3313
 30
0.0
 10
-18.915
 20
19.3313
 30
0.0
  0
SPLINE
  5
42
330
1F
100
AcDbEntity
  8
Ilustrace
 62
   251
100
AcDbSpline
210
0.0
220
0.0
230
1.0
 70
    11
 71
     3
 72
   120
 73
   116
 74
     0
 42
0.0000000001
 43
0.0000000001
 40
0.0
 40
0.0
 40
0.0
 40
0.0
 40
0.0333333333333333
 40
0.0333333333333333
 40
0.0333333333333333
 40
0.0333333333333333
 40
0.0666666666666667
 40
0.0666666666666667
 40
0.0666666666666667
 40
0.0666666666666667
 40
0.1
 40
0.1
 40
0.1
 40
0.1
 40
0.1333333333333333
 40
0.1333333333333333
 40
0.1333333333333333
 40
0.1333333333333333
 40
0.1666666666666667
 40
0.1666666666666667
 40
0.1666666666666667
 40
0.1666666666666667
 40
0.2
 40
0.2
 40
0.2
 40
0.2
 40
0.2333333333333333
 40
0.2333333333333333
 40
0.2333333333333333
 40
0.2333333333333333
 40
0.2666666666666667
 40
0.2666666666666667
 40
0.2666666666666667
 40
0.2666666666666667
 40
0.3
 40
0.3
 40
0.3
 40
0.3
 40
0.3333333333333333
 40
0.3333333333333333
 40
0.3333333333333333
 40
0.3333333333333333
 40
0.3666666666666666
 40
0.3666666666666666
 40
0.3666666666666666
 40
0.3666666666666666
 40
0.4
 40
0.4
 40
0.4
 40
0.4
 40
0.4333333333333333
 40
0.4333333333333333
 40
0.4333333333333333
 40
0.4333333333333333
 40
0.4666666666666667
 40
0.4666666666666667
 40
0.4666666666666667
 40
0.4666666666666667
 40
0.5
 40
0.5
 40
0.5
 40
0.5
 40
0.5333333333333333
 40
0.5333333333333333
 40
0.5333333333333333
 40
0.5333333333333333
 40
0.5666666666666667
 40
0.5666666666666667
 40
0.5666666666666667
 40
0.5666666666666667
 40
0.6
 40
0.6
 40
0.6
 40
0.6
 40
0.6333333333333333
 40
0.6333333333333333
 40
0.6333333333333333
 40
0.6333333333333333
 40
0.6666666666666666
 40
0.6666666666666666
 40
0.6666666666666666
 40
0.6666666666666666
 40
0.7
 40
0.7
 40
0.7
 40
0.7
 40
0.7333333333333333
 40
0.7333333333333333
 40
0.7333333333333333
 40
0.7333333333333333
 40
0.7666666666666667
 40
0.7666666666666667
 40
0.7666666666666667
 40
0.7666666666666667
 40
0.8
 40
0.8
 40
0.8
 40
0.8
 40
0.8333333333333334
 40
0.8333333333333334
 40
0.8333333333333334
 40
0.8333333333333334
 40
0.8666666666666667
 40
0.8666666666666667
 40
0.8666666666666667
 40
0.8666666666666667
 40
0.9
 40
0.9
 40
0.9
 40
0.9
 40
0.9333333333333333
 40
0.9333333333333333
 40
0.9333333333333333
 40
0.9333333333333333
 40
1.0
 40
1.0
 40
1.0
 40
1.0
 10
-10.9133
 20
18.7143
 30
0.0
 10
-10.9133
 20
18.7143
 30
0.0
 10
-11.1007
 20
18.6371
 30
0.0
 10
-11.1007
 20
18.6371
 30
0.0
 10
-11.1007
 20
18.6371
 30
0.0
 10
-11.1007
 20
18.6371
 30
0.0
 10
-11.2661
 20
18.4993
 30
0.0
 10
-11.2661
 20
18.4993
 30
0.0
 10
-11.2661
 20
18.4993
 30
0.0
 10
-11.2661
 20
18.4993
 30
0.0
 10
-11.3377
 20
18.3284
 30
0.0
 10
-11.3377
 20
18.3284
 30
0.0
 10
-11.3377
 20
18.3284
 30
0.0
 10
-11.3377
 20
18.3284
 30
0.0
 10
-11.4315
 20
18.13
 30
0.0
 10
-11.4315
 20
18.13
 30
0.0
 10
-11.4315
 20
18.13
 30
0.0
 10
-11.4315
 20
18.13
 30
0.0
 10
-11.459
 20
17.8378
 30
0.0
 10
-11.459
 20
17.8378
 30
0.0
 10
-11.459
 20
17.8378
 30
0.0
 10
-11.459
 20
17.8378
 30
0.0
 10
-11.459
 20
16.5921
 30
0.0
 10
-11.459
 20
16.5921
 30
0.0
 10
-11.459
 20
16.5921
 30
0.0
 10
-11.459
 20
16.5921
 30
0.0
 10
-13.1237
 20
16.5535
 30
0.0
 10
-13.1237
 20
16.5535
 30
0.0
 10
-13.1237
 20
16.5535
 30
0.0
 10
-13.1237
 20
16.5535
 30
0.0
 10
-13.3332
 20
16.4818
 30
0.0
 10
-13.3332
 20
16.4818
 30
0.0
 10
-13.3332
 20
16.4818
 30
0.0
 10
-13.3332
 20
16.4818
 30
0.0
 10
-13.4655
 20
16.3165
 30
0.0
 10
-13.4655
 20
16.3165
 30
0.0
 10
-13.4655
 20
16.3165
 30
0.0
 10
-13.4655
 20
16.3165
 30
0.0
 10
-13.493
 20
16.1676
 30
0.0
 10
-13.493
 20
16.1676
 30
0.0
 10
-13.493
 20
16.1676
 30
0.0
 10
-13.493
 20
16.1676
 30
0.0
 10
-13.4655
 20
15.9747
 30
0.0
 10
-13.4655
 20
15.9747
 30
0.0
 10
-13.4655
 20
15.9747
 30
0.0
 10
-13.4655
 20
15.9747
 30
0.0
 10
-13.3993
 20
15.8314
 30
0.0
 10
-13.3993
 20
15.8314
 30
0.0
 10
-13.3993
 20
15.8314
 30
0.0
 10
-13.3993
 20
15.8314
 30
0.0
 10
-13.2946
 20
15.7542
 30
0.0
 10
-13.2946
 20
15.7542
 30
0.0
 10
-13.2946
 20
15.7542
 30
0.0
 10
-13.2946
 20
15.7542
 30
0.0
 10
-13.1182
 20
15.7487
 30
0.0
 10
-13.1182
 20
15.7487
 30
0.0
 10
-13.1182
 20
15.7487
 30
0.0
 10
-13.1182
 20
15.7487
 30
0.0
 10
5.3968
 20
15.7043
 30
0.0
 10
5.3968
 20
15.7043
 30
0.0
 10
5.3968
 20
15.7043
 30
0.0
 10
5.3968
 20
15.7043
 30
0.0
 10
5.5567
 20
15.8366
 30
0.0
 10
5.5567
 20
15.8366
 30
0.0
 10
5.5567
 20
15.8366
 30
0.0
 10
5.5567
 20
15.8366
 30
0.0
 10
5.6283
 20
16.024
 30
0.0
 10
5.6283
 20
16.024
 30
0.0
 10
5.6283
 20
16.024
 30
0.0
 10
5.6283
 20
16.024
 30
0.0
 10
5.6393
 20
16.2004
 30
0.0
 10
5.6393
 20
16.2004
 30
0.0
 10
5.6393
 20
16.2004
 30
0.0
 10
5.6393
 20
16.2004
 30
0.0
 10
5.6173
 20
16.3602
 30
0.0
 10
5.6173
 20
16.3602
 30
0.0
 10
5.6173
 20
16.3602
 30
0.0
 10
5.6173
 20
16.3602
 30
0.0
 10
5.5181
 20
16.476
 30
0.0
 10
5.5181
 20
16.476
 30
0.0
 10
5.5181
 20
16.476
 30
0.0
 10
5.5181
 20
16.476
 30
0.0
 10
5.2976
 20
16.5642
 30
0.0
 10
5.2976
 20
16.5642
 30
0.0
 10
5.2976
 20
16.5642
 30
0.0
 10
5.2976
 20
16.5642
 30
0.0
 10
4.807
 20
16.5807
 30
0.0
 10
4.807
 20
16.5807
 30
0.0
 10
4.807
 20
16.5807
 30
0.0
 10
4.807
 20
16.5807
 30
0.0
 10
3.5667
 20
16.5862
 30
0.0
 10
3.5667
 20
16.5862
 30
0.0
 10
3.5667
 20
16.5862
 30
0.0
 10
3.5667
 20
16.5862
 30
0.0
 10
3.5723
 20
17.9588
 30
0.0
 10
3.5723
 20
17.9588
 30
0.0
 10
3.5723
 20
17.9588
 30
0.0
 10
3.5723
 20
17.9588
 30
0.0
 10
3.4785
 20
18.3447
 30
0.0
 10
3.4785
 20
18.3447
 30
0.0
 10
3.4785
 20
18.3447
 30
0.0
 10
3.4785
 20
18.3447
 30
0.0
 10
3.3903
 20
18.499
 30
0.0
 10
3.3903
 20
18.499
 30
0.0
 10
3.3903
 20
18.499
 30
0.0
 10
3.3903
 20
18.499
 30
0.0
 10
3.1864
 20
18.5982
 30
0.0
 10
3.1864
 20
18.5982
 30
0.0
 10
3.1864
 20
18.5982
 30
0.0
 10
3.1864
 20
18.5982
 30
0.0
 10
2.8887
 20
18.703
 30
0.0
 10
2.8887
 20
18.703
 30
0.0
 10
2.8887
 20
18.703
 30
0.0
 10
2.8887
 20
18.703
 30
0.0
 10
-10.9133
 20
18.7143
 30
0.0
 10
-10.9133
 20
18.7143
 30
0.0
  0
SPLINE
  5
43
330
1F
100
AcDbEntity
  8
Ilustrace
 62
   250
370
    30
100
AcDbSpline
210
0.0
220
0.0
230
1.0
 70
    24
 71
     3
 72
     8
 73
     4
 74
     0
 42
0.0000000001
 43
0.0000000001
 40
0.0
 40
0.0
 40
0.0
 40
0.0
 40
1.0
 40
1.0
 40
1.0
 40
1.0
 10
-18.5016
 20
19.3646
 30
0.0
 10
-18.5016
 20
19.3646
 30
0.0
 10
-9.9161
 20
19.3646
 30
0.0
 10
-9.9161
 20
19.3646
 30
0.0
  0
SPLINE
  5
44
330
1F
100
AcDbEntity
  8
Ilustrace
 62
   250
370
    30
100
AcDbSpline
210
0.0
220
0.0
230
1.0
 70
    24
 71
     3
 72
     8
 73
     4
 74
     0
 42
0.0000000001
 43
0.0000000001
 40
0.0
 40
0.0
 40
0.0
 40
0.0
 40
1.0
 40
1.0
 40
1.0
 40
1.0
 10
-18.8042
 20
19.3646
 30
0.0
 10
-18.8042
 20
19.3646
 30
0.0
 10
-9.9161
 20
19.3646
 30
0.0
 10
-9.9161
 20
19.3646
 30
0.0
  0
SPLINE
  5
45
330
1F
100
AcDbEntity
  8
Ilustrace
 62
   250
370
    30
100
AcDbSpline
210
0.0
220
0.0
230
1.0
 70
    24
 71
     3
 72
     8
 73
     4
 74
     0
 42
0.0000000001
 43
0.0000000001
 40
0.0
 40
0.0
 40
0.0
 40
0.0
 40
1.0
 40
1.0
 40
1.0
 40
1.0
 10
-11.1488
 20
19.3646
 30
0.0
 10
-11.1488
 20
19.3646
 30
0.0
 10
-18.5016
 20
19.3646
 30
0.0
 10
-18.5016
 20
19.3646
 30
0.0
  0
SPLINE
  5
46
330
1F
100
AcDbEntity
  8
Ilustrace
 62
   250
370
    30
100
AcDbSpline
210
0.0
220
0.0
230
1.0
 70
    24
 71
     3
 72
     8
 73
     4
 74
     0
 42
0.0000000001
 43
0.0000000001
 40
0.0
 40
0.0
 40
0.0
 40
0.0
 40
1.0
 40
1.0
 40
1.0
 40
1.0
 10
11.0594
 20
19.3646
 30
0.0
 10
11.0594
 20
19.3646
 30
0.0
 10
-18.0019
 20
19.3646
 30
0.0
 10
-18.0019
 20
19.3646
 30
0.0
  0
SPLINE
  5
47
330
1F
100
AcDbEntity
  8
Ilustrace
 62
   250
370
    30
100
AcDbSpline
210
0.0
220
0.0
230
1.0
 70
    24
 71
     3
 72
     8
 73
     4
 74
     0
 42
0.0000000001
 43
0.0000000001
 40
0.0
 40
0.0
 40
0.0
 40
0.0
 40
1.0
 40
1.0
 40
1.0
 40
1.0
 10
3.1399
 20
18.7227
 30
0.0
 10
3.1399
 20
18.7227
 30
0.0
 10
-10.9862
 20
18.7227
 30
0.0
 10
-10.9862
 20
18.7227
 30
0.0
  0
SPLINE
  5
48
330
1F
100
AcDbEntity
  8
Ilustrace
 62
   250
370
    30
100
AcDbSpline
210
0.0
220
0.0
230
1.0
 70
    24
 71
     3
 72
     8
 73
     4
 74
     0
 42
0.0000000001
 43
0.0000000001
 40
0.0
 40
0.0
 40
0.0
 40
0.0
 40
1.0
 40
1.0
 40
1.0
 40
1.0
 10
3.5679
 20
19.3646
 30
0.0
 10
3.5679
 20
19.3646
 30
0.0
 10
-1.3212
 20
19.3646
 30
0.0
 10
-1.3212
 20
19.3646
 30
0.0
  0
SPLINE
  5
49
330
1F
100
AcDbEntity
  8
Ilustrace
 62
   250
370
    30
100
AcDbSpline
210
0.0
220
0.0
230
1.0
 70
    24
 71
     3
 72
     8
 73
     4
 74
     0
 42
0.0000000001
 43
0.0000000001
 40
0.0
 40
0.0
 40
0.0
 40
0.0
 40
1.0
 40
1.0
 40
1.0
 40
1.0
 10
7.5539
 20
19.3646
 30
0.0
 10
7.5539
 20
19.3646
 30
0.0
 10
-6.5247
 20
19.3646
 30
0.0
 10
-6.5247
 20
19.3646
 30
0.0
  0
SPLINE
  5
4A
330
1F
100
AcDbEntity
  8
Ilustrace
 62
   250
370
    30
100
AcDbSpline
210
0.0
220
0.0
230
1.0
 70
    24
 71
     3
 72
     8
 73
     4
 74
     0
 42
0.0000000001
 43
0.0000000001
 40
0.0
 40
0.0
 40
0.0
 40
0.0
 40
1.0
 40
1.0
 40
1.0
 40
1.0
 10
6.3583
 20
19.3646
 30
0.0
 10
6.3583
 20
19.3646
 30
0.0
 10
-4.7942
 20
19.3646
 30
0.0
 10
-4.7942
 20
19.3646
 30
0.0
  0
SPLINE
  5
4B
330
1F
100
AcDbEntity
  8
Ilustrace
 62
   250
370
    30
100
AcDbSpline
210
0.0
220
0.0
230
1.0
 70
    24
 71
     3
 72
     8
 73
     4
 74
     0
 42
0.0000000001
 43
0.0000000001
 40
0.0
 40
0.0
 40
0.0
 40
0.0
 40
1.0
 40
1.0
 40
1.0
 40
1.0
 10
5.024
 20
19.3646
 30
0.0
 10
5.024
 20
19.3646
 30
0.0
 10
-3.0521
 20
19.3646
 30
0.0
 10
-3.0521
 20
19.3646
 30
0.0
  0
SPLINE
  5
4C
330
1F
100
AcDbEntity
  8
Ilustrace
 62
   250
370
    30
100
AcDbSpline
210
0.0
220
0.0
230
1.0
 70
     8
 71
     3
 72
    12
 73
     8
 74
     0
 42
0.0000000001
 43
0.0000000001
 40
0.0
 40
0.0
 40
0.0
 40
0.0
 40
0.3333333333333333
 40
0.3333333333333333
 40
0.3333333333333333
 40
0.3333333333333333
 40
1.0
 40
1.0
 40
1.0
 40
1.0
 10
-10.9862
 20
18.7227
 30
0.0
 10
-10.9857
 20
18.8584
 30
0.0
 10
-10.9671
 20
19.0241
 30
0.0
 10
-11.0392
 20
19.1507
 30
0.0
 10
-11.0392
 20
19.1507
 30
0.0
 10
-11.25
 20
19.5217
 30
0.0
 10
-12.0419
 20
19.3646
 30
0.0
 10
-12.2693
 20
19.3646
 30
0.0
  0
SPLINE
  5
4D
330
1F
100
AcDbEntity
  8
Ilustrace
 62
   250
370
    30
100
AcDbSpline
210
0.0
220
0.0
230
1.0
 70
    24
 71
     3
 72
    12
 73
     8
 74
     0
 42
0.0000000001
 43
0.0000000001
 40
0.0
 40
0.0
 40
0.0
 40
0.0
 40
0.3333333333333333
 40
0.3333333333333333
 40
0.3333333333333333
 40
0.3333333333333333
 40
1.0
 40
1.0
 40
1.0
 40
1.0
 10
-12.2693
 20
19.3646
 30
0.0
 10
-12.2693
 20
19.3646
 30
0.0
 10
-18.0492
 20
19.3646
 30
0.0
 10
-18.0492
 20
19.3646
 30
0.0
 10
-18.0492
 20
19.3646
 30
0.0
 10
-18.0492
 20
19.3646
 30
0.0
 10
-18.9054
 20
19.3646
 30
0.0
 10
-18.9054
 20
19.3646
 30
0.0
  0
SPLINE
  5
4E
330
1F
100
AcDbEntity
  8
Ilustrace
 62
   250
370
    30
100
AcDbSpline
210
0.0
220
0.0
230
1.0
 70
    24
 71
     3
 72
     8
 73
     4
 74
     0
 42
0.0000000001
 43
0.0000000001
 40
0.0
 40
0.0
 40
0.0
 40
0.0
 40
1.0
 40
1.0
 40
1.0
 40
1.0
 10
11.0594
 20
19.3646
 30
0.0
 10
11.0594
 20
19.3646
 30
0.0
 10
10.9342
 20
20.0667
 30
0.0
 10
10.9342
 20
20.0667
 30
0.0
  0
SPLINE
  5
4F
330
1F
100
AcDbEntity
  8
Ilustrace
 62
   250
370
    30
100
AcDbSpline
210
0.0
220
0.0
230
1.0
 70
     8
 71
     3
 72
     8
 73
     4
 74
     0
 42
0.0000000001
 43
0.0000000001
 40
0.0
 40
0.0
 40
0.0
 40
0.0
 40
1.0
 40
1.0
 40
1.0
 40
1.0
 10
10.9342
 20
20.0667
 30
0.0
 10
10.8049
 20
20.633
 30
0.0
 10
10.0454
 20
20.5309
 30
0.0
 10
9.6335
 20
20.5708
 30
0.0
  0
SPLINE
  5
50
330
1F
100
AcDbEntity
  8
Ilustrace
 62
   250
370
    30
100
AcDbSpline
210
0.0
220
0.0
230
1.0
 70
    24
 71
     3
 72
     8
 73
     4
 74
     0
 42
0.0000000001
 43
0.0000000001
 40
0.0
 40
0.0
 40
0.0
 40
0.0
 40
1.0
 40
1.0
 40
1.0
 40
1.0
 10
9.6335
 20
20.5708
 30
0.0
 10
9.6335
 20
20.5708
 30
0.0
 10
7.7317
 20
20.7556
 30
0.0
 10
7.7317
 20
20.7556
 30
0.0
  0
SPLINE
  5
51
330
1F
100
AcDbEntity
  8
Ilustrace
 62
   250
370
    30
100
AcDbSpline
210
0.0
220
0.0
230
1.0
 70
     8
 71
     3
 72
    20
 73
    16
 74
     0
 42
0.0000000001
 43
0.0000000001
 40
0.0
 40
0.0
 40
0.0
 40
0.0
 40
0.2
 40
0.2
 40
0.2
 40
0.2
 40
0.4
 40
0.4
 40
0.4
 40
0.4
 40
0.6
 40
0.6
 40
0.6
 40
0.6
 40
1.0
 40
1.0
 40
1.0
 40
1.0
 10
7.7317
 20
20.7556
 30
0.0
 10
5.0575
 20
21.0155
 30
0.0
 10
2.3643
 20
21.1658
 30
0.0
 10
-0.3209
 20
21.2407
 30
0.0
 10
-0.3209
 20
21.2407
 30
0.0
 10
-1.521
 20
21.2744
 30
0.0
 10
-2.7225
 20
21.2744
 30
0.0
 10
-3.9232
 20
21.2911
 30
0.0
 10
-3.9232
 20
21.2911
 30
0.0
 10
-5.1235
 20
21.2744
 30
0.0
 10
-6.3252
 20
21.2744
 30
0.0
 10
-7.5253
 20
21.2407
 30
0.0
 10
-7.5253
 20
21.2407
 30
0.0
 10
-10.2106
 20
21.1658
 30
0.0
 10
-12.9039
 20
21.0155
 30
0.0
 10
-15.5777
 20
20.7556
 30
0.0
  0
SPLINE
  5
52
330
1F
100
AcDbEntity
  8
Ilustrace
 62
   250
370
    30
100
AcDbSpline
210
0.0
220
0.0
230
1.0
 70
    24
 71
     3
 72
     8
 73
     4
 74
     0
 42
0.0000000001
 43
0.0000000001
 40
0.0
 40
0.0
 40
0.0
 40
0.0
 40
1.0
 40
1.0
 40
1.0
 40
1.0
 10
-15.5777
 20
20.7556
 30
0.0
 10
-15.5777
 20
20.7556
 30
0.0
 10
-17.4794
 20
20.5708
 30
0.0
 10
-17.4794
 20
20.5708
 30
0.0
  0
SPLINE
  5
53
330
1F
100
AcDbEntity
  8
Ilustrace
 62
   250
370
    30
100
AcDbSpline
210
0.0
220
0.0
230
1.0
 70
     8
 71
     3
 72
     8
 73
     4
 74
     0
 42
0.0000000001
 43
0.0000000001
 40
0.0
 40
0.0
 40
0.0
 40
0.0
 40
1.0
 40
1.0
 40
1.0
 40
1.0
 10
-17.4794
 20
20.5708
 30
0.0
 10
-17.8916
 20
20.5309
 30
0.0
 10
-18.651
 20
20.633
 30
0.0
 10
-18.7804
 20
20.0667
 30
0.0
  0
SPLINE
  5
54
330
1F
100
AcDbEntity
  8
Ilustrace
 62
   250
370
    30
100
AcDbSpline
210
0.0
220
0.0
230
1.0
 70
    24
 71
     3
 72
     8
 73
     4
 74
     0
 42
0.0000000001
 43
0.0000000001
 40
0.0
 40
0.0
 40
0.0
 40
0.0
 40
1.0
 40
1.0
 40
1.0
 40
1.0
 10
-18.7804
 20
20.0667
 30
0.0
 10
-18.7804
 20
20.0667
 30
0.0
 10
-18.9054
 20
19.3646
 30
0.0
 10
-18.9054
 20
19.3646
 30
0.0
  0
SPLINE
  5
55
330
1F
100
AcDbEntity
  8
Ilustrace
 62
   250
370
    30
100
AcDbSpline
210
0.0
220
0.0
230
1.0
 70
    24
 71
     3
 72
     8
 73
     4
 74
     0
 42
0.0000000001
 43
0.0000000001
 40
0.0
 40
0.0
 40
0.0
 40
0.0
 40
1.0
 40
1.0
 40
1.0
 40
1.0
 10
3.567
 20
19.3646
 30
0.0
 10
3.567
 20
19.3646
 30
0.0
 10
3.3497
 20
19.3076
 30
0.0
 10
3.3497
 20
19.3076
 30
0.0
  0
SPLINE
  5
56
330
1F
100
AcDbEntity
  8
Ilustrace
 62
   250
370
    30
100
AcDbSpline
210
0.0
220
0.0
230
1.0
 70
     8
 71
     3
 72
     8
 73
     4
 74
     0
 42
0.0000000001
 43
0.0000000001
 40
0.0
 40
0.0
 40
0.0
 40
0.0
 40
1.0
 40
1.0
 40
1.0
 40
1.0
 10
3.3497
 20
19.3076
 30
0.0
 10
3.1235
 20
19.178
 30
0.0
 10
3.139
 20
18.9448
 30
0.0
 10
3.1399
 20
18.7227
 30
0.0
  0
SPLINE
  5
57
330
1F
100
AcDbEntity
  8
Ilustrace
 62
   250
370
    30
100
AcDbSpline
210
0.0
220
0.0
230
1.0
 70
    24
 71
     3
 72
     8
 73
     4
 74
     0
 42
0.0000000001
 43
0.0000000001
 40
0.0
 40
0.0
 40
0.0
 40
0.0
 40
1.0
 40
1.0
 40
1.0
 40
1.0
 10
5.6182
 20
15.9181
 30
0.0
 10
5.6182
 20
15.9181
 30
0.0
 10
5.6883
 20
16.1784
 30
0.0
 10
5.6883
 20
16.1784
 30
0.0
  0
SPLINE
  5
58
330
1F
100
AcDbEntity
  8
Ilustrace
 62
   250
370
    30
100
AcDbSpline
210
0.0
220
0.0
230
1.0
 70
     8
 71
     3
 72
     8
 73
     4
 74
     0
 42
0.0000000001
 43
0.0000000001
 40
0.0
 40
0.0
 40
0.0
 40
0.0
 40
1.0
 40
1.0
 40
1.0
 40
1.0
 10
5.6883
 20
16.1784
 30
0.0
 10
5.6554
 20
16.7625
 30
0.0
 10
4.7984
 20
16.5708
 30
0.0
 10
4.5045
 20
16.5708
 30
0.0
  0
SPLINE
  5
59
330
1F
100
AcDbEntity
  8
Ilustrace
 62
   250
370
    30
100
AcDbSpline
210
0.0
220
0.0
230
1.0
 70
     8
 71
     3
 72
    16
 73
    12
 74
     0
 42
0.0000000001
 43
0.0000000001
 40
0.0
 40
0.0
 40
0.0
 40
0.0
 40
0.25
 40
0.25
 40
0.25
 40
0.25
 40
0.5
 40
0.5
 40
0.5
 40
0.5
 40
1.0
 40
1.0
 40
1.0
 40
1.0
 10
4.5045
 20
16.5708
 30
0.0
 10
4.5045
 20
16.5708
 30
0.0
 10
-12.3507
 20
16.5708
 30
0.0
 10
-12.3507
 20
16.5708
 30
0.0
 10
-12.3507
 20
16.5708
 30
0.0
 10
-12.3507
 20
16.5708
 30
0.0
 10
-13.2068
 20
16.5708
 30
0.0
 10
-13.2068
 20
16.5708
 30
0.0
 10
-13.2068
 20
16.5708
 30
0.0
 10
-13.2068
 20
16.5708
 30
0.0
 10
-13.4356
 20
16.4288
 30
0.0
 10
-13.4356
 20
16.4288
 30
0.0
  0
SPLINE
  5
5A
330
1F
100
AcDbEntity
  8
Ilustrace
 62
   250
370
    30
100
AcDbSpline
210
0.0
220
0.0
230
1.0
 70
     8
 71
     3
 72
     8
 73
     4
 74
     0
 42
0.0000000001
 43
0.0000000001
 40
0.0
 40
0.0
 40
0.0
 40
0.0
 40
1.0
 40
1.0
 40
1.0
 40
1.0
 10
-13.4356
 20
16.4288
 30
0.0
 10
-13.6235
 20
16.2041
 30
0.0
 10
-13.5287
 20
15.851
 30
0.0
 10
-13.2527
 20
15.7515
 30
0.0
  0
SPLINE
  5
5B
330
1F
100
AcDbEntity
  8
Ilustrace
 62
   250
370
    30
100
AcDbSpline
210
0.0
220
0.0
230
1.0
 70
     8
 71
     3
 72
    28
 73
    24
 74
     0
 42
0.0000000001
 43
0.0000000001
 40
0.0
 40
0.0
 40
0.0
 40
0.0
 40
0.1428571428571428
 40
0.1428571428571428
 40
0.1428571428571428
 40
0.1428571428571428
 40
0.2857142857142857
 40
0.2857142857142857
 40
0.2857142857142857
 40
0.2857142857142857
 40
0.4285714285714285
 40
0.4285714285714285
 40
0.4285714285714285
 40
0.4285714285714285
 40
0.5714285714285714
 40
0.5714285714285714
 40
0.5714285714285714
 40
0.5714285714285714
 40
0.7142857142857143
 40
0.7142857142857143
 40
0.7142857142857143
 40
0.7142857142857143
 40
1.0
 40
1.0
 40
1.0
 40
1.0
 10
-13.2527
 20
15.7515
 30
0.0
 10
-13.2527
 20
15.7515
 30
0.0
 10
-12.9839
 20
15.7446
 30
0.0
 10
-12.9839
 20
15.7446
 30
0.0
 10
-12.9839
 20
15.7446
 30
0.0
 10
-12.9839
 20
15.7446
 30
0.0
 10
-12.1278
 20
15.7446
 30
0.0
 10
-12.1278
 20
15.7446
 30
0.0
 10
-12.1278
 20
15.7446
 30
0.0
 10
-12.1278
 20
15.7446
 30
0.0
 10
4.2816
 20
15.7446
 30
0.0
 10
4.2816
 20
15.7446
 30
0.0
 10
4.2816
 20
15.7446
 30
0.0
 10
4.2816
 20
15.7446
 30
0.0
 10
5.1379
 20
15.7446
 30
0.0
 10
5.1379
 20
15.7446
 30
0.0
 10
5.1379
 20
15.7446
 30
0.0
 10
5.1379
 20
15.7446
 30
0.0
 10
5.4067
 20
15.7515
 30
0.0
 10
5.4067
 20
15.7515
 30
0.0
 10
5.4067
 20
15.7515
 30
0.0
 10
5.4067
 20
15.7515
 30
0.0
 10
5.6182
 20
15.9181
 30
0.0
 10
5.6182
 20
15.9181
 30
0.0
  0
SPLINE
  5
5C
330
1F
100
AcDbEntity
  8
Ilustrace
 62
   250
370
    30
100
AcDbSpline
210
0.0
220
0.0
230
1.0
 70
    24
 71
     3
 72
     8
 73
     4
 74
     0
 42
0.0000000001
 43
0.0000000001
 40
0.0
 40
0.0
 40
0.0
 40
0.0
 40
1.0
 40
1.0
 40
1.0
 40
1.0
 10
-10.7935
 20
18.7227
 30
0.0
 10
-10.7935
 20
18.7227
 30
0.0
 10
-11.1102
 20
18.6366
 30
0.0
 10
-11.1102
 20
18.6366
 30
0.0
  0
SPLINE
  5
5D
330
1F
100
AcDbEntity
  8
Ilustrace
 62
   250
370
    30
100
AcDbSpline
210
0.0
220
0.0
230
1.0
 70
     8
 71
     3
 72
     8
 73
     4
 74
     0
 42
0.0000000001
 43
0.0000000001
 40
0.0
 40
0.0
 40
0.0
 40
0.0
 40
1.0
 40
1.0
 40
1.0
 40
1.0
 10
-11.1102
 20
18.6366
 30
0.0
 10
-11.5625
 20
18.3731
 30
0.0
 10
-11.4342
 20
17.7354
 30
0.0
 10
-11.4342
 20
17.3255
 30
0.0
  0
SPLINE
  5
5E
330
1F
100
AcDbEntity
  8
Ilustrace
 62
   250
370
    30
100
AcDbSpline
210
0.0
220
0.0
230
1.0
 70
    24
 71
     3
 72
     8
 73
     4
 74
     0
 42
0.0000000001
 43
0.0000000001
 40
0.0
 40
0.0
 40
0.0
 40
0.0
 40
1.0
 40
1.0
 40
1.0
 40
1.0
 10
-11.4342
 20
17.3255
 30
0.0
 10
-11.4342
 20
17.3255
 30
0.0
 10
-11.4344
 20
16.5708
 30
0.0
 10
-11.4344
 20
16.5708
 30
0.0
  0
SPLINE
  5
5F
330
1F
100
AcDbEntity
  8
Ilustrace
 62
   250
370
    30
100
AcDbSpline
210
0.0
220
0.0
230
1.0
 70
    24
 71
     3
 72
     8
 73
     4
 74
     0
 42
0.0000000001
 43
0.0000000001
 40
0.0
 40
0.0
 40
0.0
 40
0.0
 40
1.0
 40
1.0
 40
1.0
 40
1.0
 10
3.5881
 20
16.5708
 30
0.0
 10
3.5881
 20
16.5708
 30
0.0
 10
3.5881
 20
17.3255
 30
0.0
 10
3.5881
 20
17.3255
 30
0.0
  0
SPLINE
  5
60
330
1F
100
AcDbEntity
  8
Ilustrace
 62
   250
370
    30
100
AcDbSpline
210
0.0
220
0.0
230
1.0
 70
     8
 71
     3
 72
     8
 73
     4
 74
     0
 42
0.0000000001
 43
0.0000000001
 40
0.0
 40
0.0
 40
0.0
 40
0.0
 40
1.0
 40
1.0
 40
1.0
 40
1.0
 10
3.5881
 20
17.3255
 30
0.0
 10
3.5878
 20
17.7354
 30
0.0
 10
3.7164
 20
18.3731
 30
0.0
 10
3.2641
 20
18.6366
 30
0.0
  0
SPLINE
  5
61
330
1F
100
AcDbEntity
  8
Ilustrace
 62
   250
370
    30
100
AcDbSpline
210
0.0
220
0.0
230
1.0
 70
    24
 71
     3
 72
     8
 73
     4
 74
     0
 42
0.0000000001
 43
0.0000000001
 40
0.0
 40
0.0
 40
0.0
 40
0.0
 40
1.0
 40
1.0
 40
1.0
 40
1.0
 10
3.2641
 20
18.6366
 30
0.0
 10
3.2641
 20
18.6366
 30
0.0
 10
2.9473
 20
18.7227
 30
0.0
 10
2.9473
 20
18.7227
 30
0.0
  0
SPLINE
  5
62
330
1F
100
AcDbEntity
  8
Ilustrace
 62
   250
370
    30
100
AcDbSpline
210
0.0
220
0.0
230
1.0
 70
     8
 71
     3
 72
    32
 73
    28
 74
     0
 42
0.0000000001
 43
0.0000000001
 40
0.0
 40
0.0
 40
0.0
 40
0.0
 40
0.125
 40
0.125
 40
0.125
 40
0.125
 40
0.25
 40
0.25
 40
0.25
 40
0.25
 40
0.375
 40
0.375
 40
0.375
 40
0.375
 40
0.5
 40
0.5
 40
0.5
 40
0.5
 40
0.625
 40
0.625
 40
0.625
 40
0.625
 40
0.75
 40
0.75
 40
0.75
 40
0.75
 40
1.0
 40
1.0
 40
1.0
 40
1.0
 10
4.1486
 20
15.7446
 30
0.0
 10
4.1486
 20
15.7446
 30
0.0
 10
2.5362
 20
15.0934
 30
0.0
 10
2.5362
 20
15.0934
 30
0.0
 10
2.5362
 20
15.0934
 30
0.0
 10
2.5362
 20
15.0934
 30
0.0
 10
2.4936
 20
15.0839
 30
0.0
 10
2.4936
 20
15.0839
 30
0.0
 10
2.4936
 20
15.0839
 30
0.0
 10
2.4936
 20
15.0839
 30
0.0
 10
1.6372
 20
15.0839
 30
0.0
 10
1.6372
 20
15.0839
 30
0.0
 10
1.6372
 20
15.0839
 30
0.0
 10
1.6372
 20
15.0839
 30
0.0
 10
-9.4836
 20
15.0839
 30
0.0
 10
-9.4836
 20
15.0839
 30
0.0
 10
-9.4836
 20
15.0839
 30
0.0
 10
-9.4836
 20
15.0839
 30
0.0
 10
-10.3397
 20
15.0839
 30
0.0
 10
-10.3397
 20
15.0839
 30
0.0
 10
-10.3397
 20
15.0839
 30
0.0
 10
-10.3397
 20
15.0839
 30
0.0
 10
-10.3826
 20
15.0934
 30
0.0
 10
-10.3826
 20
15.0934
 30
0.0
 10
-10.3826
 20
15.0934
 30
0.0
 10
-10.3826
 20
15.0934
 30
0.0
 10
-11.9948
 20
15.7446
 30
0.0
 10
-11.9948
 20
15.7446
 30
0.0
  0
SPLINE
  5
63
330
1F
100
AcDbEntity
  8
Ilustrace
 62
   250
370
    30
100
AcDbSpline
210
0.0
220
0.0
230
1.0
 70
    24
 71
     3
 72
     8
 73
     4
 74
     0
 42
0.0000000001
 43
0.0000000001
 40
0.0
 40
0.0
 40
0.0
 40
0.0
 40
1.0
 40
1.0
 40
1.0
 40
1.0
 10
11.1594
 20
14.8501
 30
0.0
 10
11.1594
 20
14.8501
 30
0.0
 10
-18.8054
 20
14.8501
 30
0.0
 10
-18.8054
 20
14.8501
 30
0.0
  0
SPLINE
  5
64
330
1F
100
AcDbEntity
  8
Ilustrace
 62
   250
370
    30
100
AcDbSpline
210
0.0
220
0.0
230
1.0
 70
    24
 71
     3
 72
     8
 73
     4
 74
     0
 42
0.0000000001
 43
0.0000000001
 40
0.0
 40
0.0
 40
0.0
 40
0.0
 40
1.0
 40
1.0
 40
1.0
 40
1.0
 10
-18.8054
 20
14.8501
 30
0.0
 10
-18.8054
 20
14.8501
 30
0.0
 10
-18.8054
 20
14.4273
 30
0.0
 10
-18.8054
 20
14.4273
 30
0.0
  0
SPLINE
  5
65
330
1F
100
AcDbEntity
  8
Ilustrace
 62
   250
370
    30
100
AcDbSpline
210
0.0
220
0.0
230
1.0
 70
    24
 71
     3
 72
     8
 73
     4
 74
     0
 42
0.0000000001
 43
0.0000000001
 40
0.0
 40
0.0
 40
0.0
 40
0.0
 40
1.0
 40
1.0
 40
1.0
 40
1.0
 10
11.1594
 20
14.4273
 30
0.0
 10
11.1594
 20
14.4273
 30
0.0
 10
11.1594
 20
14.8501
 30
0.0
 10
11.1594
 20
14.8501
 30
0.0
  0
SPLINE
  5
66
330
1F
100
AcDbEntity
  8
Ilustrace
 62
   250
370
    30
100
AcDbSpline
210
0.0
220
0.0
230
1.0
 70
    24
 71
     3
 72
     8
 73
     4
 74
     0
 42
0.0000000001
 43
0.0000000001
 40
0.0
 40
0.0
 40
0.0
 40
0.0
 40
1.0
 40
1.0
 40
1.0
 40
1.0
 10
11.1594
 20
14.4273
 30
0.0
 10
11.1594
 20
14.4273
 30
0.0
 10
-18.8054
 20
14.4273
 30
0.0
 10
-18.8054
 20
14.4273
 30
0.0
  0
SPLINE
  5
67
330
1F
100
AcDbEntity
  8
Ilustrace
 62
   250
370
    30
100
AcDbSpline
210
0.0
220
0.0
230
1.0
 70
    24
 71
     3
 72
     8
 73
     4
 74
     0
 42
0.0000000001
 43
0.0000000001
 40
0.0
 40
0.0
 40
0.0
 40
0.0
 40
1.0
 40
1.0
 40
1.0
 40
1.0
 10
6.9749
 20
13.3749
 30
0.0
 10
6.9749
 20
13.3749
 30
0.0
 10
-14.4007
 20
13.3749
 30
0.0
 10
-14.4007
 20
13.3749
 30
0.0
  0
SPLINE
  5
68
330
1F
100
AcDbEntity
  8
Ilustrace
 62
   250
370
    30
100
AcDbSpline
210
0.0
220
0.0
230
1.0
 70
     8
 71
     3
 72
    24
 73
    20
 74
     0
 42
0.0000000001
 43
0.0000000001
 40
0.0
 40
0.0
 40
0.0
 40
0.0
 40
0.1666666666666667
 40
0.1666666666666667
 40
0.1666666666666667
 40
0.1666666666666667
 40
0.3333333333333333
 40
0.3333333333333333
 40
0.3333333333333333
 40
0.3333333333333333
 40
0.5
 40
0.5
 40
0.5
 40
0.5
 40
0.6666666666666666
 40
0.6666666666666666
 40
0.6666666666666666
 40
0.6666666666666666
 40
1.0
 40
1.0
 40
1.0
 40
1.0
 10
-18.8054
 20
14.4273
 30
0.0
 10
-18.8054
 20
14.4273
 30
0.0
 10
-17.4709
 20
13.6595
 30
0.0
 10
-17.4709
 20
13.6595
 30
0.0
 10
-17.4709
 20
13.6595
 30
0.0
 10
-17.4709
 20
13.6595
 30
0.0
 10
-16.6179
 20
13.5851
 30
0.0
 10
-16.6179
 20
13.5851
 30
0.0
 10
-16.6179
 20
13.5851
 30
0.0
 10
-16.6179
 20
13.5851
 30
0.0
 10
-15.6243
 20
13.498
 30
0.0
 10
-15.6243
 20
13.498
 30
0.0
 10
-15.6243
 20
13.498
 30
0.0
 10
-15.6243
 20
13.498
 30
0.0
 10
-14.7716
 20
13.4232
 30
0.0
 10
-14.7716
 20
13.4232
 30
0.0
 10
-14.7716
 20
13.4232
 30
0.0
 10
-14.7716
 20
13.4232
 30
0.0
 10
-14.5173
 20
13.3178
 30
0.0
 10
-14.5173
 20
13.3178
 30
0.0
  0
SPLINE
  5
69
330
1F
100
AcDbEntity
  8
Ilustrace
 62
   250
370
    30
100
AcDbSpline
210
0.0
220
0.0
230
1.0
 70
     8
 71
     3
 72
     8
 73
     4
 74
     0
 42
0.0000000001
 43
0.0000000001
 40
0.0
 40
0.0
 40
0.0
 40
0.0
 40
1.0
 40
1.0
 40
1.0
 40
1.0
 10
-14.5173
 20
13.3178
 30
0.0
 10
-14.4063
 20
13.2195
 30
0.0
 10
-14.3873
 20
13.0721
 30
0.0
 10
-14.3576
 20
12.9407
 30
0.0
  0
SPLINE
  5
6A
330
1F
100
AcDbEntity
  8
Ilustrace
 62
   250
370
    30
100
AcDbSpline
210
0.0
220
0.0
230
1.0
 70
     8
 71
     3
 72
    16
 73
    12
 74
     0
 42
0.0000000001
 43
0.0000000001
 40
0.0
 40
0.0
 40
0.0
 40
0.0
 40
0.25
 40
0.25
 40
0.25
 40
0.25
 40
0.5
 40
0.5
 40
0.5
 40
0.5
 40
1.0
 40
1.0
 40
1.0
 40
1.0
 10
-14.261
 20
12.5124
 30
0.0
 10
-14.261
 20
12.5124
 30
0.0
 10
-13.9788
 20
11.2589
 30
0.0
 10
-13.9788
 20
11.2589
 30
0.0
 10
-13.9788
 20
11.2589
 30
0.0
 10
-13.9788
 20
11.2589
 30
0.0
 10
-13.9693
 20
11.1689
 30
0.0
 10
-13.9693
 20
11.1689
 30
0.0
 10
-13.9693
 20
11.1689
 30
0.0
 10
-13.9693
 20
11.1689
 30
0.0
 10
-13.9968
 20
7.0297
 30
0.0
 10
-13.9968
 20
7.0297
 30
0.0
  0
SPLINE
  5
6B
330
1F
100
AcDbEntity
  8
Ilustrace
 62
   250
370
    30
100
AcDbSpline
210
0.0
220
0.0
230
1.0
 70
     8
 71
     3
 72
    24
 73
    20
 74
     0
 42
0.0000000001
 43
0.0000000001
 40
0.0
 40
0.0
 40
0.0
 40
0.0
 40
0.1666666666666667
 40
0.1666666666666667
 40
0.1666666666666667
 40
0.1666666666666667
 40
0.3333333333333333
 40
0.3333333333333333
 40
0.3333333333333333
 40
0.3333333333333333
 40
0.5
 40
0.5
 40
0.5
 40
0.5
 40
0.6666666666666666
 40
0.6666666666666666
 40
0.6666666666666666
 40
0.6666666666666666
 40
1.0
 40
1.0
 40
1.0
 40
1.0
 10
11.1594
 20
14.4273
 30
0.0
 10
11.1594
 20
14.4273
 30
0.0
 10
9.8246
 20
13.6595
 30
0.0
 10
9.8246
 20
13.6595
 30
0.0
 10
9.8246
 20
13.6595
 30
0.0
 10
9.8246
 20
13.6595
 30
0.0
 10
8.9719
 20
13.5851
 30
0.0
 10
8.9719
 20
13.5851
 30
0.0
 10
8.9719
 20
13.5851
 30
0.0
 10
8.9719
 20
13.5851
 30
0.0
 10
7.9783
 20
13.498
 30
0.0
 10
7.9783
 20
13.498
 30
0.0
 10
7.9783
 20
13.498
 30
0.0
 10
7.9783
 20
13.498
 30
0.0
 10
7.1255
 20
13.4232
 30
0.0
 10
7.1255
 20
13.4232
 30
0.0
 10
7.1255
 20
13.4232
 30
0.0
 10
7.1255
 20
13.4232
 30
0.0
 10
6.8712
 20
13.3178
 30
0.0
 10
6.8712
 20
13.3178
 30
0.0
  0
SPLINE
  5
6C
330
1F
100
AcDbEntity
  8
Ilustrace
 62
   250
370
    30
100
AcDbSpline
210
0.0
220
0.0
230
1.0
 70
     8
 71
     3
 72
     8
 73
     4
 74
     0
 42
0.0000000001
 43
0.0000000001
 40
0.0
 40
0.0
 40
0.0
 40
0.0
 40
1.0
 40
1.0
 40
1.0
 40
1.0
 10
6.8712
 20
13.3178
 30
0.0
 10
6.7601
 20
13.2198
 30
0.0
 10
6.741
 20
13.0721
 30
0.0
 10
6.7114
 20
12.9407
 30
0.0
  0
SPLINE
  5
6D
330
1F
100
AcDbEntity
  8
Ilustrace
 62
   250
370
    30
100
AcDbSpline
210
0.0
220
0.0
230
1.0
 70
     8
 71
     3
 72
    12
 73
     8
 74
     0
 42
0.0000000001
 43
0.0000000001
 40
0.0
 40
0.0
 40
0.0
 40
0.0
 40
0.3333333333333333
 40
0.3333333333333333
 40
0.3333333333333333
 40
0.3333333333333333
 40
1.0
 40
1.0
 40
1.0
 40
1.0
 10
6.6151
 20
12.5124
 30
0.0
 10
6.5009
 20
12.0059
 30
0.0
 10
6.323
 20
11.4931
 30
0.0
 10
6.323
 20
10.9706
 30
0.0
 10
6.323
 20
10.9706
 30
0.0
 10
6.323
 20
10.9706
 30
0.0
 10
6.3962
 20
6.9968
 30
0.0
 10
6.3962
 20
6.9968
 30
0.0
  0
SPLINE
  5
6E
330
1F
100
AcDbEntity
  8
Ilustrace
 62
   250
370
    30
100
AcDbSpline
210
0.0
220
0.0
230
1.0
 70
    24
 71
     3
 72
     8
 73
     4
 74
     0
 42
0.0000000001
 43
0.0000000001
 40
0.0
 40
0.0
 40
0.0
 40
0.0
 40
1.0
 40
1.0
 40
1.0
 40
1.0
 10
-14.4576
 20
12.9407
 30
0.0
 10
-14.4576
 20
12.9407
 30
0.0
 10
-18.9726
 20
12.9407
 30
0.0
 10
-18.9726
 20
12.9407
 30
0.0
  0
SPLINE
  5
6F
330
1F
100
AcDbEntity
  8
Ilustrace
 62
   250
370
    30
100
AcDbSpline
210
0.0
220
0.0
230
1.0
 70
    24
 71
     3
 72
     8
 73
     4
 74
     0
 42
0.0000000001
 43
0.0000000001
 40
0.0
 40
0.0
 40
0.0
 40
0.0
 40
1.0
 40
1.0
 40
1.0
 40
1.0
 10
-18.8542
 20
12.9407
 30
0.0
 10
-18.8542
 20
12.9407
 30
0.0
 10
-9.0194
 20
12.9407
 30
0.0
 10
-9.0194
 20
12.9407
 30
0.0
  0
SPLINE
  5
70
330
1F
100
AcDbEntity
  8
Ilustrace
 62
   250
370
    30
100
AcDbSpline
210
0.0
220
0.0
230
1.0
 70
    24
 71
     3
 72
     8
 73
     4
 74
     0
 42
0.0000000001
 43
0.0000000001
 40
0.0
 40
0.0
 40
0.0
 40
0.0
 40
1.0
 40
1.0
 40
1.0
 40
1.0
 10
-8.6192
 20
12.5124
 30
0.0
 10
-8.6192
 20
12.5124
 30
0.0
 10
0.6391
 20
12.5124
 30
0.0
 10
0.6391
 20
12.5124
 30
0.0
  0
SPLINE
  5
71
330
1F
100
AcDbEntity
  8
Ilustrace
 62
   250
370
    30
100
AcDbSpline
210
0.0
220
0.0
230
1.0
 70
    24
 71
     3
 72
     8
 73
     4
 74
     0
 42
0.0000000001
 43
0.0000000001
 40
0.0
 40
0.0
 40
0.0
 40
0.0
 40
1.0
 40
1.0
 40
1.0
 40
1.0
 10
-18.9726
 20
12.9407
 30
0.0
 10
-18.9726
 20
12.9407
 30
0.0
 10
-18.9726
 20
12.5124
 30
0.0
 10
-18.9726
 20
12.5124
 30
0.0
  0
SPLINE
  5
72
330
1F
100
AcDbEntity
  8
Ilustrace
 62
   250
370
    30
100
AcDbSpline
210
0.0
220
0.0
230
1.0
 70
    24
 71
     3
 72
     8
 73
     4
 74
     0
 42
0.0000000001
 43
0.0000000001
 40
0.0
 40
0.0
 40
0.0
 40
0.0
 40
1.0
 40
1.0
 40
1.0
 40
1.0
 10
10.9923
 20
12.5124
 30
0.0
 10
10.9923
 20
12.5124
 30
0.0
 10
-18.9726
 20
12.5124
 30
0.0
 10
-18.9726
 20
12.5124
 30
0.0
  0
SPLINE
  5
73
330
1F
100
AcDbEntity
  8
Ilustrace
 62
   250
370
    30
100
AcDbSpline
210
0.0
220
0.0
230
1.0
 70
    24
 71
     3
 72
     8
 73
     4
 74
     0
 42
0.0000000001
 43
0.0000000001
 40
0.0
 40
0.0
 40
0.0
 40
0.0
 40
1.0
 40
1.0
 40
1.0
 40
1.0
 10
10.9923
 20
12.9407
 30
0.0
 10
10.9923
 20
12.9407
 30
0.0
 10
10.9923
 20
12.5124
 30
0.0
 10
10.9923
 20
12.5124
 30
0.0
  0
SPLINE
  5
74
330
1F
100
AcDbEntity
  8
Ilustrace
 62
   250
370
    30
100
AcDbSpline
210
0.0
220
0.0
230
1.0
 70
    24
 71
     3
 72
     8
 73
     4
 74
     0
 42
0.0000000001
 43
0.0000000001
 40
0.0
 40
0.0
 40
0.0
 40
0.0
 40
1.0
 40
1.0
 40
1.0
 40
1.0
 10
6.6114
 20
12.9407
 30
0.0
 10
6.6114
 20
12.9407
 30
0.0
 10
10.8739
 20
12.9407
 30
0.0
 10
10.8739
 20
12.9407
 30
0.0
  0
SPLINE
  5
75
330
1F
100
AcDbEntity
  8
Ilustrace
 62
   250
370
    30
100
AcDbSpline
210
0.0
220
0.0
230
1.0
 70
    24
 71
     3
 72
     8
 73
     4
 74
     0
 42
0.0000000001
 43
0.0000000001
 40
0.0
 40
0.0
 40
0.0
 40
0.0
 40
1.0
 40
1.0
 40
1.0
 40
1.0
 10
-16.1113
 20
12.9407
 30
0.0
 10
-16.1113
 20
12.9407
 30
0.0
 10
10.9923
 20
12.9407
 30
0.0
 10
10.9923
 20
12.9407
 30
0.0
  0
SPLINE
  5
76
330
1F
100
AcDbEntity
  8
Ilustrace
 62
   250
370
    30
100
AcDbSpline
210
0.0
220
0.0
230
1.0
 70
    24
 71
     3
 72
     8
 73
     4
 74
     0
 42
0.0000000001
 43
0.0000000001
 40
0.0
 40
0.0
 40
0.0
 40
0.0
 40
1.0
 40
1.0
 40
1.0
 40
1.0
 10
9.1388
 20
12.9407
 30
0.0
 10
9.1388
 20
12.9407
 30
0.0
 10
6.6114
 20
12.9407
 30
0.0
 10
6.6114
 20
12.9407
 30
0.0
  0
SPLINE
  5
77
330
1F
100
AcDbEntity
  8
Ilustrace
 62
   250
370
    30
100
AcDbSpline
210
0.0
220
0.0
230
1.0
 70
    24
 71
     3
 72
     8
 73
     4
 74
     0
 42
0.0000000001
 43
0.0000000001
 40
0.0
 40
0.0
 40
0.0
 40
0.0
 40
1.0
 40
1.0
 40
1.0
 40
1.0
 10
2.2815
 20
12.9407
 30
0.0
 10
2.2815
 20
12.9407
 30
0.0
 10
9.1388
 20
12.9407
 30
0.0
 10
9.1388
 20
12.9407
 30
0.0
  0
SPLINE
  5
78
330
1F
100
AcDbEntity
  8
Ilustrace
 62
   250
370
    30
100
AcDbSpline
210
0.0
220
0.0
230
1.0
 70
    24
 71
     3
 72
     8
 73
     4
 74
     0
 42
0.0000000001
 43
0.0000000001
 40
0.0
 40
0.0
 40
0.0
 40
0.0
 40
1.0
 40
1.0
 40
1.0
 40
1.0
 10
-10.369
 20
12.5124
 30
0.0
 10
-10.369
 20
12.5124
 30
0.0
 10
2.3885
 20
12.5124
 30
0.0
 10
2.3885
 20
12.5124
 30
0.0
  0
SPLINE
  5
79
330
1F
100
AcDbEntity
  8
Ilustrace
 62
   250
370
    30
100
AcDbSpline
210
0.0
220
0.0
230
1.0
 70
    24
 71
     3
 72
     8
 73
     4
 74
     0
 42
0.0000000001
 43
0.0000000001
 40
0.0
 40
0.0
 40
0.0
 40
0.0
 40
1.0
 40
1.0
 40
1.0
 40
1.0
 10
-14.9121
 20
12.9407
 30
0.0
 10
-14.9121
 20
12.9407
 30
0.0
 10
-4.742
 20
12.9407
 30
0.0
 10
-4.742
 20
12.9407
 30
0.0
  0
SPLINE
  5
7A
330
1F
100
AcDbEntity
  8
Ilustrace
 62
   250
370
    30
100
AcDbSpline
210
0.0
220
0.0
230
1.0
 70
    24
 71
     3
 72
     8
 73
     4
 74
     0
 42
0.0000000001
 43
0.0000000001
 40
0.0
 40
0.0
 40
0.0
 40
0.0
 40
1.0
 40
1.0
 40
1.0
 40
1.0
 10
-14.4576
 20
12.9407
 30
0.0
 10
-14.4576
 20
12.9407
 30
0.0
 10
-17.9202
 20
12.9407
 30
0.0
 10
-17.9202
 20
12.9407
 30
0.0
  0
SPLINE
  5
7B
330
1F
100
AcDbEntity
  8
Ilustrace
 62
   250
370
    30
100
AcDbSpline
210
0.0
220
0.0
230
1.0
 70
    24
 71
     3
 72
     8
 73
     4
 74
     0
 42
0.0000000001
 43
0.0000000001
 40
0.0
 40
0.0
 40
0.0
 40
0.0
 40
1.0
 40
1.0
 40
1.0
 40
1.0
 10
-11.3639
 20
12.9407
 30
0.0
 10
-11.3639
 20
12.9407
 30
0.0
 10
-17.1193
 20
12.9407
 30
0.0
 10
-17.1193
 20
12.9407
 30
0.0
  0
SPLINE
  5
7C
330
1F
100
AcDbEntity
  8
Ilustrace
 62
   250
370
    30
100
AcDbSpline
210
0.0
220
0.0
230
1.0
 70
    24
 71
     3
 72
     8
 73
     4
 74
     0
 42
0.0000000001
 43
0.0000000001
 40
0.0
 40
0.0
 40
0.0
 40
0.0
 40
1.0
 40
1.0
 40
1.0
 40
1.0
 10
-12.0182
 20
12.5124
 30
0.0
 10
-12.0182
 20
12.5124
 30
0.0
 10
4.038
 20
12.5124
 30
0.0
 10
4.038
 20
12.5124
 30
0.0
  0
SPLINE
  5
7D
330
1F
100
AcDbEntity
  8
Ilustrace
 62
   250
370
    30
100
AcDbSpline
210
0.0
220
0.0
230
1.0
 70
    24
 71
     3
 72
     8
 73
     4
 74
     0
 42
0.0000000001
 43
0.0000000001
 40
0.0
 40
0.0
 40
0.0
 40
0.0
 40
1.0
 40
1.0
 40
1.0
 40
1.0
 10
4.3212
 20
12.9407
 30
0.0
 10
4.3212
 20
12.9407
 30
0.0
 10
9.9399
 20
12.9407
 30
0.0
 10
9.9399
 20
12.9407
 30
0.0
  0
SPLINE
  5
7E
330
1F
100
AcDbEntity
  8
Ilustrace
 62
   250
370
    30
100
AcDbSpline
210
0.0
220
0.0
230
1.0
 70
    24
 71
     3
 72
     8
 73
     4
 74
     0
 42
0.0000000001
 43
0.0000000001
 40
0.0
 40
0.0
 40
0.0
 40
0.0
 40
1.0
 40
1.0
 40
1.0
 40
1.0
 10
5.5605
 20
12.5124
 30
0.0
 10
5.5605
 20
12.5124
 30
0.0
 10
-13.5409
 20
12.5124
 30
0.0
 10
-13.5409
 20
12.5124
 30
0.0
  0
SPLINE
  5
7F
330
1F
100
AcDbEntity
  8
Ilustrace
 62
   250
370
    30
100
AcDbSpline
210
0.0
220
0.0
230
1.0
 70
    24
 71
     3
 72
     8
 73
     4
 74
     0
 42
0.0000000001
 43
0.0000000001
 40
0.0
 40
0.0
 40
0.0
 40
0.0
 40
1.0
 40
1.0
 40
1.0
 40
1.0
 10
-1.1834
 20
12.5124
 30
0.0
 10
-1.1834
 20
12.5124
 30
0.0
 10
-6.7971
 20
12.5124
 30
0.0
 10
-6.7971
 20
12.5124
 30
0.0
  0
SPLINE
  5
80
330
1F
100
AcDbEntity
  8
Ilustrace
 62
   250
370
    30
100
AcDbSpline
210
0.0
220
0.0
230
1.0
 70
    24
 71
     3
 72
     8
 73
     4
 74
     0
 42
0.0000000001
 43
0.0000000001
 40
0.0
 40
0.0
 40
0.0
 40
0.0
 40
1.0
 40
1.0
 40
1.0
 40
1.0
 10
-1.7519
 20
12.9407
 30
0.0
 10
-1.7519
 20
12.9407
 30
0.0
 10
8.1309
 20
12.9407
 30
0.0
 10
8.1309
 20
12.9407
 30
0.0
  0
SPLINE
  5
81
330
1F
100
AcDbEntity
  8
Ilustrace
 62
   250
370
    30
100
AcDbSpline
210
0.0
220
0.0
230
1.0
 70
    24
 71
     3
 72
     8
 73
     4
 74
     0
 42
0.0000000001
 43
0.0000000001
 40
0.0
 40
0.0
 40
0.0
 40
0.0
 40
1.0
 40
1.0
 40
1.0
 40
1.0
 10
-3.4164
 20
6.9656
 30
0.0
 10
-3.4164
 20
6.9656
 30
0.0
 10
6.325
 20
7.5714
 30
0.0
 10
6.325
 20
7.5714
 30
0.0
  0
SPLINE
  5
82
330
1F
100
AcDbEntity
  8
Ilustrace
 62
   250
370
    30
100
AcDbSpline
210
0.0
220
0.0
230
1.0
 70
    24
 71
     3
 72
     8
 73
     4
 74
     0
 42
0.0000000001
 43
0.0000000001
 40
0.0
 40
0.0
 40
0.0
 40
0.0
 40
1.0
 40
1.0
 40
1.0
 40
1.0
 10
-13.9738
 20
11.4697
 30
0.0
 10
-13.9738
 20
11.4697
 30
0.0
 10
1.6083
 20
12.4387
 30
0.0
 10
1.6083
 20
12.4387
 30
0.0
  0
SPLINE
  5
83
330
1F
100
AcDbEntity
  8
Ilustrace
 62
   250
370
    30
100
AcDbSpline
210
0.0
220
0.0
230
1.0
 70
    24
 71
     3
 72
     8
 73
     4
 74
     0
 42
0.0000000001
 43
0.0000000001
 40
0.0
 40
0.0
 40
0.0
 40
0.0
 40
1.0
 40
1.0
 40
1.0
 40
1.0
 10
-13.9785
 20
10.8257
 30
0.0
 10
-13.9785
 20
10.8257
 30
0.0
 10
6.179
 20
12.0793
 30
0.0
 10
6.179
 20
12.0793
 30
0.0
  0
SPLINE
  5
84
330
1F
100
AcDbEntity
  8
Ilustrace
 62
   250
370
    30
100
AcDbSpline
210
0.0
220
0.0
230
1.0
 70
    24
 71
     3
 72
     8
 73
     4
 74
     0
 42
0.0000000001
 43
0.0000000001
 40
0.0
 40
0.0
 40
0.0
 40
0.0
 40
1.0
 40
1.0
 40
1.0
 40
1.0
 10
-13.9385
 20
10.1817
 30
0.0
 10
-13.9385
 20
10.1817
 30
0.0
 10
6.2191
 20
11.4353
 30
0.0
 10
6.2191
 20
11.4353
 30
0.0
  0
SPLINE
  5
85
330
1F
100
AcDbEntity
  8
Ilustrace
 62
   250
370
    30
100
AcDbSpline
210
0.0
220
0.0
230
1.0
 70
    24
 71
     3
 72
     8
 73
     4
 74
     0
 42
0.0000000001
 43
0.0000000001
 40
0.0
 40
0.0
 40
0.0
 40
0.0
 40
1.0
 40
1.0
 40
1.0
 40
1.0
 10
-13.8985
 20
9.5377
 30
0.0
 10
-13.8985
 20
9.5377
 30
0.0
 10
6.2591
 20
10.7913
 30
0.0
 10
6.2591
 20
10.7913
 30
0.0
  0
SPLINE
  5
86
330
1F
100
AcDbEntity
  8
Ilustrace
 62
   250
370
    30
100
AcDbSpline
210
0.0
220
0.0
230
1.0
 70
    24
 71
     3
 72
     8
 73
     4
 74
     0
 42
0.0000000001
 43
0.0000000001
 40
0.0
 40
0.0
 40
0.0
 40
0.0
 40
1.0
 40
1.0
 40
1.0
 40
1.0
 10
-13.9032
 20
8.8937
 30
0.0
 10
-13.9032
 20
8.8937
 30
0.0
 10
6.2544
 20
10.1473
 30
0.0
 10
6.2544
 20
10.1473
 30
0.0
  0
SPLINE
  5
87
330
1F
100
AcDbEntity
  8
Ilustrace
 62
   250
370
    30
100
AcDbSpline
210
0.0
220
0.0
230
1.0
 70
    24
 71
     3
 72
     8
 73
     4
 74
     0
 42
0.0000000001
 43
0.0000000001
 40
0.0
 40
0.0
 40
0.0
 40
0.0
 40
1.0
 40
1.0
 40
1.0
 40
1.0
 10
-13.8632
 20
8.2498
 30
0.0
 10
-13.8632
 20
8.2498
 30
0.0
 10
6.2944
 20
9.5033
 30
0.0
 10
6.2944
 20
9.5033
 30
0.0
  0
SPLINE
  5
88
330
1F
100
AcDbEntity
  8
Ilustrace
 62
   250
370
    30
100
AcDbSpline
210
0.0
220
0.0
230
1.0
 70
    24
 71
     3
 72
     8
 73
     4
 74
     0
 42
0.0000000001
 43
0.0000000001
 40
0.0
 40
0.0
 40
0.0
 40
0.0
 40
1.0
 40
1.0
 40
1.0
 40
1.0
 10
-13.9127
 20
7.6058
 30
0.0
 10
-13.9127
 20
7.6058
 30
0.0
 10
6.2449
 20
8.8594
 30
0.0
 10
6.2449
 20
8.8594
 30
0.0
  0
SPLINE
  5
89
330
1F
100
AcDbEntity
  8
Ilustrace
 62
   250
370
    30
100
AcDbSpline
210
0.0
220
0.0
230
1.0
 70
    24
 71
     3
 72
     8
 73
     4
 74
     0
 42
0.0000000001
 43
0.0000000001
 40
0.0
 40
0.0
 40
0.0
 40
0.0
 40
1.0
 40
1.0
 40
1.0
 40
1.0
 10
-13.8727
 20
6.9618
 30
0.0
 10
-13.8727
 20
6.9618
 30
0.0
 10
6.2849
 20
8.2153
 30
0.0
 10
6.2849
 20
8.2153
 30
0.0
  0
SPLINE
  5
8A
330
1F
100
AcDbEntity
  8
Ilustrace
 62
   250
370
    15
100
AcDbSpline
210
0.0
220
0.0
230
1.0
 70
    24
 71
     3
 72
     8
 73
     4
 74
     0
 42
0.0000000001
 43
0.0000000001
 40
0.0
 40
0.0
 40
0.0
 40
0.0
 40
1.0
 40
1.0
 40
1.0
 40
1.0
 10
29.6673
 20
-22.459
 30
0.0
 10
29.6673
 20
-22.459
 30
0.0
 10
35.5243
 20
-22.459
 30
0.0
 10
35.5243
 20
-22.459
 30
0.0
  0
SPLINE
  5
8B
330
1F
100
AcDbEntity
  8
Ilustrace
 62
   250
370
    15
100
AcDbSpline
210
0.0
220
0.0
230
1.0
 70
    24
 71
     3
 72
     8
 73
     4
 74
     0
 42
0.0000000001
 43
0.0000000001
 40
0.0
 40
0.0
 40
0.0
 40
0.0
 40
1.0
 40
1.0
 40
1.0
 40
1.0
 10
29.7334
 20
-6.6379
 30
0.0
 10
29.7334
 20
-6.6379
 30
0.0
 10
35.392
 20
-6.6379
 30
0.0
 10
35.392
 20
-6.6379
 30
0.0
  0
SPLINE
  5
8C
330
1F
100
AcDbEntity
  8
Ilustrace
  6
New Line1
 62
   250
370
    15
100
AcDbSpline
210
0.0
220
0.0
230
1.0
 70
    24
 71
     3
 72
     8
 73
     4
 74
     0
 42
0.0000000001
 43
0.0000000001
 40
0.0
 40
0.0
 40
0.0
 40
0.0
 40
1.0
 40
1.0
 40
1.0
 40
1.0
 10
-12.4116
 20
-14.8446
 30
0.0
 10
-12.4116
 20
-14.8446
 30
0.0
 10
29.8658
 20
-14.8446
 30
0.0
 10
29.8658
 20
-14.8446
 30
0.0
  0
SPLINE
  5
8E
330
1F
100
AcDbEntity
  8
Ilustrace
  6
New Line2
 62
   250
370
    15
100
AcDbSpline
210
0.0
220
0.0
230
1.0
 70
    24
 71
     3
 72
     8
 73
     4
 74
     0
 42
0.0000000001
 43
0.0000000001
 40
0.0
 40
0.0
 40
0.0
 40
0.0
 40
1.0
 40
1.0
 40
1.0
 40
1.0
 10
-3.6496
 20
-21.7853
 30
0.0
 10
-3.6496
 20
-21.7853
 30
0.0
 10
-3.6496
 20
16.0986
 30
0.0
 10
-3.6496
 20
16.0986
 30
0.0
  0
SPLINE
  5
90
330
1F
100
AcDbEntity
  8
Ilustrace
 62
   250
370
    15
100
AcDbSpline
210
0.0
220
0.0
230
1.0
 70
    24
 71
     3
 72
     8
 73
     4
 74
     0
 42
0.0000000001
 43
0.0000000001
 40
0.0
 40
0.0
 40
0.0
 40
0.0
 40
1.0
 40
1.0
 40
1.0
 40
1.0
 10
11.4211
 20
20.777
 30
0.0
 10
11.4211
 20
20.777
 30
0.0
 10
11.4211
 20
24.6544
 30
0.0
 10
11.4211
 20
24.6544
 30
0.0
  0
SPLINE
  5
91
330
1F
100
AcDbEntity
  8
Ilustrace
 62
   250
370
    15
100
AcDbSpline
210
0.0
220
0.0
230
1.0
 70
    24
 71
     3
 72
     8
 73
     4
 74
     0
 42
0.0000000001
 43
0.0000000001
 40
0.0
 40
0.0
 40
0.0
 40
0.0
 40
1.0
 40
1.0
 40
1.0
 40
1.0
 10
-18.9095
 20
20.7414
 30
0.0
 10
-18.9095
 20
20.7414
 30
0.0
 10
-18.9095
 20
24.5002
 30
0.0
 10
-18.9095
 20
24.5002
 30
0.0
  0
SPLINE
  5
92
330
1F
100
AcDbEntity
  8
Ilustrace
 62
   250
370
    15
100
AcDbSpline
210
0.0
220
0.0
230
1.0
 70
    24
 71
     3
 72
     8
 73
     4
 74
     0
 42
0.0000000001
 43
0.0000000001
 40
0.0
 40
0.0
 40
0.0
 40
0.0
 40
1.0
 40
1.0
 40
1.0
 40
1.0
 10
-25.7965
 20
3.7569
 30
0.0
 10
-25.7965
 20
3.7569
 30
0.0
 10
-28.8723
 20
3.7569
 30
0.0
 10
-28.8723
 20
3.7569
 30
0.0
  0
SPLINE
  5
93
330
1F
100
AcDbEntity
  8
Ilustrace
 62
   250
370
    15
100
AcDbSpline
210
0.0
220
0.0
230
1.0
 70
    24
 71
     3
 72
     8
 73
     4
 74
     0
 42
0.0000000001
 43
0.0000000001
 40
0.0
 40
0.0
 40
0.0
 40
0.0
 40
1.0
 40
1.0
 40
1.0
 40
1.0
 10
-22.351
 20
6.8795
 30
0.0
 10
-22.351
 20
6.8795
 30
0.0
 10
-33.0143
 20
6.8795
 30
0.0
 10
-33.0143
 20
6.8795
 30
0.0
  0
SPLINE
  5
94
330
1F
100
AcDbEntity
  8
Ilustrace
 62
   250
370
    15
100
AcDbSpline
210
0.0
220
0.0
230
1.0
 70
    24
 71
     3
 72
     8
 73
     4
 74
     0
 42
0.0000000001
 43
0.0000000001
 40
0.0
 40
0.0
 40
0.0
 40
0.0
 40
1.0
 40
1.0
 40
1.0
 40
1.0
 10
-20.212
 20
-27.4031
 30
0.0
 10
-20.212
 20
-27.4031
 30
0.0
 10
-32.9401
 20
-27.4031
 30
0.0
 10
-32.9401
 20
-27.4031
 30
0.0
  0
SPLINE
  5
95
330
1F
100
AcDbEntity
  8
Ilustrace
 62
   250
370
    13
100
AcDbSpline
210
0.0
220
0.0
230
1.0
 70
    24
 71
     3
 72
     8
 73
     4
 74
     0
 42
0.0000000001
 43
0.0000000001
 40
0.0
 40
0.0
 40
0.0
 40
0.0
 40
1.0
 40
1.0
 40
1.0
 40
1.0
 10
-28.5833
 20
3.6642
 30
0.0
 10
-28.5833
 20
3.6642
 30
0.0
 10
-28.5833
 20
-26.7884
 30
0.0
 10
-28.5833
 20
-26.7884
 30
0.0
  0
SPLINE
  5
96
330
1F
100
AcDbEntity
  8
Ilustrace
 62
   250
370
    13
100
AcDbSpline
210
0.0
220
0.0
230
1.0
 70
    24
 71
     3
 72
     8
 73
     4
 74
     0
 42
0.0000000001
 43
0.0000000001
 40
0.0
 40
0.0
 40
0.0
 40
0.0
 40
1.0
 40
1.0
 40
1.0
 40
1.0
 10
11.0057
 20
24.0173
 30
0.0
 10
11.0057
 20
24.0173
 30
0.0
 10
-18.3412
 20
24.0173
 30
0.0
 10
-18.3412
 20
24.0173
 30
0.0
  0
SPLINE
  5
97
330
1F
100
AcDbEntity
  8
Ilustrace
 62
   250
100
AcDbSpline
210
0.0
220
0.0
230
1.0
 70
    11
 71
     3
 72
   104
 73
   100
 74
     0
 42
0.0000000001
 43
0.0000000001
 40
0.0
 40
0.0
 40
0.0
 40
0.0
 40
0.0384615384615385
 40
0.0384615384615385
 40
0.0384615384615385
 40
0.0384615384615385
 40
0.0769230769230769
 40
0.0769230769230769
 40
0.0769230769230769
 40
0.0769230769230769
 40
0.1153846153846154
 40
0.1153846153846154
 40
0.1153846153846154
 40
0.1153846153846154
 40
0.1538461538461539
 40
0.1538461538461539
 40
0.1538461538461539
 40
0.1538461538461539
 40
0.1923076923076923
 40
0.1923076923076923
 40
0.1923076923076923
 40
0.1923076923076923
 40
0.2307692307692308
 40
0.2307692307692308
 40
0.2307692307692308
 40
0.2307692307692308
 40
0.2692307692307692
 40
0.2692307692307692
 40
0.2692307692307692
 40
0.2692307692307692
 40
0.3076923076923077
 40
0.3076923076923077
 40
0.3076923076923077
 40
0.3076923076923077
 40
0.3461538461538461
 40
0.3461538461538461
 40
0.3461538461538461
 40
0.3461538461538461
 40
0.3846153846153846
 40
0.3846153846153846
 40
0.3846153846153846
 40
0.3846153846153846
 40
0.4230769230769231
 40
0.4230769230769231
 40
0.4230769230769231
 40
0.4230769230769231
 40
0.4615384615384616
 40
0.4615384615384616
 40
0.4615384615384616
 40
0.4615384615384616
 40
0.5
 40
0.5
 40
0.5
 40
0.5
 40
0.5384615384615384
 40
0.5384615384615384
 40
0.5384615384615384
 40
0.5384615384615384
 40
0.5769230769230769
 40
0.5769230769230769
 40
0.5769230769230769
 40
0.5769230769230769
 40
0.6153846153846154
 40
0.6153846153846154
 40
0.6153846153846154
 40
0.6153846153846154
 40
0.6538461538461539
 40
0.6538461538461539
 40
0.6538461538461539
 40
0.6538461538461539
 40
0.6923076923076923
 40
0.6923076923076923
 40
0.6923076923076923
 40
0.6923076923076923
 40
0.7307692307692307
 40
0.7307692307692307
 40
0.7307692307692307
 40
0.7307692307692307
 40
0.7692307692307693
 40
0.7692307692307693
 40
0.7692307692307693
 40
0.7692307692307693
 40
0.8076923076923077
 40
0.8076923076923077
 40
0.8076923076923077
 40
0.8076923076923077
 40
0.8461538461538461
 40
0.8461538461538461
 40
0.8461538461538461
 40
0.8461538461538461
 40
0.8846153846153846
 40
0.8846153846153846
 40
0.8846153846153846
 40
0.8846153846153846
 40
0.9230769230769231
 40
0.9230769230769231
 40
0.9230769230769231
 40
0.9230769230769231
 40
1.0
 40
1.0
 40
1.0
 40
1.0
 10
-5.912
 20
24.4696
 30
0.0
 10
-5.912
 20
24.4696
 30
0.0
 10
-5.6675
 20
24.8034
 30
0.0
 10
-5.6675
 20
24.8034
 30
0.0
 10
-5.6675
 20
24.8034
 30
0.0
 10
-5.5737
 20
24.7355
 30
0.0
 10
-5.4709
 20
24.6831
 30
0.0
 10
-5.3597
 20
24.6475
 30
0.0
 10
-5.3597
 20
24.6475
 30
0.0
 10
-5.2478
 20
24.6119
 30
0.0
 10
-5.1307
 20
24.5938
 30
0.0
 10
-5.0078
 20
24.5938
 30
0.0
 10
-5.0078
 20
24.5938
 30
0.0
 10
-4.8817
 20
24.5938
 30
0.0
 10
-4.7595
 20
24.6126
 30
0.0
 10
-4.6424
 20
24.6494
 30
0.0
 10
-4.6424
 20
24.6494
 30
0.0
 10
-4.5254
 20
24.6863
 30
0.0
 10
-4.4167
 20
24.7413
 30
0.0
 10
-4.3171
 20
24.815
 30
0.0
 10
-4.3171
 20
24.815
 30
0.0
 10
-4.2169
 20
24.8881
 30
0.0
 10
-4.1295
 20
24.9799
 30
0.0
 10
-4.0545
 20
25.0899
 30
0.0
 10
-4.0545
 20
25.0899
 30
0.0
 10
-3.9801
 20
25.1998
 30
0.0
 10
-3.9219
 20
25.3279
 30
0.0
 10
-3.8799
 20
25.4747
 30
0.0
 10
-3.8799
 20
25.4747
 30
0.0
 10
-3.8385
 20
25.6209
 30
0.0
 10
-3.8172
 20
25.7851
 30
0.0
 10
-3.8165
 20
25.9675
 30
0.0
 10
-3.8165
 20
25.9675
 30
0.0
 10
-3.8165
 20
26.0962
 30
0.0
 10
-3.8294
 20
26.2185
 30
0.0
 10
-3.856
 20
26.3349
 30
0.0
 10
-3.856
 20
26.3349
 30
0.0
 10
-3.8818
 20
26.4519
 30
0.0
 10
-3.92
 20
26.5606
 30
0.0
 10
-3.9698
 20
26.6608
 30
0.0
 10
-3.9698
 20
26.6608
 30
0.0
 10
-4.0202
 20
26.7611
 30
0.0
 10
-4.0817
 20
26.8503
 30
0.0
 10
-4.1541
 20
26.9299
 30
0.0
 10
-4.1541
 20
26.9299
 30
0.0
 10
-4.1541
 20
26.9299
 30
0.0
 10
-3.9135
 20
27.2636
 30
0.0
 10
-3.9135
 20
27.2636
 30
0.0
 10
-3.9135
 20
27.2636
 30
0.0
 10
-3.9135
 20
27.2636
 30
0.0
 10
-4.1192
 20
27.4033
 30
0.0
 10
-4.1192
 20
27.4033
 30
0.0
 10
-4.1192
 20
27.4033
 30
0.0
 10
-4.1192
 20
27.4033
 30
0.0
 10
-4.3481
 20
27.089
 30
0.0
 10
-4.3481
 20
27.089
 30
0.0
 10
-4.3481
 20
27.089
 30
0.0
 10
-4.4419
 20
27.1588
 30
0.0
 10
-4.5435
 20
27.2112
 30
0.0
 10
-4.6534
 20
27.2461
 30
0.0
 10
-4.6534
 20
27.2461
 30
0.0
 10
-4.764
 20
27.2811
 30
0.0
 10
-4.8791
 20
27.2985
 30
0.0
 10
-5.0001
 20
27.2985
 30
0.0
 10
-5.0001
 20
27.2985
 30
0.0
 10
-5.1727
 20
27.2979
 30
0.0
 10
-5.3318
 20
27.2655
 30
0.0
 10
-5.4787
 20
27.2015
 30
0.0
 10
-5.4787
 20
27.2015
 30
0.0
 10
-5.6248
 20
27.1375
 30
0.0
 10
-5.7522
 20
27.045
 30
0.0
 10
-5.8609
 20
26.9253
 30
0.0
 10
-5.8609
 20
26.9253
 30
0.0
 10
-5.9702
 20
26.8057
 30
0.0
 10
-6.0543
 20
26.6621
 30
0.0
 10
-6.1151
 20
26.4946
 30
0.0
 10
-6.1151
 20
26.4946
 30
0.0
 10
-6.1752
 20
26.3271
 30
0.0
 10
-6.2063
 20
26.1402
 30
0.0
 10
-6.2069
 20
25.9326
 30
0.0
 10
-6.2069
 20
25.9326
 30
0.0
 10
-6.2069
 20
25.8019
 30
0.0
 10
-6.1927
 20
25.6771
 30
0.0
 10
-6.1655
 20
25.5594
 30
0.0
 10
-6.1655
 20
25.5594
 30
0.0
 10
-6.1383
 20
25.4417
 30
0.0
 10
-6.0989
 20
25.3324
 30
0.0
 10
-6.0478
 20
25.2322
 30
0.0
 10
-6.0478
 20
25.2322
 30
0.0
 10
-5.9961
 20
25.1319
 30
0.0
 10
-5.934
 20
25.042
 30
0.0
 10
-5.8615
 20
24.9625
 30
0.0
 10
-5.8615
 20
24.9625
 30
0.0
 10
-5.8615
 20
24.9625
 30
0.0
 10
-6.1021
 20
24.6249
 30
0.0
 10
-6.1021
 20
24.6249
 30
0.0
 10
-6.1021
 20
24.6249
 30
0.0
 10
-6.1021
 20
24.6249
 30
0.0
 10
-5.912
 20
24.4696
 30
0.0
 10
-5.912
 20
24.4696
 30
0.0
  0
SPLINE
  5
98
330
1F
100
AcDbEntity
  8
Ilustrace
 62
   250
100
AcDbSpline
210
0.0
220
0.0
230
1.0
 70
    11
 71
     3
 72
    52
 73
    48
 74
     0
 42
0.0000000001
 43
0.0000000001
 40
0.0
 40
0.0
 40
0.0
 40
0.0
 40
0.0769230769230769
 40
0.0769230769230769
 40
0.0769230769230769
 40
0.0769230769230769
 40
0.1538461538461539
 40
0.1538461538461539
 40
0.1538461538461539
 40
0.1538461538461539
 40
0.2307692307692308
 40
0.2307692307692308
 40
0.2307692307692308
 40
0.2307692307692308
 40
0.3076923076923077
 40
0.3076923076923077
 40
0.3076923076923077
 40
0.3076923076923077
 40
0.3846153846153846
 40
0.3846153846153846
 40
0.3846153846153846
 40
0.3846153846153846
 40
0.4615384615384616
 40
0.4615384615384616
 40
0.4615384615384616
 40
0.4615384615384616
 40
0.5384615384615384
 40
0.5384615384615384
 40
0.5384615384615384
 40
0.5384615384615384
 40
0.6153846153846154
 40
0.6153846153846154
 40
0.6153846153846154
 40
0.6153846153846154
 40
0.6923076923076923
 40
0.6923076923076923
 40
0.6923076923076923
 40
0.6923076923076923
 40
0.7692307692307693
 40
0.7692307692307693
 40
0.7692307692307693
 40
0.7692307692307693
 40
0.8461538461538461
 40
0.8461538461538461
 40
0.8461538461538461
 40
0.8461538461538461
 40
1.0
 40
1.0
 40
1.0
 40
1.0
 10
-5.6636
 20
25.2496
 30
0.0
 10
-5.6636
 20
25.2496
 30
0.0
 10
-5.6714
 20
25.2457
 30
0.0
 10
-5.6714
 20
25.2457
 30
0.0
 10
-5.6714
 20
25.2457
 30
0.0
 10
-5.7102
 20
25.3124
 30
0.0
 10
-5.7438
 20
25.3816
 30
0.0
 10
-5.7723
 20
25.4527
 30
0.0
 10
-5.7723
 20
25.4527
 30
0.0
 10
-5.8007
 20
25.5245
 30
0.0
 10
-5.8227
 20
25.6002
 30
0.0
 10
-5.8383
 20
25.6816
 30
0.0
 10
-5.8383
 20
25.6816
 30
0.0
 10
-5.8538
 20
25.7625
 30
0.0
 10
-5.8615
 20
25.8517
 30
0.0
 10
-5.8615
 20
25.9481
 30
0.0
 10
-5.8615
 20
25.9481
 30
0.0
 10
-5.8615
 20
26.0594
 30
0.0
 10
-5.8499
 20
26.1667
 30
0.0
 10
-5.8273
 20
26.2721
 30
0.0
 10
-5.8273
 20
26.2721
 30
0.0
 10
-5.804
 20
26.3769
 30
0.0
 10
-5.7697
 20
26.4752
 30
0.0
 10
-5.7244
 20
26.5658
 30
0.0
 10
-5.7244
 20
26.5658
 30
0.0
 10
-5.6785
 20
26.6569
 30
0.0
 10
-5.6216
 20
26.7371
 30
0.0
 10
-5.553
 20
26.8057
 30
0.0
 10
-5.553
 20
26.8057
 30
0.0
 10
-5.4845
 20
26.8749
 30
0.0
 10
-5.4049
 20
26.9286
 30
0.0
 10
-5.3144
 20
26.9674
 30
0.0
 10
-5.3144
 20
26.9674
 30
0.0
 10
-5.2232
 20
27.0068
 30
0.0
 10
-5.121
 20
27.0262
 30
0.0
 10
-5.0078
 20
27.0269
 30
0.0
 10
-5.0078
 20
27.0269
 30
0.0
 10
-4.9089
 20
27.0262
 30
0.0
 10
-4.8183
 20
27.0101
 30
0.0
 10
-4.7368
 20
26.9777
 30
0.0
 10
-4.7368
 20
26.9777
 30
0.0
 10
-4.6547
 20
26.946
 30
0.0
 10
-4.581
 20
26.9014
 30
0.0
 10
-4.515
 20
26.8445
 30
0.0
 10
-4.515
 20
26.8445
 30
0.0
 10
-4.515
 20
26.8445
 30
0.0
 10
-5.6636
 20
25.2496
 30
0.0
 10
-5.6636
 20
25.2496
 30
0.0
  0
SPLINE
  5
99
330
1F
100
AcDbEntity
  8
Ilustrace
 62
   250
100
AcDbSpline
210
0.0
220
0.0
230
1.0
 70
    11
 71
     3
 72
    48
 73
    44
 74
     0
 42
0.0000000001
 43
0.0000000001
 40
0.0
 40
0.0
 40
0.0
 40
0.0
 40
0.0833333333333333
 40
0.0833333333333333
 40
0.0833333333333333
 40
0.0833333333333333
 40
0.1666666666666667
 40
0.1666666666666667
 40
0.1666666666666667
 40
0.1666666666666667
 40
0.25
 40
0.25
 40
0.25
 40
0.25
 40
0.3333333333333333
 40
0.3333333333333333
 40
0.3333333333333333
 40
0.3333333333333333
 40
0.4166666666666667
 40
0.4166666666666667
 40
0.4166666666666667
 40
0.4166666666666667
 40
0.5
 40
0.5
 40
0.5
 40
0.5
 40
0.5833333333333334
 40
0.5833333333333334
 40
0.5833333333333334
 40
0.5833333333333334
 40
0.6666666666666666
 40
0.6666666666666666
 40
0.6666666666666666
 40
0.6666666666666666
 40
0.75
 40
0.75
 40
0.75
 40
0.75
 40
0.8333333333333334
 40
0.8333333333333334
 40
0.8333333333333334
 40
0.8333333333333334
 40
1.0
 40
1.0
 40
1.0
 40
1.0
 10
-4.3559
 20
26.6388
 30
0.0
 10
-4.3559
 20
26.6388
 30
0.0
 10
-4.3443
 20
26.6388
 30
0.0
 10
-4.3443
 20
26.6388
 30
0.0
 10
-4.3443
 20
26.6388
 30
0.0
 10
-4.277
 20
26.5263
 30
0.0
 10
-4.2298
 20
26.4125
 30
0.0
 10
-4.202
 20
26.2974
 30
0.0
 10
-4.202
 20
26.2974
 30
0.0
 10
-4.1742
 20
26.1829
 30
0.0
 10
-4.1606
 20
26.0691
 30
0.0
 10
-4.1619
 20
25.9559
 30
0.0
 10
-4.1619
 20
25.9559
 30
0.0
 10
-4.1619
 20
25.8382
 30
0.0
 10
-4.1742
 20
25.7256
 30
0.0
 10
-4.1981
 20
25.6176
 30
0.0
 10
-4.1981
 20
25.6176
 30
0.0
 10
-4.222
 20
25.5096
 30
0.0
 10
-4.2576
 20
25.41
 30
0.0
 10
-4.3042
 20
25.3188
 30
0.0
 10
-4.3042
 20
25.3188
 30
0.0
 10
-4.3514
 20
25.2276
 30
0.0
 10
-4.4089
 20
25.1481
 30
0.0
 10
-4.4775
 20
25.0808
 30
0.0
 10
-4.4775
 20
25.0808
 30
0.0
 10
-4.5467
 20
25.0129
 30
0.0
 10
-4.6256
 20
24.9599
 30
0.0
 10
-4.7148
 20
24.9224
 30
0.0
 10
-4.7148
 20
24.9224
 30
0.0
 10
-4.8041
 20
24.8849
 30
0.0
 10
-4.9031
 20
24.8661
 30
0.0
 10
-5.0117
 20
24.8654
 30
0.0
 10
-5.0117
 20
24.8654
 30
0.0
 10
-5.1171
 20
24.8654
 30
0.0
 10
-5.2096
 20
24.8816
 30
0.0
 10
-5.2879
 20
24.9133
 30
0.0
 10
-5.2879
 20
24.9133
 30
0.0
 10
-5.3668
 20
24.945
 30
0.0
 10
-5.4373
 20
24.9916
 30
0.0
 10
-5.5007
 20
25.0517
 30
0.0
 10
-5.5007
 20
25.0517
 30
0.0
 10
-5.5007
 20
25.0517
 30
0.0
 10
-4.3559
 20
26.6388
 30
0.0
 10
-4.3559
 20
26.6388
 30
0.0
  0
SPLINE
  5
9A
330
1F
100
AcDbEntity
  8
Ilustrace
 62
   250
100
AcDbSpline
210
0.0
220
0.0
230
1.0
 70
    11
 71
     3
 72
    36
 73
    32
 74
     0
 42
0.0000000001
 43
0.0000000001
 40
0.0
 40
0.0
 40
0.0
 40
0.0
 40
0.1111111111111111
 40
0.1111111111111111
 40
0.1111111111111111
 40
0.1111111111111111
 40
0.2222222222222222
 40
0.2222222222222222
 40
0.2222222222222222
 40
0.2222222222222222
 40
0.3333333333333333
 40
0.3333333333333333
 40
0.3333333333333333
 40
0.3333333333333333
 40
0.4444444444444444
 40
0.4444444444444444
 40
0.4444444444444444
 40
0.4444444444444444
 40
0.5555555555555556
 40
0.5555555555555556
 40
0.5555555555555556
 40
0.5555555555555556
 40
0.6666666666666666
 40
0.6666666666666666
 40
0.6666666666666666
 40
0.6666666666666666
 40
0.7777777777777778
 40
0.7777777777777778
 40
0.7777777777777778
 40
0.7777777777777778
 40
1.0
 40
1.0
 40
1.0
 40
1.0
 10
-3.4517
 20
27.1588
 30
0.0
 10
-3.4517
 20
27.1588
 30
0.0
 10
-3.4517
 20
26.8755
 30
0.0
 10
-3.4517
 20
26.8755
 30
0.0
 10
-3.4517
 20
26.8755
 30
0.0
 10
-3.4517
 20
26.8755
 30
0.0
 10
-2.2177
 20
26.8755
 30
0.0
 10
-2.2177
 20
26.8755
 30
0.0
 10
-2.2177
 20
26.8755
 30
0.0
 10
-2.2177
 20
26.8755
 30
0.0
 10
-2.2177
 20
26.8678
 30
0.0
 10
-2.2177
 20
26.8678
 30
0.0
 10
-2.2177
 20
26.8678
 30
0.0
 10
-2.2177
 20
26.8678
 30
0.0
 10
-3.312
 20
24.6365
 30
0.0
 10
-3.312
 20
24.6365
 30
0.0
 10
-3.312
 20
24.6365
 30
0.0
 10
-3.312
 20
24.6365
 30
0.0
 10
-2.9589
 20
24.6365
 30
0.0
 10
-2.9589
 20
24.6365
 30
0.0
 10
-2.9589
 20
24.6365
 30
0.0
 10
-2.9589
 20
24.6365
 30
0.0
 10
-1.8607
 20
26.9338
 30
0.0
 10
-1.8607
 20
26.9338
 30
0.0
 10
-1.8607
 20
26.9338
 30
0.0
 10
-1.8607
 20
26.9338
 30
0.0
 10
-1.8607
 20
27.1588
 30
0.0
 10
-1.8607
 20
27.1588
 30
0.0
 10
-1.8607
 20
27.1588
 30
0.0
 10
-1.8607
 20
27.1588
 30
0.0
 10
-3.4517
 20
27.1588
 30
0.0
 10
-3.4517
 20
27.1588
 30
0.0
  0
SPLINE
  5
9B
330
1F
100
AcDbEntity
  8
Ilustrace
 62
   250
100
AcDbSpline
210
0.0
220
0.0
230
1.0
 70
    11
 71
     3
 72
    56
 73
    52
 74
     0
 42
0.0000000001
 43
0.0000000001
 40
0.0
 40
0.0
 40
0.0
 40
0.0
 40
0.0714285714285714
 40
0.0714285714285714
 40
0.0714285714285714
 40
0.0714285714285714
 40
0.1428571428571428
 40
0.1428571428571428
 40
0.1428571428571428
 40
0.1428571428571428
 40
0.2142857142857143
 40
0.2142857142857143
 40
0.2142857142857143
 40
0.2142857142857143
 40
0.2857142857142857
 40
0.2857142857142857
 40
0.2857142857142857
 40
0.2857142857142857
 40
0.3571428571428572
 40
0.3571428571428572
 40
0.3571428571428572
 40
0.3571428571428572
 40
0.4285714285714285
 40
0.4285714285714285
 40
0.4285714285714285
 40
0.4285714285714285
 40
0.5
 40
0.5
 40
0.5
 40
0.5
 40
0.5714285714285714
 40
0.5714285714285714
 40
0.5714285714285714
 40
0.5714285714285714
 40
0.6428571428571429
 40
0.6428571428571429
 40
0.6428571428571429
 40
0.6428571428571429
 40
0.7142857142857143
 40
0.7142857142857143
 40
0.7142857142857143
 40
0.7142857142857143
 40
0.7857142857142857
 40
0.7857142857142857
 40
0.7857142857142857
 40
0.7857142857142857
 40
0.8571428571428571
 40
0.8571428571428571
 40
0.8571428571428571
 40
0.8571428571428571
 40
1.0
 40
1.0
 40
1.0
 40
1.0
 10
-0.6616
 20
27.2015
 30
0.0
 10
-0.7903
 20
27.2015
 30
0.0
 10
-0.908
 20
27.1731
 30
0.0
 10
-1.0154
 20
27.1161
 30
0.0
 10
-1.0154
 20
27.1161
 30
0.0
 10
-1.1228
 20
27.0592
 30
0.0
 10
-1.2152
 20
26.9758
 30
0.0
 10
-1.2941
 20
26.8646
 30
0.0
 10
-1.2941
 20
26.8646
 30
0.0
 10
-1.3731
 20
26.7533
 30
0.0
 10
-1.4338
 20
26.6162
 30
0.0
 10
-1.4772
 20
26.4532
 30
0.0
 10
-1.4772
 20
26.4532
 30
0.0
 10
-1.5199
 20
26.2902
 30
0.0
 10
-1.5419
 20
26.1027
 30
0.0
 10
-1.5425
 20
25.8899
 30
0.0
 10
-1.5425
 20
25.8899
 30
0.0
 10
-1.5386
 20
25.6112
 30
0.0
 10
-1.5018
 20
25.3757
 30
0.0
 10
-1.4313
 20
25.183
 30
0.0
 10
-1.4313
 20
25.183
 30
0.0
 10
-1.3608
 20
24.9903
 30
0.0
 10
-1.2631
 20
24.8441
 30
0.0
 10
-1.1389
 20
24.7445
 30
0.0
 10
-1.1389
 20
24.7445
 30
0.0
 10
-1.0148
 20
24.6449
 30
0.0
 10
-0.8699
 20
24.5945
 30
0.0
 10
-0.7043
 20
24.5938
 30
0.0
 10
-0.7043
 20
24.5938
 30
0.0
 10
-0.5187
 20
24.5945
 30
0.0
 10
-0.3609
 20
24.6462
 30
0.0
 10
-0.2302
 20
24.7484
 30
0.0
 10
-0.2302
 20
24.7484
 30
0.0
 10
-0.0996
 20
24.8506
 30
0.0
 10
0.0
 20
25.0006
 30
0.0
 10
0.0686
 20
25.1985
 30
0.0
 10
0.0686
 20
25.1985
 30
0.0
 10
0.1378
 20
25.3964
 30
0.0
 10
0.172
 20
25.6383
 30
0.0
 10
0.1727
 20
25.9248
 30
0.0
 10
0.1727
 20
25.9248
 30
0.0
 10
0.172
 20
26.1932
 30
0.0
 10
0.139
 20
26.4228
 30
0.0
 10
0.0737
 20
26.613
 30
0.0
 10
0.0737
 20
26.613
 30
0.0
 10
0.0084
 20
26.8031
 30
0.0
 10
-0.0867
 20
26.9486
 30
0.0
 10
-0.2108
 20
27.0489
 30
0.0
 10
-0.2108
 20
27.0489
 30
0.0
 10
-0.335
 20
27.1498
 30
0.0
 10
-0.4851
 20
27.2009
 30
0.0
 10
-0.6616
 20
27.2015
 30
0.0
  0
SPLINE
  5
9C
330
1F
100
AcDbEntity
  8
Ilustrace
 62
   250
100
AcDbSpline
210
0.0
220
0.0
230
1.0
 70
    11
 71
     3
 72
    56
 73
    52
 74
     0
 42
0.0000000001
 43
0.0000000001
 40
0.0
 40
0.0
 40
0.0
 40
0.0
 40
0.0714285714285714
 40
0.0714285714285714
 40
0.0714285714285714
 40
0.0714285714285714
 40
0.1428571428571428
 40
0.1428571428571428
 40
0.1428571428571428
 40
0.1428571428571428
 40
0.2142857142857143
 40
0.2142857142857143
 40
0.2142857142857143
 40
0.2142857142857143
 40
0.2857142857142857
 40
0.2857142857142857
 40
0.2857142857142857
 40
0.2857142857142857
 40
0.3571428571428572
 40
0.3571428571428572
 40
0.3571428571428572
 40
0.3571428571428572
 40
0.4285714285714285
 40
0.4285714285714285
 40
0.4285714285714285
 40
0.4285714285714285
 40
0.5
 40
0.5
 40
0.5
 40
0.5
 40
0.5714285714285714
 40
0.5714285714285714
 40
0.5714285714285714
 40
0.5714285714285714
 40
0.6428571428571429
 40
0.6428571428571429
 40
0.6428571428571429
 40
0.6428571428571429
 40
0.7142857142857143
 40
0.7142857142857143
 40
0.7142857142857143
 40
0.7142857142857143
 40
0.7857142857142857
 40
0.7857142857142857
 40
0.7857142857142857
 40
0.7857142857142857
 40
0.8571428571428571
 40
0.8571428571428571
 40
0.8571428571428571
 40
0.8571428571428571
 40
1.0
 40
1.0
 40
1.0
 40
1.0
 10
-0.6849
 20
26.9376
 30
0.0
 10
-0.5957
 20
26.937
 30
0.0
 10
-0.5187
 20
26.9131
 30
0.0
 10
-0.454
 20
26.8646
 30
0.0
 10
-0.454
 20
26.8646
 30
0.0
 10
-0.3893
 20
26.816
 30
0.0
 10
-0.3363
 20
26.7468
 30
0.0
 10
-0.2949
 20
26.6563
 30
0.0
 10
-0.2949
 20
26.6563
 30
0.0
 10
-0.2535
 20
26.5664
 30
0.0
 10
-0.2225
 20
26.4577
 30
0.0
 10
-0.2024
 20
26.3323
 30
0.0
 10
-0.2024
 20
26.3323
 30
0.0
 10
-0.1824
 20
26.2062
 30
0.0
 10
-0.1727
 20
26.0652
 30
0.0
 10
-0.1727
 20
25.9093
 30
0.0
 10
-0.1727
 20
25.9093
 30
0.0
 10
-0.1727
 20
25.6933
 30
0.0
 10
-0.1914
 20
25.507
 30
0.0
 10
-0.229
 20
25.3505
 30
0.0
 10
-0.229
 20
25.3505
 30
0.0
 10
-0.2658
 20
25.1934
 30
0.0
 10
-0.3227
 20
25.0724
 30
0.0
 10
-0.3984
 20
24.987
 30
0.0
 10
-0.3984
 20
24.987
 30
0.0
 10
-0.4741
 20
24.9017
 30
0.0
 10
-0.5698
 20
24.859
 30
0.0
 10
-0.6849
 20
24.8577
 30
0.0
 10
-0.6849
 20
24.8577
 30
0.0
 10
-0.789
 20
24.8583
 30
0.0
 10
-0.8789
 20
24.8984
 30
0.0
 10
-0.9559
 20
24.9786
 30
0.0
 10
-0.9559
 20
24.9786
 30
0.0
 10
-1.0322
 20
25.0588
 30
0.0
 10
-1.0911
 20
25.1752
 30
0.0
 10
-1.1331
 20
25.3279
 30
0.0
 10
-1.1331
 20
25.3279
 30
0.0
 10
-1.1751
 20
25.4812
 30
0.0
 10
-1.1965
 20
25.6668
 30
0.0
 10
-1.1971
 20
25.886
 30
0.0
 10
-1.1971
 20
25.886
 30
0.0
 10
-1.1965
 20
26.1156
 30
0.0
 10
-1.1739
 20
26.3077
 30
0.0
 10
-1.1299
 20
26.4642
 30
0.0
 10
-1.1299
 20
26.4642
 30
0.0
 10
-1.0859
 20
26.6201
 30
0.0
 10
-1.0257
 20
26.7378
 30
0.0
 10
-0.9488
 20
26.818
 30
0.0
 10
-0.9488
 20
26.818
 30
0.0
 10
-0.8718
 20
26.8975
 30
0.0
 10
-0.7839
 20
26.9376
 30
0.0
 10
-0.6849
 20
26.9376
 30
0.0
  0
SPLINE
  5
9D
330
1F
100
AcDbEntity
  8
Ilustrace
 62
   250
100
AcDbSpline
210
0.0
220
0.0
230
1.0
 70
    11
 71
     3
 72
    36
 73
    32
 74
     0
 42
0.0000000001
 43
0.0000000001
 40
0.0
 40
0.0
 40
0.0
 40
0.0
 40
0.1111111111111111
 40
0.1111111111111111
 40
0.1111111111111111
 40
0.1111111111111111
 40
0.2222222222222222
 40
0.2222222222222222
 40
0.2222222222222222
 40
0.2222222222222222
 40
0.3333333333333333
 40
0.3333333333333333
 40
0.3333333333333333
 40
0.3333333333333333
 40
0.4444444444444444
 40
0.4444444444444444
 40
0.4444444444444444
 40
0.4444444444444444
 40
0.5555555555555556
 40
0.5555555555555556
 40
0.5555555555555556
 40
0.5555555555555556
 40
0.6666666666666666
 40
0.6666666666666666
 40
0.6666666666666666
 40
0.6666666666666666
 40
0.7777777777777778
 40
0.7777777777777778
 40
0.7777777777777778
 40
0.7777777777777778
 40
1.0
 40
1.0
 40
1.0
 40
1.0
 10
-31.7793
 20
-13.0151
 30
0.0
 10
-31.7793
 20
-13.0151
 30
0.0
 10
-31.496
 20
-13.0151
 30
0.0
 10
-31.496
 20
-13.0151
 30
0.0
 10
-31.496
 20
-13.0151
 30
0.0
 10
-31.496
 20
-13.0151
 30
0.0
 10
-31.496
 20
-11.7811
 30
0.0
 10
-31.496
 20
-11.7811
 30
0.0
 10
-31.496
 20
-11.7811
 30
0.0
 10
-31.496
 20
-11.7811
 30
0.0
 10
-31.4882
 20
-11.7811
 30
0.0
 10
-31.4882
 20
-11.7811
 30
0.0
 10
-31.4882
 20
-11.7811
 30
0.0
 10
-31.4882
 20
-11.7811
 30
0.0
 10
-29.2569
 20
-12.8754
 30
0.0
 10
-29.2569
 20
-12.8754
 30
0.0
 10
-29.2569
 20
-12.8754
 30
0.0
 10
-29.2569
 20
-12.8754
 30
0.0
 10
-29.2569
 20
-12.5223
 30
0.0
 10
-29.2569
 20
-12.5223
 30
0.0
 10
-29.2569
 20
-12.5223
 30
0.0
 10
-29.2569
 20
-12.5223
 30
0.0
 10
-31.5542
 20
-11.4241
 30
0.0
 10
-31.5542
 20
-11.4241
 30
0.0
 10
-31.5542
 20
-11.4241
 30
0.0
 10
-31.5542
 20
-11.4241
 30
0.0
 10
-31.7793
 20
-11.4241
 30
0.0
 10
-31.7793
 20
-11.4241
 30
0.0
 10
-31.7793
 20
-11.4241
 30
0.0
 10
-31.7793
 20
-11.4241
 30
0.0
 10
-31.7793
 20
-13.0151
 30
0.0
 10
-31.7793
 20
-13.0151
 30
0.0
  0
SPLINE
  5
9E
330
1F
100
AcDbEntity
  8
Ilustrace
 62
   250
100
AcDbSpline
210
0.0
220
0.0
230
1.0
 70
    11
 71
     3
 72
   124
 73
   120
 74
     0
 42
0.0000000001
 43
0.0000000001
 40
0.0
 40
0.0
 40
0.0
 40
0.0
 40
0.032258064516129
 40
0.032258064516129
 40
0.032258064516129
 40
0.032258064516129
 40
0.0645161290322581
 40
0.0645161290322581
 40
0.0645161290322581
 40
0.0645161290322581
 40
0.0967741935483871
 40
0.0967741935483871
 40
0.0967741935483871
 40
0.0967741935483871
 40
0.1290322580645161
 40
0.1290322580645161
 40
0.1290322580645161
 40
0.1290322580645161
 40
0.1612903225806452
 40
0.1612903225806452
 40
0.1612903225806452
 40
0.1612903225806452
 40
0.1935483870967742
 40
0.1935483870967742
 40
0.1935483870967742
 40
0.1935483870967742
 40
0.2258064516129032
 40
0.2258064516129032
 40
0.2258064516129032
 40
0.2258064516129032
 40
0.2580645161290323
 40
0.2580645161290323
 40
0.2580645161290323
 40
0.2580645161290323
 40
0.2903225806451613
 40
0.2903225806451613
 40
0.2903225806451613
 40
0.2903225806451613
 40
0.3225806451612903
 40
0.3225806451612903
 40
0.3225806451612903
 40
0.3225806451612903
 40
0.3548387096774194
 40
0.3548387096774194
 40
0.3548387096774194
 40
0.3548387096774194
 40
0.3870967741935484
 40
0.3870967741935484
 40
0.3870967741935484
 40
0.3870967741935484
 40
0.4193548387096774
 40
0.4193548387096774
 40
0.4193548387096774
 40
0.4193548387096774
 40
0.4516129032258064
 40
0.4516129032258064
 40
0.4516129032258064
 40
0.4516129032258064
 40
0.4838709677419355
 40
0.4838709677419355
 40
0.4838709677419355
 40
0.4838709677419355
 40
0.5161290322580645
 40
0.5161290322580645
 40
0.5161290322580645
 40
0.5161290322580645
 40
0.5483870967741935
 40
0.5483870967741935
 40
0.5483870967741935
 40
0.5483870967741935
 40
0.5806451612903226
 40
0.5806451612903226
 40
0.5806451612903226
 40
0.5806451612903226
 40
0.6129032258064516
 40
0.6129032258064516
 40
0.6129032258064516
 40
0.6129032258064516
 40
0.6451612903225806
 40
0.6451612903225806
 40
0.6451612903225806
 40
0.6451612903225806
 40
0.6774193548387096
 40
0.6774193548387096
 40
0.6774193548387096
 40
0.6774193548387096
 40
0.7096774193548387
 40
0.7096774193548387
 40
0.7096774193548387
 40
0.7096774193548387
 40
0.7419354838709677
 40
0.7419354838709677
 40
0.7419354838709677
 40
0.7419354838709677
 40
0.7741935483870968
 40
0.7741935483870968
 40
0.7741935483870968
 40
0.7741935483870968
 40
0.8064516129032258
 40
0.8064516129032258
 40
0.8064516129032258
 40
0.8064516129032258
 40
0.8387096774193549
 40
0.8387096774193549
 40
0.8387096774193549
 40
0.8387096774193549
 40
0.8709677419354839
 40
0.8709677419354839
 40
0.8709677419354839
 40
0.8709677419354839
 40
0.9032258064516129
 40
0.9032258064516129
 40
0.9032258064516129
 40
0.9032258064516129
 40
0.9354838709677419
 40
0.9354838709677419
 40
0.9354838709677419
 40
0.9354838709677419
 40
1.0
 40
1.0
 40
1.0
 40
1.0
 10
-29.2569
 20
-9.4605
 30
0.0
 10
-29.2569
 20
-9.4605
 30
0.0
 10
-29.5402
 20
-9.4605
 30
0.0
 10
-29.5402
 20
-9.4605
 30
0.0
 10
-29.5402
 20
-9.4605
 30
0.0
 10
-29.5402
 20
-9.4605
 30
0.0
 10
-29.5402
 20
-10.5898
 30
0.0
 10
-29.5402
 20
-10.5898
 30
0.0
 10
-29.5402
 20
-10.5898
 30
0.0
 10
-29.5402
 20
-10.5898
 30
0.0
 10
-29.5479
 20
-10.5898
 30
0.0
 10
-29.5479
 20
-10.5898
 30
0.0
 10
-29.5479
 20
-10.5898
 30
0.0
 10
-29.5479
 20
-10.5898
 30
0.0
 10
-29.7342
 20
-10.3919
 30
0.0
 10
-29.7342
 20
-10.3919
 30
0.0
 10
-29.7342
 20
-10.3919
 30
0.0
 10
-29.8616
 20
-10.2586
 30
0.0
 10
-29.9826
 20
-10.1383
 30
0.0
 10
-30.0964
 20
-10.0316
 30
0.0
 10
-30.0964
 20
-10.0316
 30
0.0
 10
-30.2102
 20
-9.9249
 30
0.0
 10
-30.3215
 20
-9.8337
 30
0.0
 10
-30.4288
 20
-9.758
 30
0.0
 10
-30.4288
 20
-9.758
 30
0.0
 10
-30.5362
 20
-9.6817
 30
0.0
 10
-30.6442
 20
-9.6242
 30
0.0
 10
-30.7529
 20
-9.5834
 30
0.0
 10
-30.7529
 20
-9.5834
 30
0.0
 10
-30.8609
 20
-9.5433
 30
0.0
 10
-30.9728
 20
-9.5233
 30
0.0
 10
-31.0885
 20
-9.5226
 30
0.0
 10
-31.0885
 20
-9.5226
 30
0.0
 10
-31.1797
 20
-9.5226
 30
0.0
 10
-31.269
 20
-9.5368
 30
0.0
 10
-31.3557
 20
-9.5666
 30
0.0
 10
-31.3557
 20
-9.5666
 30
0.0
 10
-31.4423
 20
-9.5963
 30
0.0
 10
-31.5206
 20
-9.6429
 30
0.0
 10
-31.5904
 20
-9.705
 30
0.0
 10
-31.5904
 20
-9.705
 30
0.0
 10
-31.6609
 20
-9.7671
 30
0.0
 10
-31.7166
 20
-9.8473
 30
0.0
 10
-31.7579
 20
-9.945
 30
0.0
 10
-31.7579
 20
-9.945
 30
0.0
 10
-31.8
 20
-10.0426
 30
0.0
 10
-31.8213
 20
-10.159
 30
0.0
 10
-31.822
 20
-10.2949
 30
0.0
 10
-31.822
 20
-10.2949
 30
0.0
 10
-31.8213
 20
-10.3906
 30
0.0
 10
-31.8103
 20
-10.4818
 30
0.0
 10
-31.7877
 20
-10.5684
 30
0.0
 10
-31.7877
 20
-10.5684
 30
0.0
 10
-31.7651
 20
-10.6551
 30
0.0
 10
-31.7347
 20
-10.7353
 30
0.0
 10
-31.6959
 20
-10.809
 30
0.0
 10
-31.6959
 20
-10.809
 30
0.0
 10
-31.6577
 20
-10.8821
 30
0.0
 10
-31.6144
 20
-10.9474
 30
0.0
 10
-31.5659
 20
-11.005
 30
0.0
 10
-31.5659
 20
-11.005
 30
0.0
 10
-31.5659
 20
-11.005
 30
0.0
 10
-31.3253
 20
-10.8963
 30
0.0
 10
-31.3253
 20
-10.8963
 30
0.0
 10
-31.3253
 20
-10.8963
 30
0.0
 10
-31.3582
 20
-10.8575
 30
0.0
 10
-31.3912
 20
-10.811
 30
0.0
 10
-31.4236
 20
-10.7566
 30
0.0
 10
-31.4236
 20
-10.7566
 30
0.0
 10
-31.4566
 20
-10.7023
 30
0.0
 10
-31.4831
 20
-10.6422
 30
0.0
 10
-31.5051
 20
-10.5755
 30
0.0
 10
-31.5051
 20
-10.5755
 30
0.0
 10
-31.5264
 20
-10.5089
 30
0.0
 10
-31.538
 20
-10.4371
 30
0.0
 10
-31.5387
 20
-10.3608
 30
0.0
 10
-31.5387
 20
-10.3608
 30
0.0
 10
-31.538
 20
-10.267
 30
0.0
 10
-31.5245
 20
-10.1881
 30
0.0
 10
-31.4979
 20
-10.1241
 30
0.0
 10
-31.4979
 20
-10.1241
 30
0.0
 10
-31.4708
 20
-10.0607
 30
0.0
 10
-31.4346
 20
-10.0096
 30
0.0
 10
-31.3886
 20
-9.9715
 30
0.0
 10
-31.3886
 20
-9.9715
 30
0.0
 10
-31.3421
 20
-9.9333
 30
0.0
 10
-31.2897
 20
-9.9055
 30
0.0
 10
-31.2308
 20
-9.8887
 30
0.0
 10
-31.2308
 20
-9.8887
 30
0.0
 10
-31.172
 20
-9.8719
 30
0.0
 10
-31.1105
 20
-9.8635
 30
0.0
 10
-31.0459
 20
-9.8641
 30
0.0
 10
-31.0459
 20
-9.8641
 30
0.0
 10
-30.9514
 20
-9.8641
 30
0.0
 10
-30.8583
 20
-9.8829
 30
0.0
 10
-30.7658
 20
-9.9204
 30
0.0
 10
-30.7658
 20
-9.9204
 30
0.0
 10
-30.6727
 20
-9.9579
 30
0.0
 10
-30.5757
 20
-10.0148
 30
0.0
 10
-30.4735
 20
-10.0918
 30
0.0
 10
-30.4735
 20
-10.0918
 30
0.0
 10
-30.3713
 20
-10.1687
 30
0.0
 10
-30.2594
 20
-10.2664
 30
0.0
 10
-30.1378
 20
-10.3848
 30
0.0
 10
-30.1378
 20
-10.3848
 30
0.0
 10
-30.0162
 20
-10.5025
 30
0.0
 10
-29.8791
 20
-10.6422
 30
0.0
 10
-29.7265
 20
-10.8032
 30
0.0
 10
-29.7265
 20
-10.8032
 30
0.0
 10
-29.7265
 20
-10.8032
 30
0.0
 10
-29.4665
 20
-11.071
 30
0.0
 10
-29.4665
 20
-11.071
 30
0.0
 10
-29.4665
 20
-11.071
 30
0.0
 10
-29.4665
 20
-11.071
 30
0.0
 10
-29.2569
 20
-11.071
 30
0.0
 10
-29.2569
 20
-11.071
 30
0.0
 10
-29.2569
 20
-11.071
 30
0.0
 10
-29.2569
 20
-11.071
 30
0.0
 10
-29.2569
 20
-9.4605
 30
0.0
 10
-29.2569
 20
-9.4605
 30
0.0
  0
SPLINE
  5
9F
330
1F
100
AcDbEntity
  8
Ilustrace
 62
   250
100
AcDbSpline
210
0.0
220
0.0
230
1.0
 70
    11
 71
     3
 72
    48
 73
    44
 74
     0
 42
0.0000000001
 43
0.0000000001
 40
0.0
 40
0.0
 40
0.0
 40
0.0
 40
0.0833333333333333
 40
0.0833333333333333
 40
0.0833333333333333
 40
0.0833333333333333
 40
0.1666666666666667
 40
0.1666666666666667
 40
0.1666666666666667
 40
0.1666666666666667
 40
0.25
 40
0.25
 40
0.25
 40
0.25
 40
0.3333333333333333
 40
0.3333333333333333
 40
0.3333333333333333
 40
0.3333333333333333
 40
0.4166666666666667
 40
0.4166666666666667
 40
0.4166666666666667
 40
0.4166666666666667
 40
0.5
 40
0.5
 40
0.5
 40
0.5
 40
0.5833333333333334
 40
0.5833333333333334
 40
0.5833333333333334
 40
0.5833333333333334
 40
0.6666666666666666
 40
0.6666666666666666
 40
0.6666666666666666
 40
0.6666666666666666
 40
0.75
 40
0.75
 40
0.75
 40
0.75
 40
0.8333333333333334
 40
0.8333333333333334
 40
0.8333333333333334
 40
0.8333333333333334
 40
1.0
 40
1.0
 40
1.0
 40
1.0
 10
3.8771
 20
-5.5376
 30
0.0
 10
3.8771
 20
-5.5376
 30
0.0
 10
3.1864
 20
-5.5376
 30
0.0
 10
3.1864
 20
-5.5376
 30
0.0
 10
3.1864
 20
-5.5376
 30
0.0
 10
3.1864
 20
-5.5376
 30
0.0
 10
3.1864
 20
-5.1844
 30
0.0
 10
3.1864
 20
-5.1844
 30
0.0
 10
3.1864
 20
-5.1844
 30
0.0
 10
3.1864
 20
-5.1844
 30
0.0
 10
2.9225
 20
-5.1844
 30
0.0
 10
2.9225
 20
-5.1844
 30
0.0
 10
2.9225
 20
-5.1844
 30
0.0
 10
2.9225
 20
-5.1844
 30
0.0
 10
2.9225
 20
-5.5376
 30
0.0
 10
2.9225
 20
-5.5376
 30
0.0
 10
2.9225
 20
-5.5376
 30
0.0
 10
2.9225
 20
-5.5376
 30
0.0
 10
1.3547
 20
-5.5376
 30
0.0
 10
1.3547
 20
-5.5376
 30
0.0
 10
1.3547
 20
-5.5376
 30
0.0
 10
1.3547
 20
-5.5376
 30
0.0
 10
1.3547
 20
-5.9062
 30
0.0
 10
1.3547
 20
-5.9062
 30
0.0
 10
1.3547
 20
-5.9062
 30
0.0
 10
1.3547
 20
-5.9062
 30
0.0
 10
2.9652
 20
-7.0316
 30
0.0
 10
2.9652
 20
-7.0316
 30
0.0
 10
2.9652
 20
-7.0316
 30
0.0
 10
2.9652
 20
-7.0316
 30
0.0
 10
3.1864
 20
-7.0316
 30
0.0
 10
3.1864
 20
-7.0316
 30
0.0
 10
3.1864
 20
-7.0316
 30
0.0
 10
3.1864
 20
-7.0316
 30
0.0
 10
3.1864
 20
-5.8596
 30
0.0
 10
3.1864
 20
-5.8596
 30
0.0
 10
3.1864
 20
-5.8596
 30
0.0
 10
3.1864
 20
-5.8596
 30
0.0
 10
3.8771
 20
-5.8596
 30
0.0
 10
3.8771
 20
-5.8596
 30
0.0
 10
3.8771
 20
-5.8596
 30
0.0
 10
3.8771
 20
-5.8596
 30
0.0
 10
3.8771
 20
-5.5376
 30
0.0
 10
3.8771
 20
-5.5376
 30
0.0
  0
SPLINE
  5
A0
330
1F
100
AcDbEntity
  8
Ilustrace
 62
   250
100
AcDbSpline
210
0.0
220
0.0
230
1.0
 70
    11
 71
     3
 72
    36
 73
    32
 74
     0
 42
0.0000000001
 43
0.0000000001
 40
0.0
 40
0.0
 40
0.0
 40
0.0
 40
0.1111111111111111
 40
0.1111111111111111
 40
0.1111111111111111
 40
0.1111111111111111
 40
0.2222222222222222
 40
0.2222222222222222
 40
0.2222222222222222
 40
0.2222222222222222
 40
0.3333333333333333
 40
0.3333333333333333
 40
0.3333333333333333
 40
0.3333333333333333
 40
0.4444444444444444
 40
0.4444444444444444
 40
0.4444444444444444
 40
0.4444444444444444
 40
0.5555555555555556
 40
0.5555555555555556
 40
0.5555555555555556
 40
0.5555555555555556
 40
0.6666666666666666
 40
0.6666666666666666
 40
0.6666666666666666
 40
0.6666666666666666
 40
0.7777777777777778
 40
0.7777777777777778
 40
0.7777777777777778
 40
0.7777777777777778
 40
1.0
 40
1.0
 40
1.0
 40
1.0
 10
2.9225
 20
-6.6862
 30
0.0
 10
2.9225
 20
-6.6862
 30
0.0
 10
2.9147
 20
-6.6862
 30
0.0
 10
2.9147
 20
-6.6862
 30
0.0
 10
2.9147
 20
-6.6862
 30
0.0
 10
2.9147
 20
-6.6862
 30
0.0
 10
2.0571
 20
-6.0692
 30
0.0
 10
2.0571
 20
-6.0692
 30
0.0
 10
2.0571
 20
-6.0692
 30
0.0
 10
1.9995
 20
-6.0349
 30
0.0
 10
1.9413
 20
-6.0006
 30
0.0
 10
1.8825
 20
-5.967
 30
0.0
 10
1.8825
 20
-5.967
 30
0.0
 10
1.823
 20
-5.934
 30
0.0
 10
1.757
 20
-5.8978
 30
0.0
 10
1.6846
 20
-5.8596
 30
0.0
 10
1.6846
 20
-5.8596
 30
0.0
 10
1.6846
 20
-5.8596
 30
0.0
 10
1.6846
 20
-5.848
 30
0.0
 10
1.6846
 20
-5.848
 30
0.0
 10
1.6846
 20
-5.848
 30
0.0
 10
1.8165
 20
-5.8558
 30
0.0
 10
1.9484
 20
-5.8596
 30
0.0
 10
2.0804
 20
-5.8596
 30
0.0
 10
2.0804
 20
-5.8596
 30
0.0
 10
2.0804
 20
-5.8596
 30
0.0
 10
2.9225
 20
-5.8596
 30
0.0
 10
2.9225
 20
-5.8596
 30
0.0
 10
2.9225
 20
-5.8596
 30
0.0
 10
2.9225
 20
-5.8596
 30
0.0
 10
2.9225
 20
-6.6862
 30
0.0
 10
2.9225
 20
-6.6862
 30
0.0
  0
SPLINE
  5
A1
330
1F
100
AcDbEntity
  8
Ilustrace
 62
   250
100
AcDbSpline
210
0.0
220
0.0
230
1.0
 70
    11
 71
     3
 72
   196
 73
   192
 74
     0
 42
0.0000000001
 43
0.0000000001
 40
0.0
 40
0.0
 40
0.0
 40
0.0
 40
0.0204081632653061
 40
0.0204081632653061
 40
0.0204081632653061
 40
0.0204081632653061
 40
0.0408163265306122
 40
0.0408163265306122
 40
0.0408163265306122
 40
0.0408163265306122
 40
0.0612244897959184
 40
0.0612244897959184
 40
0.0612244897959184
 40
0.0612244897959184
 40
0.0816326530612245
 40
0.0816326530612245
 40
0.0816326530612245
 40
0.0816326530612245
 40
0.1020408163265306
 40
0.1020408163265306
 40
0.1020408163265306
 40
0.1020408163265306
 40
0.1224489795918367
 40
0.1224489795918367
 40
0.1224489795918367
 40
0.1224489795918367
 40
0.1428571428571428
 40
0.1428571428571428
 40
0.1428571428571428
 40
0.1428571428571428
 40
0.163265306122449
 40
0.163265306122449
 40
0.163265306122449
 40
0.163265306122449
 40
0.1836734693877551
 40
0.1836734693877551
 40
0.1836734693877551
 40
0.1836734693877551
 40
0.2040816326530612
 40
0.2040816326530612
 40
0.2040816326530612
 40
0.2040816326530612
 40
0.2244897959183673
 40
0.2244897959183673
 40
0.2244897959183673
 40
0.2244897959183673
 40
0.2448979591836735
 40
0.2448979591836735
 40
0.2448979591836735
 40
0.2448979591836735
 40
0.2653061224489796
 40
0.2653061224489796
 40
0.2653061224489796
 40
0.2653061224489796
 40
0.2857142857142857
 40
0.2857142857142857
 40
0.2857142857142857
 40
0.2857142857142857
 40
0.3061224489795918
 40
0.3061224489795918
 40
0.3061224489795918
 40
0.3061224489795918
 40
0.3265306122448979
 40
0.3265306122448979
 40
0.3265306122448979
 40
0.3265306122448979
 40
0.3469387755102041
 40
0.3469387755102041
 40
0.3469387755102041
 40
0.3469387755102041
 40
0.3673469387755102
 40
0.3673469387755102
 40
0.3673469387755102
 40
0.3673469387755102
 40
0.3877551020408163
 40
0.3877551020408163
 40
0.3877551020408163
 40
0.3877551020408163
 40
0.4081632653061225
 40
0.4081632653061225
 40
0.4081632653061225
 40
0.4081632653061225
 40
0.4285714285714285
 40
0.4285714285714285
 40
0.4285714285714285
 40
0.4285714285714285
 40
0.4489795918367347
 40
0.4489795918367347
 40
0.4489795918367347
 40
0.4489795918367347
 40
0.4693877551020408
 40
0.4693877551020408
 40
0.4693877551020408
 40
0.4693877551020408
 40
0.4897959183673469
 40
0.4897959183673469
 40
0.4897959183673469
 40
0.4897959183673469
 40
0.5102040816326531
 40
0.5102040816326531
 40
0.5102040816326531
 40
0.5102040816326531
 40
0.5306122448979592
 40
0.5306122448979592
 40
0.5306122448979592
 40
0.5306122448979592
 40
0.5510204081632653
 40
0.5510204081632653
 40
0.5510204081632653
 40
0.5510204081632653
 40
0.5714285714285714
 40
0.5714285714285714
 40
0.5714285714285714
 40
0.5714285714285714
 40
0.5918367346938775
 40
0.5918367346938775
 40
0.5918367346938775
 40
0.5918367346938775
 40
0.6122448979591837
 40
0.6122448979591837
 40
0.6122448979591837
 40
0.6122448979591837
 40
0.6326530612244898
 40
0.6326530612244898
 40
0.6326530612244898
 40
0.6326530612244898
 40
0.6530612244897959
 40
0.6530612244897959
 40
0.6530612244897959
 40
0.6530612244897959
 40
0.673469387755102
 40
0.673469387755102
 40
0.673469387755102
 40
0.673469387755102
 40
0.6938775510204082
 40
0.6938775510204082
 40
0.6938775510204082
 40
0.6938775510204082
 40
0.7142857142857143
 40
0.7142857142857143
 40
0.7142857142857143
 40
0.7142857142857143
 40
0.7346938775510204
 40
0.7346938775510204
 40
0.7346938775510204
 40
0.7346938775510204
 40
0.7551020408163265
 40
0.7551020408163265
 40
0.7551020408163265
 40
0.7551020408163265
 40
0.7755102040816326
 40
0.7755102040816326
 40
0.7755102040816326
 40
0.7755102040816326
 40
0.7959183673469388
 40
0.7959183673469388
 40
0.7959183673469388
 40
0.7959183673469388
 40
0.8163265306122449
 40
0.8163265306122449
 40
0.8163265306122449
 40
0.8163265306122449
 40
0.8367346938775511
 40
0.8367346938775511
 40
0.8367346938775511
 40
0.8367346938775511
 40
0.8571428571428571
 40
0.8571428571428571
 40
0.8571428571428571
 40
0.8571428571428571
 40
0.8775510204081632
 40
0.8775510204081632
 40
0.8775510204081632
 40
0.8775510204081632
 40
0.8979591836734694
 40
0.8979591836734694
 40
0.8979591836734694
 40
0.8979591836734694
 40
0.9183673469387755
 40
0.9183673469387755
 40
0.9183673469387755
 40
0.9183673469387755
 40
0.9387755102040817
 40
0.9387755102040817
 40
0.9387755102040817
 40
0.9387755102040817
 40
0.9591836734693877
 40
0.9591836734693877
 40
0.9591836734693877
 40
0.9591836734693877
 40
1.0
 40
1.0
 40
1.0
 40
1.0
 10
3.749
 20
-4.9361
 30
0.0
 10
3.7769
 20
-4.8941
 30
0.0
 10
3.8034
 20
-4.8397
 30
0.0
 10
3.8292
 20
-4.7738
 30
0.0
 10
3.8292
 20
-4.7738
 30
0.0
 10
3.8551
 20
-4.7078
 30
0.0
 10
3.8765
 20
-4.6328
 30
0.0
 10
3.8939
 20
-4.5487
 30
0.0
 10
3.8939
 20
-4.5487
 30
0.0
 10
3.9107
 20
-4.4646
 30
0.0
 10
3.9191
 20
-4.3754
 30
0.0
 10
3.9198
 20
-4.2803
 30
0.0
 10
3.9198
 20
-4.2803
 30
0.0
 10
3.9191
 20
-4.1296
 30
0.0
 10
3.8984
 20
-3.997
 30
0.0
 10
3.8583
 20
-3.8825
 30
0.0
 10
3.8583
 20
-3.8825
 30
0.0
 10
3.8182
 20
-3.7681
 30
0.0
 10
3.7626
 20
-3.6723
 30
0.0
 10
3.6928
 20
-3.5947
 30
0.0
 10
3.6928
 20
-3.5947
 30
0.0
 10
3.6229
 20
-3.5171
 30
0.0
 10
3.5421
 20
-3.4589
 30
0.0
 10
3.4515
 20
-3.4194
 30
0.0
 10
3.4515
 20
-3.4194
 30
0.0
 10
3.361
 20
-3.3806
 30
0.0
 10
3.2646
 20
-3.3606
 30
0.0
 10
3.1631
 20
-3.3606
 30
0.0
 10
3.1631
 20
-3.3606
 30
0.0
 10
3.0745
 20
-3.3619
 30
0.0
 10
2.9943
 20
-3.3774
 30
0.0
 10
2.9218
 20
-3.4065
 30
0.0
 10
2.9218
 20
-3.4065
 30
0.0
 10
2.8487
 20
-3.4356
 30
0.0
 10
2.7854
 20
-3.4757
 30
0.0
 10
2.7304
 20
-3.5268
 30
0.0
 10
2.7304
 20
-3.5268
 30
0.0
 10
2.6754
 20
-3.5779
 30
0.0
 10
2.6301
 20
-3.6374
 30
0.0
 10
2.5946
 20
-3.7047
 30
0.0
 10
2.5946
 20
-3.7047
 30
0.0
 10
2.559
 20
-3.7726
 30
0.0
 10
2.5338
 20
-3.845
 30
0.0
 10
2.5189
 20
-3.9233
 30
0.0
 10
2.5189
 20
-3.9233
 30
0.0
 10
2.5189
 20
-3.9233
 30
0.0
 10
2.5111
 20
-3.9233
 30
0.0
 10
2.5111
 20
-3.9233
 30
0.0
 10
2.5111
 20
-3.9233
 30
0.0
 10
2.473
 20
-3.8211
 30
0.0
 10
2.4245
 20
-3.7351
 30
0.0
 10
2.365
 20
-3.6665
 30
0.0
 10
2.365
 20
-3.6665
 30
0.0
 10
2.3055
 20
-3.5973
 30
0.0
 10
2.2369
 20
-3.5449
 30
0.0
 10
2.1606
 20
-3.51
 30
0.0
 10
2.1606
 20
-3.51
 30
0.0
 10
2.0843
 20
-3.4751
 30
0.0
 10
2.0021
 20
-3.4576
 30
0.0
 10
1.9135
 20
-3.4576
 30
0.0
 10
1.9135
 20
-3.4576
 30
0.0
 10
1.8359
 20
-3.4576
 30
0.0
 10
1.7615
 20
-3.4718
 30
0.0
 10
1.6904
 20
-3.5003
 30
0.0
 10
1.6904
 20
-3.5003
 30
0.0
 10
1.6186
 20
-3.5294
 30
0.0
 10
1.5546
 20
-3.5734
 30
0.0
 10
1.4976
 20
-3.6322
 30
0.0
 10
1.4976
 20
-3.6322
 30
0.0
 10
1.4407
 20
-3.6911
 30
0.0
 10
1.3961
 20
-3.7661
 30
0.0
 10
1.3631
 20
-3.8573
 30
0.0
 10
1.3631
 20
-3.8573
 30
0.0
 10
1.3295
 20
-3.9479
 30
0.0
 10
1.3127
 20
-4.0552
 30
0.0
 10
1.312
 20
-4.1794
 30
0.0
 10
1.312
 20
-4.1794
 30
0.0
 10
1.3127
 20
-4.2706
 30
0.0
 10
1.3224
 20
-4.3579
 30
0.0
 10
1.3405
 20
-4.442
 30
0.0
 10
1.3405
 20
-4.442
 30
0.0
 10
1.3592
 20
-4.5261
 30
0.0
 10
1.3832
 20
-4.6024
 30
0.0
 10
1.4123
 20
-4.6709
 30
0.0
 10
1.4123
 20
-4.6709
 30
0.0
 10
1.442
 20
-4.7395
 30
0.0
 10
1.4731
 20
-4.7971
 30
0.0
 10
1.5061
 20
-4.843
 30
0.0
 10
1.5061
 20
-4.843
 30
0.0
 10
1.5061
 20
-4.843
 30
0.0
 10
1.7544
 20
-4.7498
 30
0.0
 10
1.7544
 20
-4.7498
 30
0.0
 10
1.7544
 20
-4.7498
 30
0.0
 10
1.7279
 20
-4.713
 30
0.0
 10
1.702
 20
-4.6684
 30
0.0
 10
1.6768
 20
-4.6153
 30
0.0
 10
1.6768
 20
-4.6153
 30
0.0
 10
1.6509
 20
-4.5629
 30
0.0
 10
1.6302
 20
-4.5047
 30
0.0
 10
1.6134
 20
-4.4413
 30
0.0
 10
1.6134
 20
-4.4413
 30
0.0
 10
1.5966
 20
-4.3786
 30
0.0
 10
1.5882
 20
-4.3133
 30
0.0
 10
1.5875
 20
-4.2454
 30
0.0
 10
1.5875
 20
-4.2454
 30
0.0
 10
1.5882
 20
-4.1406
 30
0.0
 10
1.6063
 20
-4.0559
 30
0.0
 10
1.6412
 20
-3.9912
 30
0.0
 10
1.6412
 20
-3.9912
 30
0.0
 10
1.6762
 20
-3.9259
 30
0.0
 10
1.7221
 20
-3.878
 30
0.0
 10
1.7796
 20
-3.8476
 30
0.0
 10
1.7796
 20
-3.8476
 30
0.0
 10
1.8366
 20
-3.8172
 30
0.0
 10
1.8993
 20
-3.8023
 30
0.0
 10
1.9678
 20
-3.803
 30
0.0
 10
1.9678
 20
-3.803
 30
0.0
 10
2.0422
 20
-3.8036
 30
0.0
 10
2.1069
 20
-3.8217
 30
0.0
 10
2.1606
 20
-3.856
 30
0.0
 10
2.1606
 20
-3.856
 30
0.0
 10
2.2143
 20
-3.8903
 30
0.0
 10
2.2589
 20
-3.9356
 30
0.0
 10
2.2932
 20
-3.9912
 30
0.0
 10
2.2932
 20
-3.9912
 30
0.0
 10
2.3281
 20
-4.0468
 30
0.0
 10
2.3533
 20
-4.1076
 30
0.0
 10
2.3701
 20
-4.1729
 30
0.0
 10
2.3701
 20
-4.1729
 30
0.0
 10
2.3863
 20
-4.2383
 30
0.0
 10
2.3947
 20
-4.3023
 30
0.0
 10
2.3947
 20
-4.3657
 30
0.0
 10
2.3947
 20
-4.3657
 30
0.0
 10
2.3947
 20
-4.3657
 30
0.0
 10
2.3947
 20
-4.5558
 30
0.0
 10
2.3947
 20
-4.5558
 30
0.0
 10
2.3947
 20
-4.5558
 30
0.0
 10
2.3947
 20
-4.5558
 30
0.0
 10
2.6508
 20
-4.5558
 30
0.0
 10
2.6508
 20
-4.5558
 30
0.0
 10
2.6508
 20
-4.5558
 30
0.0
 10
2.6508
 20
-4.5558
 30
0.0
 10
2.6508
 20
-4.3657
 30
0.0
 10
2.6508
 20
-4.3657
 30
0.0
 10
2.6508
 20
-4.3657
 30
0.0
 10
2.6508
 20
-4.2822
 30
0.0
 10
2.6605
 20
-4.202
 30
0.0
 10
2.6799
 20
-4.1251
 30
0.0
 10
2.6799
 20
-4.1251
 30
0.0
 10
2.6993
 20
-4.0481
 30
0.0
 10
2.7297
 20
-3.9789
 30
0.0
 10
2.7705
 20
-3.9175
 30
0.0
 10
2.7705
 20
-3.9175
 30
0.0
 10
2.8112
 20
-3.856
 30
0.0
 10
2.8636
 20
-3.8069
 30
0.0
 10
2.9276
 20
-3.7706
 30
0.0
 10
2.9276
 20
-3.7706
 30
0.0
 10
2.991
 20
-3.7344
 30
0.0
 10
3.0673
 20
-3.7157
 30
0.0
 10
3.1553
 20
-3.7137
 30
0.0
 10
3.1553
 20
-3.7137
 30
0.0
 10
3.2096
 20
-3.7124
 30
0.0
 10
3.2653
 20
-3.7208
 30
0.0
 10
3.3215
 20
-3.7402
 30
0.0
 10
3.3215
 20
-3.7402
 30
0.0
 10
3.3784
 20
-3.759
 30
0.0
 10
3.4315
 20
-3.7907
 30
0.0
 10
3.48
 20
-3.8347
 30
0.0
 10
3.48
 20
-3.8347
 30
0.0
 10
3.5285
 20
-3.8787
 30
0.0
 10
3.5679
 20
-3.9375
 30
0.0
 10
3.5977
 20
-4.0112
 30
0.0
 10
3.5977
 20
-4.0112
 30
0.0
 10
3.6281
 20
-4.085
 30
0.0
 10
3.6436
 20
-4.1755
 30
0.0
 10
3.6443
 20
-4.2842
 30
0.0
 10
3.6443
 20
-4.2842
 30
0.0
 10
3.6436
 20
-4.365
 30
0.0
 10
3.6346
 20
-4.442
 30
0.0
 10
3.6171
 20
-4.5144
 30
0.0
 10
3.6171
 20
-4.5144
 30
0.0
 10
3.5996
 20
-4.5869
 30
0.0
 10
3.5789
 20
-4.6515
 30
0.0
 10
3.555
 20
-4.7085
 30
0.0
 10
3.555
 20
-4.7085
 30
0.0
 10
3.5311
 20
-4.7654
 30
0.0
 10
3.5091
 20
-4.81
 30
0.0
 10
3.489
 20
-4.843
 30
0.0
 10
3.489
 20
-4.843
 30
0.0
 10
3.489
 20
-4.843
 30
0.0
 10
3.749
 20
-4.9361
 30
0.0
 10
3.749
 20
-4.9361
 30
0.0
  0
SPLINE
  5
A2
330
1F
100
AcDbEntity
  8
Ilustrace
 62
   250
370
    13
100
AcDbSpline
210
0.0
220
0.0
230
1.0
 70
    24
 71
     3
 72
     8
 73
     4
 74
     0
 42
0.0000000001
 43
0.0000000001
 40
0.0
 40
0.0
 40
0.0
 40
0.0
 40
1.0
 40
1.0
 40
1.0
 40
1.0
 10
33.2288
 20
8.865
 30
0.0
 10
33.2288
 20
8.865
 30
0.0
 10
-17.9913
 20
8.865
 30
0.0
 10
-17.9913
 20
8.865
 30
0.0
  0
SPLINE
  5
A3
330
1F
100
AcDbEntity
  8
Ilustrace
 62
   250
100
AcDbSpline
210
0.0
220
0.0
230
1.0
 70
    11
 71
     3
 72
   140
 73
   136
 74
     0
 42
0.0000000001
 43
0.0000000001
 40
0.0
 40
0.0
 40
0.0
 40
0.0
 40
0.0285714285714286
 40
0.0285714285714286
 40
0.0285714285714286
 40
0.0285714285714286
 40
0.0571428571428571
 40
0.0571428571428571
 40
0.0571428571428571
 40
0.0571428571428571
 40
0.0857142857142857
 40
0.0857142857142857
 40
0.0857142857142857
 40
0.0857142857142857
 40
0.1142857142857143
 40
0.1142857142857143
 40
0.1142857142857143
 40
0.1142857142857143
 40
0.1428571428571428
 40
0.1428571428571428
 40
0.1428571428571428
 40
0.1428571428571428
 40
0.1714285714285714
 40
0.1714285714285714
 40
0.1714285714285714
 40
0.1714285714285714
 40
0.2
 40
0.2
 40
0.2
 40
0.2
 40
0.2285714285714286
 40
0.2285714285714286
 40
0.2285714285714286
 40
0.2285714285714286
 40
0.2571428571428571
 40
0.2571428571428571
 40
0.2571428571428571
 40
0.2571428571428571
 40
0.2857142857142857
 40
0.2857142857142857
 40
0.2857142857142857
 40
0.2857142857142857
 40
0.3142857142857143
 40
0.3142857142857143
 40
0.3142857142857143
 40
0.3142857142857143
 40
0.3428571428571429
 40
0.3428571428571429
 40
0.3428571428571429
 40
0.3428571428571429
 40
0.3714285714285714
 40
0.3714285714285714
 40
0.3714285714285714
 40
0.3714285714285714
 40
0.4
 40
0.4
 40
0.4
 40
0.4
 40
0.4285714285714285
 40
0.4285714285714285
 40
0.4285714285714285
 40
0.4285714285714285
 40
0.4571428571428571
 40
0.4571428571428571
 40
0.4571428571428571
 40
0.4571428571428571
 40
0.4857142857142857
 40
0.4857142857142857
 40
0.4857142857142857
 40
0.4857142857142857
 40
0.5142857142857142
 40
0.5142857142857142
 40
0.5142857142857142
 40
0.5142857142857142
 40
0.5428571428571428
 40
0.5428571428571428
 40
0.5428571428571428
 40
0.5428571428571428
 40
0.5714285714285714
 40
0.5714285714285714
 40
0.5714285714285714
 40
0.5714285714285714
 40
0.6
 40
0.6
 40
0.6
 40
0.6
 40
0.6285714285714286
 40
0.6285714285714286
 40
0.6285714285714286
 40
0.6285714285714286
 40
0.6571428571428571
 40
0.6571428571428571
 40
0.6571428571428571
 40
0.6571428571428571
 40
0.6857142857142857
 40
0.6857142857142857
 40
0.6857142857142857
 40
0.6857142857142857
 40
0.7142857142857143
 40
0.7142857142857143
 40
0.7142857142857143
 40
0.7142857142857143
 40
0.7428571428571429
 40
0.7428571428571429
 40
0.7428571428571429
 40
0.7428571428571429
 40
0.7714285714285715
 40
0.7714285714285715
 40
0.7714285714285715
 40
0.7714285714285715
 40
0.8
 40
0.8
 40
0.8
 40
0.8
 40
0.8285714285714286
 40
0.8285714285714286
 40
0.8285714285714286
 40
0.8285714285714286
 40
0.8571428571428571
 40
0.8571428571428571
 40
0.8571428571428571
 40
0.8571428571428571
 40
0.8857142857142857
 40
0.8857142857142857
 40
0.8857142857142857
 40
0.8857142857142857
 40
0.9142857142857143
 40
0.9142857142857143
 40
0.9142857142857143
 40
0.9142857142857143
 40
0.9428571428571428
 40
0.9428571428571428
 40
0.9428571428571428
 40
0.9428571428571428
 40
1.0
 40
1.0
 40
1.0
 40
1.0
 10
16.1319
 20
10.9385
 30
0.0
 10
16.1319
 20
10.9385
 30
0.0
 10
15.2704
 20
10.9385
 30
0.0
 10
15.2704
 20
10.9385
 30
0.0
 10
15.2704
 20
10.9385
 30
0.0
 10
15.2704
 20
10.9385
 30
0.0
 10
15.2704
 20
10.6669
 30
0.0
 10
15.2704
 20
10.6669
 30
0.0
 10
15.2704
 20
10.6669
 30
0.0
 10
15.2704
 20
10.6669
 30
0.0
 10
15.7982
 20
10.6669
 30
0.0
 10
15.7982
 20
10.6669
 30
0.0
 10
15.7982
 20
10.6669
 30
0.0
 10
15.7982
 20
10.6669
 30
0.0
 10
15.7982
 20
9.8869
 30
0.0
 10
15.7982
 20
9.8869
 30
0.0
 10
15.7982
 20
9.8869
 30
0.0
 10
15.7594
 20
9.8668
 30
0.0
 10
15.7025
 20
9.8507
 30
0.0
 10
15.6268
 20
9.8371
 30
0.0
 10
15.6268
 20
9.8371
 30
0.0
 10
15.5518
 20
9.8241
 30
0.0
 10
15.4586
 20
9.8177
 30
0.0
 10
15.348
 20
9.817
 30
0.0
 10
15.348
 20
9.817
 30
0.0
 10
15.1941
 20
9.817
 30
0.0
 10
15.0557
 20
9.841
 30
0.0
 10
14.9315
 20
9.8888
 30
0.0
 10
14.9315
 20
9.8888
 30
0.0
 10
14.808
 20
9.936
 30
0.0
 10
14.7019
 20
10.0052
 30
0.0
 10
14.6133
 20
10.0958
 30
0.0
 10
14.6133
 20
10.0958
 30
0.0
 10
14.5254
 20
10.187
 30
0.0
 10
14.4575
 20
10.2976
 30
0.0
 10
14.4102
 20
10.4276
 30
0.0
 10
14.4102
 20
10.4276
 30
0.0
 10
14.363
 20
10.5582
 30
0.0
 10
14.3398
 20
10.7063
 30
0.0
 10
14.3391
 20
10.8725
 30
0.0
 10
14.3391
 20
10.8725
 30
0.0
 10
14.3398
 20
11.0368
 30
0.0
 10
14.3643
 20
11.1836
 30
0.0
 10
14.4141
 20
11.3136
 30
0.0
 10
14.4141
 20
11.3136
 30
0.0
 10
14.4633
 20
11.443
 30
0.0
 10
14.5338
 20
11.5536
 30
0.0
 10
14.6263
 20
11.6441
 30
0.0
 10
14.6263
 20
11.6441
 30
0.0
 10
14.7187
 20
11.7353
 30
0.0
 10
14.8287
 20
11.8045
 30
0.0
 10
14.958
 20
11.8524
 30
0.0
 10
14.958
 20
11.8524
 30
0.0
 10
15.0867
 20
11.8996
 30
0.0
 10
15.231
 20
11.9241
 30
0.0
 10
15.3907
 20
11.9241
 30
0.0
 10
15.3907
 20
11.9241
 30
0.0
 10
15.4787
 20
11.9241
 30
0.0
 10
15.5569
 20
11.919
 30
0.0
 10
15.6268
 20
11.9099
 30
0.0
 10
15.6268
 20
11.9099
 30
0.0
 10
15.6966
 20
11.9002
 30
0.0
 10
15.7594
 20
11.8873
 30
0.0
 10
15.8156
 20
11.8705
 30
0.0
 10
15.8156
 20
11.8705
 30
0.0
 10
15.8719
 20
11.8536
 30
0.0
 10
15.923
 20
11.8336
 30
0.0
 10
15.9689
 20
11.8116
 30
0.0
 10
15.9689
 20
11.8116
 30
0.0
 10
15.9689
 20
11.8116
 30
0.0
 10
16.0543
 20
12.0871
 30
0.0
 10
16.0543
 20
12.0871
 30
0.0
 10
16.0543
 20
12.0871
 30
0.0
 10
16.0161
 20
12.1059
 30
0.0
 10
15.9657
 20
12.124
 30
0.0
 10
15.9017
 20
12.1427
 30
0.0
 10
15.9017
 20
12.1427
 30
0.0
 10
15.8376
 20
12.1609
 30
0.0
 10
15.7632
 20
12.1764
 30
0.0
 10
15.6779
 20
12.1887
 30
0.0
 10
15.6779
 20
12.1887
 30
0.0
 10
15.5932
 20
12.2003
 30
0.0
 10
15.5
 20
12.2068
 30
0.0
 10
15.3985
 20
12.2074
 30
0.0
 10
15.3985
 20
12.2074
 30
0.0
 10
15.1786
 20
12.2068
 30
0.0
 10
14.9813
 20
12.1725
 30
0.0
 10
14.8074
 20
12.1059
 30
0.0
 10
14.8074
 20
12.1059
 30
0.0
 10
14.6327
 20
12.0393
 30
0.0
 10
14.484
 20
11.9455
 30
0.0
 10
14.3617
 20
11.8245
 30
0.0
 10
14.3617
 20
11.8245
 30
0.0
 10
14.2389
 20
11.7036
 30
0.0
 10
14.1451
 20
11.5613
 30
0.0
 10
14.0804
 20
11.397
 30
0.0
 10
14.0804
 20
11.397
 30
0.0
 10
14.0151
 20
11.2328
 30
0.0
 10
13.9827
 20
11.053
 30
0.0
 10
13.9821
 20
10.857
 30
0.0
 10
13.9821
 20
10.857
 30
0.0
 10
13.9827
 20
10.7205
 30
0.0
 10
13.9976
 20
10.5925
 30
0.0
 10
14.0267
 20
10.4715
 30
0.0
 10
14.0267
 20
10.4715
 30
0.0
 10
14.0558
 20
10.3512
 30
0.0
 10
14.0979
 20
10.2413
 30
0.0
 10
14.1522
 20
10.1417
 30
0.0
 10
14.1522
 20
10.1417
 30
0.0
 10
14.2065
 20
10.0421
 30
0.0
 10
14.2712
 20
9.9561
 30
0.0
 10
14.3469
 20
9.883
 30
0.0
 10
14.3469
 20
9.883
 30
0.0
 10
14.4749
 20
9.7614
 30
0.0
 10
14.6204
 20
9.6735
 30
0.0
 10
14.7834
 20
9.6185
 30
0.0
 10
14.7834
 20
9.6185
 30
0.0
 10
14.9464
 20
9.5635
 30
0.0
 10
15.1268
 20
9.537
 30
0.0
 10
15.3248
 20
9.5376
 30
0.0
 10
15.3248
 20
9.5376
 30
0.0
 10
15.4431
 20
9.5383
 30
0.0
 10
15.5537
 20
9.5467
 30
0.0
 10
15.6572
 20
9.5622
 30
0.0
 10
15.6572
 20
9.5622
 30
0.0
 10
15.7607
 20
9.5777
 30
0.0
 10
15.8531
 20
9.5965
 30
0.0
 10
15.934
 20
9.6178
 30
0.0
 10
15.934
 20
9.6178
 30
0.0
 10
16.0148
 20
9.6398
 30
0.0
 10
16.0808
 20
9.6612
 30
0.0
 10
16.1319
 20
9.6812
 30
0.0
 10
16.1319
 20
9.6812
 30
0.0
 10
16.1319
 20
9.6812
 30
0.0
 10
16.1319
 20
10.9385
 30
0.0
 10
16.1319
 20
10.9385
 30
0.0
  0
SPLINE
  5
A4
330
1F
100
AcDbEntity
  8
Ilustrace
 62
   250
100
AcDbSpline
210
0.0
220
0.0
230
1.0
 70
    11
 71
     3
 72
   124
 73
   120
 74
     0
 42
0.0000000001
 43
0.0000000001
 40
0.0
 40
0.0
 40
0.0
 40
0.0
 40
0.032258064516129
 40
0.032258064516129
 40
0.032258064516129
 40
0.032258064516129
 40
0.0645161290322581
 40
0.0645161290322581
 40
0.0645161290322581
 40
0.0645161290322581
 40
0.0967741935483871
 40
0.0967741935483871
 40
0.0967741935483871
 40
0.0967741935483871
 40
0.1290322580645161
 40
0.1290322580645161
 40
0.1290322580645161
 40
0.1290322580645161
 40
0.1612903225806452
 40
0.1612903225806452
 40
0.1612903225806452
 40
0.1612903225806452
 40
0.1935483870967742
 40
0.1935483870967742
 40
0.1935483870967742
 40
0.1935483870967742
 40
0.2258064516129032
 40
0.2258064516129032
 40
0.2258064516129032
 40
0.2258064516129032
 40
0.2580645161290323
 40
0.2580645161290323
 40
0.2580645161290323
 40
0.2580645161290323
 40
0.2903225806451613
 40
0.2903225806451613
 40
0.2903225806451613
 40
0.2903225806451613
 40
0.3225806451612903
 40
0.3225806451612903
 40
0.3225806451612903
 40
0.3225806451612903
 40
0.3548387096774194
 40
0.3548387096774194
 40
0.3548387096774194
 40
0.3548387096774194
 40
0.3870967741935484
 40
0.3870967741935484
 40
0.3870967741935484
 40
0.3870967741935484
 40
0.4193548387096774
 40
0.4193548387096774
 40
0.4193548387096774
 40
0.4193548387096774
 40
0.4516129032258064
 40
0.4516129032258064
 40
0.4516129032258064
 40
0.4516129032258064
 40
0.4838709677419355
 40
0.4838709677419355
 40
0.4838709677419355
 40
0.4838709677419355
 40
0.5161290322580645
 40
0.5161290322580645
 40
0.5161290322580645
 40
0.5161290322580645
 40
0.5483870967741935
 40
0.5483870967741935
 40
0.5483870967741935
 40
0.5483870967741935
 40
0.5806451612903226
 40
0.5806451612903226
 40
0.5806451612903226
 40
0.5806451612903226
 40
0.6129032258064516
 40
0.6129032258064516
 40
0.6129032258064516
 40
0.6129032258064516
 40
0.6451612903225806
 40
0.6451612903225806
 40
0.6451612903225806
 40
0.6451612903225806
 40
0.6774193548387096
 40
0.6774193548387096
 40
0.6774193548387096
 40
0.6774193548387096
 40
0.7096774193548387
 40
0.7096774193548387
 40
0.7096774193548387
 40
0.7096774193548387
 40
0.7419354838709677
 40
0.7419354838709677
 40
0.7419354838709677
 40
0.7419354838709677
 40
0.7741935483870968
 40
0.7741935483870968
 40
0.7741935483870968
 40
0.7741935483870968
 40
0.8064516129032258
 40
0.8064516129032258
 40
0.8064516129032258
 40
0.8064516129032258
 40
0.8387096774193549
 40
0.8387096774193549
 40
0.8387096774193549
 40
0.8387096774193549
 40
0.8709677419354839
 40
0.8709677419354839
 40
0.8709677419354839
 40
0.8709677419354839
 40
0.9032258064516129
 40
0.9032258064516129
 40
0.9032258064516129
 40
0.9032258064516129
 40
0.9354838709677419
 40
0.9354838709677419
 40
0.9354838709677419
 40
0.9354838709677419
 40
1.0
 40
1.0
 40
1.0
 40
1.0
 10
17.9635
 20
12.1259
 30
0.0
 10
17.9324
 20
12.1259
 30
0.0
 10
17.8956
 20
12.1246
 30
0.0
 10
17.8542
 20
12.122
 30
0.0
 10
17.8542
 20
12.122
 30
0.0
 10
17.8121
 20
12.1195
 30
0.0
 10
17.7656
 20
12.1143
 30
0.0
 10
17.7151
 20
12.1065
 30
0.0
 10
17.7151
 20
12.1065
 30
0.0
 10
17.5554
 20
12.0871
 30
0.0
 10
17.4073
 20
12.0457
 30
0.0
 10
17.2708
 20
11.983
 30
0.0
 10
17.2708
 20
11.983
 30
0.0
 10
17.1344
 20
11.9203
 30
0.0
 10
17.0134
 20
11.8375
 30
0.0
 10
16.908
 20
11.734
 30
0.0
 10
16.908
 20
11.734
 30
0.0
 10
16.8233
 20
11.6512
 30
0.0
 10
16.7489
 20
11.5529
 30
0.0
 10
16.6855
 20
11.4391
 30
0.0
 10
16.6855
 20
11.4391
 30
0.0
 10
16.6215
 20
11.3259
 30
0.0
 10
16.5717
 20
11.1985
 30
0.0
 10
16.5355
 20
11.0575
 30
0.0
 10
16.5355
 20
11.0575
 30
0.0
 10
16.4999
 20
10.9165
 30
0.0
 10
16.4818
 20
10.7626
 30
0.0
 10
16.4811
 20
10.597
 30
0.0
 10
16.4811
 20
10.597
 30
0.0
 10
16.4818
 20
10.4327
 30
0.0
 10
16.5031
 20
10.2846
 30
0.0
 10
16.5445
 20
10.1527
 30
0.0
 10
16.5445
 20
10.1527
 30
0.0
 10
16.5866
 20
10.0201
 30
0.0
 10
16.6467
 20
9.9076
 30
0.0
 10
16.725
 20
9.8138
 30
0.0
 10
16.725
 20
9.8138
 30
0.0
 10
16.8026
 20
9.72
 30
0.0
 10
16.8964
 20
9.6476
 30
0.0
 10
17.005
 20
9.5978
 30
0.0
 10
17.005
 20
9.5978
 30
0.0
 10
17.1137
 20
9.548
 30
0.0
 10
17.2352
 20
9.5228
 30
0.0
 10
17.3698
 20
9.5221
 30
0.0
 10
17.3698
 20
9.5221
 30
0.0
 10
17.5017
 20
9.5234
 30
0.0
 10
17.6201
 20
9.548
 30
0.0
 10
17.7242
 20
9.5958
 30
0.0
 10
17.7242
 20
9.5958
 30
0.0
 10
17.8277
 20
9.6444
 30
0.0
 10
17.9163
 20
9.7103
 30
0.0
 10
17.9887
 20
9.7937
 30
0.0
 10
17.9887
 20
9.7937
 30
0.0
 10
18.0611
 20
9.8772
 30
0.0
 10
18.1168
 20
9.9723
 30
0.0
 10
18.1543
 20
10.079
 30
0.0
 10
18.1543
 20
10.079
 30
0.0
 10
18.1924
 20
10.185
 30
0.0
 10
18.2118
 20
10.2969
 30
0.0
 10
18.2118
 20
10.4146
 30
0.0
 10
18.2118
 20
10.4146
 30
0.0
 10
18.2112
 20
10.5375
 30
0.0
 10
18.1924
 20
10.6488
 30
0.0
 10
18.1556
 20
10.7484
 30
0.0
 10
18.1556
 20
10.7484
 30
0.0
 10
18.1187
 20
10.848
 30
0.0
 10
18.0663
 20
10.934
 30
0.0
 10
17.9991
 20
11.0058
 30
0.0
 10
17.9991
 20
11.0058
 30
0.0
 10
17.9312
 20
11.0769
 30
0.0
 10
17.851
 20
11.1325
 30
0.0
 10
17.7585
 20
11.1707
 30
0.0
 10
17.7585
 20
11.1707
 30
0.0
 10
17.666
 20
11.2095
 30
0.0
 10
17.5631
 20
11.2289
 30
0.0
 10
17.4513
 20
11.2295
 30
0.0
 10
17.4513
 20
11.2295
 30
0.0
 10
17.3581
 20
11.2289
 30
0.0
 10
17.2728
 20
11.2153
 30
0.0
 10
17.1951
 20
11.1894
 30
0.0
 10
17.1951
 20
11.1894
 30
0.0
 10
17.1175
 20
11.1629
 30
0.0
 10
17.0483
 20
11.128
 30
0.0
 10
16.9882
 20
11.0834
 30
0.0
 10
16.9882
 20
11.0834
 30
0.0
 10
16.9287
 20
11.0394
 30
0.0
 10
16.8782
 20
10.9896
 30
0.0
 10
16.8381
 20
10.9346
 30
0.0
 10
16.8381
 20
10.9346
 30
0.0
 10
16.8381
 20
10.9346
 30
0.0
 10
16.8304
 20
10.9346
 30
0.0
 10
16.8304
 20
10.9346
 30
0.0
 10
16.8304
 20
10.9346
 30
0.0
 10
16.8446
 20
11.04
 30
0.0
 10
16.8731
 20
11.1416
 30
0.0
 10
16.9164
 20
11.2392
 30
0.0
 10
16.9164
 20
11.2392
 30
0.0
 10
16.9591
 20
11.3362
 30
0.0
 10
17.016
 20
11.4255
 30
0.0
 10
17.0884
 20
11.5063
 30
0.0
 10
17.0884
 20
11.5063
 30
0.0
 10
17.1609
 20
11.5865
 30
0.0
 10
17.2482
 20
11.6551
 30
0.0
 10
17.351
 20
11.7107
 30
0.0
 10
17.351
 20
11.7107
 30
0.0
 10
17.4538
 20
11.7663
 30
0.0
 10
17.5729
 20
11.8051
 30
0.0
 10
17.7074
 20
11.8271
 30
0.0
 10
17.7074
 20
11.8271
 30
0.0
 10
17.7559
 20
11.8349
 30
0.0
 10
17.8024
 20
11.8407
 30
0.0
 10
17.8458
 20
11.8439
 30
0.0
 10
17.8458
 20
11.8439
 30
0.0
 10
17.8891
 20
11.8478
 30
0.0
 10
17.9286
 20
11.8485
 30
0.0
 10
17.9635
 20
11.8465
 30
0.0
 10
17.9635
 20
11.8465
 30
0.0
 10
17.9635
 20
11.8465
 30
0.0
 10
17.9635
 20
12.1259
 30
0.0
 10
17.9635
 20
12.1259
 30
0.0
  0
SPLINE
  5
A5
330
1F
100
AcDbEntity
  8
Ilustrace
 62
   250
100
AcDbSpline
210
0.0
220
0.0
230
1.0
 70
    11
 71
     3
 72
    64
 73
    60
 74
     0
 42
0.0000000001
 43
0.0000000001
 40
0.0
 40
0.0
 40
0.0
 40
0.0
 40
0.0625
 40
0.0625
 40
0.0625
 40
0.0625
 40
0.125
 40
0.125
 40
0.125
 40
0.125
 40
0.1875
 40
0.1875
 40
0.1875
 40
0.1875
 40
0.25
 40
0.25
 40
0.25
 40
0.25
 40
0.3125
 40
0.3125
 40
0.3125
 40
0.3125
 40
0.375
 40
0.375
 40
0.375
 40
0.375
 40
0.4375
 40
0.4375
 40
0.4375
 40
0.4375
 40
0.5
 40
0.5
 40
0.5
 40
0.5
 40
0.5625
 40
0.5625
 40
0.5625
 40
0.5625
 40
0.625
 40
0.625
 40
0.625
 40
0.625
 40
0.6875
 40
0.6875
 40
0.6875
 40
0.6875
 40
0.75
 40
0.75
 40
0.75
 40
0.75
 40
0.8125
 40
0.8125
 40
0.8125
 40
0.8125
 40
0.875
 40
0.875
 40
0.875
 40
0.875
 40
1.0
 40
1.0
 40
1.0
 40
1.0
 10
17.3775
 20
9.786
 30
0.0
 10
17.287
 20
9.7866
 30
0.0
 10
17.2074
 20
9.8047
 30
0.0
 10
17.1382
 20
9.841
 30
0.0
 10
17.1382
 20
9.841
 30
0.0
 10
17.0697
 20
9.8772
 30
0.0
 10
17.0115
 20
9.9276
 30
0.0
 10
16.9643
 20
9.9929
 30
0.0
 10
16.9643
 20
9.9929
 30
0.0
 10
16.917
 20
10.0583
 30
0.0
 10
16.8815
 20
10.1352
 30
0.0
 10
16.8569
 20
10.2232
 30
0.0
 10
16.8569
 20
10.2232
 30
0.0
 10
16.8323
 20
10.3111
 30
0.0
 10
16.82
 20
10.4075
 30
0.0
 10
16.8187
 20
10.5116
 30
0.0
 10
16.8187
 20
10.5116
 30
0.0
 10
16.8187
 20
10.5427
 30
0.0
 10
16.8226
 20
10.5698
 30
0.0
 10
16.8291
 20
10.5944
 30
0.0
 10
16.8291
 20
10.5944
 30
0.0
 10
16.8356
 20
10.6184
 30
0.0
 10
16.844
 20
10.6397
 30
0.0
 10
16.8537
 20
10.6591
 30
0.0
 10
16.8537
 20
10.6591
 30
0.0
 10
16.8854
 20
10.7218
 30
0.0
 10
16.9261
 20
10.7762
 30
0.0
 10
16.9772
 20
10.8227
 30
0.0
 10
16.9772
 20
10.8227
 30
0.0
 10
17.0276
 20
10.8686
 30
0.0
 10
17.0846
 20
10.9049
 30
0.0
 10
17.1479
 20
10.9307
 30
0.0
 10
17.1479
 20
10.9307
 30
0.0
 10
17.2113
 20
10.956
 30
0.0
 10
17.2773
 20
10.9695
 30
0.0
 10
17.3465
 20
10.9695
 30
0.0
 10
17.3465
 20
10.9695
 30
0.0
 10
17.4519
 20
10.9689
 30
0.0
 10
17.5431
 20
10.9456
 30
0.0
 10
17.6214
 20
10.8997
 30
0.0
 10
17.6214
 20
10.8997
 30
0.0
 10
17.699
 20
10.8538
 30
0.0
 10
17.7591
 20
10.7878
 30
0.0
 10
17.8018
 20
10.7018
 30
0.0
 10
17.8018
 20
10.7018
 30
0.0
 10
17.8445
 20
10.6158
 30
0.0
 10
17.8658
 20
10.5123
 30
0.0
 10
17.8665
 20
10.3913
 30
0.0
 10
17.8665
 20
10.3913
 30
0.0
 10
17.8658
 20
10.2704
 30
0.0
 10
17.8451
 20
10.1643
 30
0.0
 10
17.8044
 20
10.0738
 30
0.0
 10
17.8044
 20
10.0738
 30
0.0
 10
17.7636
 20
9.9832
 30
0.0
 10
17.7067
 20
9.9134
 30
0.0
 10
17.6336
 20
9.863
 30
0.0
 10
17.6336
 20
9.863
 30
0.0
 10
17.5606
 20
9.8125
 30
0.0
 10
17.4752
 20
9.7866
 30
0.0
 10
17.3775
 20
9.786
 30
0.0
  0
SPLINE
  5
A6
330
1F
100
AcDbEntity
  8
Ilustrace
 62
   250
100
AcDbSpline
210
0.0
220
0.0
230
1.0
 70
    11
 71
     3
 72
    20
 73
    16
 74
     0
 42
0.0000000001
 43
0.0000000001
 40
0.0
 40
0.0
 40
0.0
 40
0.0
 40
0.2
 40
0.2
 40
0.2
 40
0.2
 40
0.4
 40
0.4
 40
0.4
 40
0.4
 40
0.6
 40
0.6
 40
0.6
 40
0.6
 40
1.0
 40
1.0
 40
1.0
 40
1.0
 10
18.596
 20
9.4135
 30
0.0
 10
18.596
 20
9.4135
 30
0.0
 10
19.6826
 20
12.2268
 30
0.0
 10
19.6826
 20
12.2268
 30
0.0
 10
19.6826
 20
12.2268
 30
0.0
 10
19.6826
 20
12.2268
 30
0.0
 10
19.4148
 20
12.2268
 30
0.0
 10
19.4148
 20
12.2268
 30
0.0
 10
19.4148
 20
12.2268
 30
0.0
 10
19.4148
 20
12.2268
 30
0.0
 10
18.336
 20
9.4135
 30
0.0
 10
18.336
 20
9.4135
 30
0.0
 10
18.336
 20
9.4135
 30
0.0
 10
18.336
 20
9.4135
 30
0.0
 10
18.596
 20
9.4135
 30
0.0
 10
18.596
 20
9.4135
 30
0.0
  0
SPLINE
  5
A7
330
1F
100
AcDbEntity
  8
Ilustrace
 62
   250
100
AcDbSpline
210
0.0
220
0.0
230
1.0
 70
    11
 71
     3
 72
    48
 73
    44
 74
     0
 42
0.0000000001
 43
0.0000000001
 40
0.0
 40
0.0
 40
0.0
 40
0.0
 40
0.0833333333333333
 40
0.0833333333333333
 40
0.0833333333333333
 40
0.0833333333333333
 40
0.1666666666666667
 40
0.1666666666666667
 40
0.1666666666666667
 40
0.1666666666666667
 40
0.25
 40
0.25
 40
0.25
 40
0.25
 40
0.3333333333333333
 40
0.3333333333333333
 40
0.3333333333333333
 40
0.3333333333333333
 40
0.4166666666666667
 40
0.4166666666666667
 40
0.4166666666666667
 40
0.4166666666666667
 40
0.5
 40
0.5
 40
0.5
 40
0.5
 40
0.5833333333333334
 40
0.5833333333333334
 40
0.5833333333333334
 40
0.5833333333333334
 40
0.6666666666666666
 40
0.6666666666666666
 40
0.6666666666666666
 40
0.6666666666666666
 40
0.75
 40
0.75
 40
0.75
 40
0.75
 40
0.8333333333333334
 40
0.8333333333333334
 40
0.8333333333333334
 40
0.8333333333333334
 40
1.0
 40
1.0
 40
1.0
 40
1.0
 10
21.2231
 20
9.5648
 30
0.0
 10
21.2231
 20
9.5648
 30
0.0
 10
21.2231
 20
10.2555
 30
0.0
 10
21.2231
 20
10.2555
 30
0.0
 10
21.2231
 20
10.2555
 30
0.0
 10
21.2231
 20
10.2555
 30
0.0
 10
21.5762
 20
10.2555
 30
0.0
 10
21.5762
 20
10.2555
 30
0.0
 10
21.5762
 20
10.2555
 30
0.0
 10
21.5762
 20
10.2555
 30
0.0
 10
21.5762
 20
10.5194
 30
0.0
 10
21.5762
 20
10.5194
 30
0.0
 10
21.5762
 20
10.5194
 30
0.0
 10
21.5762
 20
10.5194
 30
0.0
 10
21.2231
 20
10.5194
 30
0.0
 10
21.2231
 20
10.5194
 30
0.0
 10
21.2231
 20
10.5194
 30
0.0
 10
21.2231
 20
10.5194
 30
0.0
 10
21.2231
 20
12.0871
 30
0.0
 10
21.2231
 20
12.0871
 30
0.0
 10
21.2231
 20
12.0871
 30
0.0
 10
21.2231
 20
12.0871
 30
0.0
 10
20.8545
 20
12.0871
 30
0.0
 10
20.8545
 20
12.0871
 30
0.0
 10
20.8545
 20
12.0871
 30
0.0
 10
20.8545
 20
12.0871
 30
0.0
 10
19.7291
 20
10.4767
 30
0.0
 10
19.7291
 20
10.4767
 30
0.0
 10
19.7291
 20
10.4767
 30
0.0
 10
19.7291
 20
10.4767
 30
0.0
 10
19.7291
 20
10.2555
 30
0.0
 10
19.7291
 20
10.2555
 30
0.0
 10
19.7291
 20
10.2555
 30
0.0
 10
19.7291
 20
10.2555
 30
0.0
 10
20.901
 20
10.2555
 30
0.0
 10
20.901
 20
10.2555
 30
0.0
 10
20.901
 20
10.2555
 30
0.0
 10
20.901
 20
10.2555
 30
0.0
 10
20.901
 20
9.5648
 30
0.0
 10
20.901
 20
9.5648
 30
0.0
 10
20.901
 20
9.5648
 30
0.0
 10
20.901
 20
9.5648
 30
0.0
 10
21.2231
 20
9.5648
 30
0.0
 10
21.2231
 20
9.5648
 30
0.0
  0
SPLINE
  5
A8
330
1F
100
AcDbEntity
  8
Ilustrace
 62
   250
100
AcDbSpline
210
0.0
220
0.0
230
1.0
 70
    11
 71
     3
 72
    36
 73
    32
 74
     0
 42
0.0000000001
 43
0.0000000001
 40
0.0
 40
0.0
 40
0.0
 40
0.0
 40
0.1111111111111111
 40
0.1111111111111111
 40
0.1111111111111111
 40
0.1111111111111111
 40
0.2222222222222222
 40
0.2222222222222222
 40
0.2222222222222222
 40
0.2222222222222222
 40
0.3333333333333333
 40
0.3333333333333333
 40
0.3333333333333333
 40
0.3333333333333333
 40
0.4444444444444444
 40
0.4444444444444444
 40
0.4444444444444444
 40
0.4444444444444444
 40
0.5555555555555556
 40
0.5555555555555556
 40
0.5555555555555556
 40
0.5555555555555556
 40
0.6666666666666666
 40
0.6666666666666666
 40
0.6666666666666666
 40
0.6666666666666666
 40
0.7777777777777778
 40
0.7777777777777778
 40
0.7777777777777778
 40
0.7777777777777778
 40
1.0
 40
1.0
 40
1.0
 40
1.0
 10
20.0745
 20
10.5194
 30
0.0
 10
20.0745
 20
10.5194
 30
0.0
 10
20.0745
 20
10.5272
 30
0.0
 10
20.0745
 20
10.5272
 30
0.0
 10
20.0745
 20
10.5272
 30
0.0
 10
20.0745
 20
10.5272
 30
0.0
 10
20.6915
 20
11.3848
 30
0.0
 10
20.6915
 20
11.3848
 30
0.0
 10
20.6915
 20
11.3848
 30
0.0
 10
20.7257
 20
11.4423
 30
0.0
 10
20.76
 20
11.5005
 30
0.0
 10
20.7937
 20
11.5594
 30
0.0
 10
20.7937
 20
11.5594
 30
0.0
 10
20.8266
 20
11.6189
 30
0.0
 10
20.8629
 20
11.6848
 30
0.0
 10
20.901
 20
11.7573
 30
0.0
 10
20.901
 20
11.7573
 30
0.0
 10
20.901
 20
11.7573
 30
0.0
 10
20.9127
 20
11.7573
 30
0.0
 10
20.9127
 20
11.7573
 30
0.0
 10
20.9127
 20
11.7573
 30
0.0
 10
20.9049
 20
11.6253
 30
0.0
 10
20.901
 20
11.4934
 30
0.0
 10
20.901
 20
11.3615
 30
0.0
 10
20.901
 20
11.3615
 30
0.0
 10
20.901
 20
11.3615
 30
0.0
 10
20.901
 20
10.5194
 30
0.0
 10
20.901
 20
10.5194
 30
0.0
 10
20.901
 20
10.5194
 30
0.0
 10
20.901
 20
10.5194
 30
0.0
 10
20.0745
 20
10.5194
 30
0.0
 10
20.0745
 20
10.5194
 30
0.0
  0
SPLINE
  5
A9
330
1F
100
AcDbEntity
  8
Ilustrace
 62
   250
100
AcDbSpline
210
0.0
220
0.0
230
1.0
 70
    11
 71
     3
 72
    20
 73
    16
 74
     0
 42
0.0000000001
 43
0.0000000001
 40
0.0
 40
0.0
 40
0.0
 40
0.0
 40
0.2
 40
0.2
 40
0.2
 40
0.2
 40
0.4
 40
0.4
 40
0.4
 40
0.4
 40
0.6
 40
0.6
 40
0.6
 40
0.6
 40
1.0
 40
1.0
 40
1.0
 40
1.0
 10
21.8595
 20
12.2501
 30
0.0
 10
21.8595
 20
12.2501
 30
0.0
 10
21.9216
 20
11.3188
 30
0.0
 10
21.9216
 20
11.3188
 30
0.0
 10
21.9216
 20
11.3188
 30
0.0
 10
21.9216
 20
11.3188
 30
0.0
 10
22.1311
 20
11.3188
 30
0.0
 10
22.1311
 20
11.3188
 30
0.0
 10
22.1311
 20
11.3188
 30
0.0
 10
22.1311
 20
11.3188
 30
0.0
 10
22.1971
 20
12.2501
 30
0.0
 10
22.1971
 20
12.2501
 30
0.0
 10
22.1971
 20
12.2501
 30
0.0
 10
22.1971
 20
12.2501
 30
0.0
 10
21.8595
 20
12.2501
 30
0.0
 10
21.8595
 20
12.2501
 30
0.0
  0
SPLINE
  5
AA
330
1F
100
AcDbEntity
  8
Ilustrace
 62
   250
100
AcDbSpline
210
0.0
220
0.0
230
1.0
 70
    11
 71
     3
 72
    20
 73
    16
 74
     0
 42
0.0000000001
 43
0.0000000001
 40
0.0
 40
0.0
 40
0.0
 40
0.0
 40
0.2
 40
0.2
 40
0.2
 40
0.2
 40
0.4
 40
0.4
 40
0.4
 40
0.4
 40
0.6
 40
0.6
 40
0.6
 40
0.6
 40
1.0
 40
1.0
 40
1.0
 40
1.0
 10
22.4377
 20
12.2501
 30
0.0
 10
22.4377
 20
12.2501
 30
0.0
 10
22.5037
 20
11.3188
 30
0.0
 10
22.5037
 20
11.3188
 30
0.0
 10
22.5037
 20
11.3188
 30
0.0
 10
22.5037
 20
11.3188
 30
0.0
 10
22.7093
 20
11.3188
 30
0.0
 10
22.7093
 20
11.3188
 30
0.0
 10
22.7093
 20
11.3188
 30
0.0
 10
22.7093
 20
11.3188
 30
0.0
 10
22.7753
 20
12.2501
 30
0.0
 10
22.7753
 20
12.2501
 30
0.0
 10
22.7753
 20
12.2501
 30
0.0
 10
22.7753
 20
12.2501
 30
0.0
 10
22.4377
 20
12.2501
 30
0.0
 10
22.4377
 20
12.2501
 30
0.0
  0
SPLINE
  5
AB
330
1F
100
AcDbEntity
  8
Ilustrace
 62
   250
100
AcDbSpline
210
0.0
220
0.0
230
1.0
 70
    11
 71
     3
 72
    68
 73
    64
 74
     0
 42
0.0000000001
 43
0.0000000001
 40
0.0
 40
0.0
 40
0.0
 40
0.0
 40
0.0588235294117647
 40
0.0588235294117647
 40
0.0588235294117647
 40
0.0588235294117647
 40
0.1176470588235294
 40
0.1176470588235294
 40
0.1176470588235294
 40
0.1176470588235294
 40
0.1764705882352941
 40
0.1764705882352941
 40
0.1764705882352941
 40
0.1764705882352941
 40
0.2352941176470588
 40
0.2352941176470588
 40
0.2352941176470588
 40
0.2352941176470588
 40
0.2941176470588235
 40
0.2941176470588235
 40
0.2941176470588235
 40
0.2941176470588235
 40
0.3529411764705883
 40
0.3529411764705883
 40
0.3529411764705883
 40
0.3529411764705883
 40
0.4117647058823529
 40
0.4117647058823529
 40
0.4117647058823529
 40
0.4117647058823529
 40
0.4705882352941176
 40
0.4705882352941176
 40
0.4705882352941176
 40
0.4705882352941176
 40
0.5294117647058824
 40
0.5294117647058824
 40
0.5294117647058824
 40
0.5294117647058824
 40
0.5882352941176471
 40
0.5882352941176471
 40
0.5882352941176471
 40
0.5882352941176471
 40
0.6470588235294118
 40
0.6470588235294118
 40
0.6470588235294118
 40
0.6470588235294118
 40
0.7058823529411765
 40
0.7058823529411765
 40
0.7058823529411765
 40
0.7058823529411765
 40
0.7647058823529411
 40
0.7647058823529411
 40
0.7647058823529411
 40
0.7647058823529411
 40
0.8235294117647058
 40
0.8235294117647058
 40
0.8235294117647058
 40
0.8235294117647058
 40
0.8823529411764706
 40
0.8823529411764706
 40
0.8823529411764706
 40
0.8823529411764706
 40
1.0
 40
1.0
 40
1.0
 40
1.0
 10
24.5487
 20
12.2579
 30
0.0
 10
24.4866
 20
12.1764
 30
0.0
 10
24.4265
 20
12.0839
 30
0.0
 10
24.367
 20
11.9791
 30
0.0
 10
24.367
 20
11.9791
 30
0.0
 10
24.3075
 20
11.875
 30
0.0
 10
24.2531
 20
11.7573
 30
0.0
 10
24.2046
 20
11.6273
 30
0.0
 10
24.2046
 20
11.6273
 30
0.0
 10
24.1555
 20
11.4973
 30
0.0
 10
24.1167
 20
11.3524
 30
0.0
 10
24.0869
 20
11.194
 30
0.0
 10
24.0869
 20
11.194
 30
0.0
 10
24.0578
 20
11.0349
 30
0.0
 10
24.0423
 20
10.8609
 30
0.0
 10
24.0404
 20
10.6707
 30
0.0
 10
24.0404
 20
10.6707
 30
0.0
 10
24.041
 20
10.4819
 30
0.0
 10
24.0559
 20
10.3086
 30
0.0
 10
24.0856
 20
10.1508
 30
0.0
 10
24.0856
 20
10.1508
 30
0.0
 10
24.1147
 20
9.9929
 30
0.0
 10
24.1542
 20
9.8494
 30
0.0
 10
24.2027
 20
9.72
 30
0.0
 10
24.2027
 20
9.72
 30
0.0
 10
24.2518
 20
9.5907
 30
0.0
 10
24.3062
 20
9.4743
 30
0.0
 10
24.3663
 20
9.3708
 30
0.0
 10
24.3663
 20
9.3708
 30
0.0
 10
24.4258
 20
9.2673
 30
0.0
 10
24.4866
 20
9.1755
 30
0.0
 10
24.5487
 20
9.0953
 30
0.0
 10
24.5487
 20
9.0953
 30
0.0
 10
24.5487
 20
9.0953
 30
0.0
 10
24.8126
 20
9.0953
 30
0.0
 10
24.8126
 20
9.0953
 30
0.0
 10
24.8126
 20
9.0953
 30
0.0
 10
24.7207
 20
9.224
 30
0.0
 10
24.6386
 20
9.3662
 30
0.0
 10
24.5662
 20
9.5215
 30
0.0
 10
24.5662
 20
9.5215
 30
0.0
 10
24.4931
 20
9.6773
 30
0.0
 10
24.4355
 20
9.8494
 30
0.0
 10
24.3928
 20
10.0389
 30
0.0
 10
24.3928
 20
10.0389
 30
0.0
 10
24.3501
 20
10.2277
 30
0.0
 10
24.3282
 20
10.4373
 30
0.0
 10
24.3275
 20
10.6669
 30
0.0
 10
24.3275
 20
10.6669
 30
0.0
 10
24.3282
 20
10.9016
 30
0.0
 10
24.3489
 20
11.1157
 30
0.0
 10
24.3902
 20
11.3078
 30
0.0
 10
24.3902
 20
11.3078
 30
0.0
 10
24.4316
 20
11.5005
 30
0.0
 10
24.4885
 20
11.6751
 30
0.0
 10
24.561
 20
11.8317
 30
0.0
 10
24.561
 20
11.8317
 30
0.0
 10
24.6334
 20
11.9882
 30
0.0
 10
24.7175
 20
12.1305
 30
0.0
 10
24.8126
 20
12.2579
 30
0.0
 10
24.8126
 20
12.2579
 30
0.0
 10
24.8126
 20
12.2579
 30
0.0
 10
24.5487
 20
12.2579
 30
0.0
 10
24.5487
 20
12.2579
 30
0.0
  0
SPLINE
  5
AC
330
1F
100
AcDbEntity
  8
Ilustrace
 62
   250
100
AcDbSpline
210
0.0
220
0.0
230
1.0
 70
    11
 71
     3
 72
   104
 73
   100
 74
     0
 42
0.0000000001
 43
0.0000000001
 40
0.0
 40
0.0
 40
0.0
 40
0.0
 40
0.0384615384615385
 40
0.0384615384615385
 40
0.0384615384615385
 40
0.0384615384615385
 40
0.0769230769230769
 40
0.0769230769230769
 40
0.0769230769230769
 40
0.0769230769230769
 40
0.1153846153846154
 40
0.1153846153846154
 40
0.1153846153846154
 40
0.1153846153846154
 40
0.1538461538461539
 40
0.1538461538461539
 40
0.1538461538461539
 40
0.1538461538461539
 40
0.1923076923076923
 40
0.1923076923076923
 40
0.1923076923076923
 40
0.1923076923076923
 40
0.2307692307692308
 40
0.2307692307692308
 40
0.2307692307692308
 40
0.2307692307692308
 40
0.2692307692307692
 40
0.2692307692307692
 40
0.2692307692307692
 40
0.2692307692307692
 40
0.3076923076923077
 40
0.3076923076923077
 40
0.3076923076923077
 40
0.3076923076923077
 40
0.3461538461538461
 40
0.3461538461538461
 40
0.3461538461538461
 40
0.3461538461538461
 40
0.3846153846153846
 40
0.3846153846153846
 40
0.3846153846153846
 40
0.3846153846153846
 40
0.4230769230769231
 40
0.4230769230769231
 40
0.4230769230769231
 40
0.4230769230769231
 40
0.4615384615384616
 40
0.4615384615384616
 40
0.4615384615384616
 40
0.4615384615384616
 40
0.5
 40
0.5
 40
0.5
 40
0.5
 40
0.5384615384615384
 40
0.5384615384615384
 40
0.5384615384615384
 40
0.5384615384615384
 40
0.5769230769230769
 40
0.5769230769230769
 40
0.5769230769230769
 40
0.5769230769230769
 40
0.6153846153846154
 40
0.6153846153846154
 40
0.6153846153846154
 40
0.6153846153846154
 40
0.6538461538461539
 40
0.6538461538461539
 40
0.6538461538461539
 40
0.6538461538461539
 40
0.6923076923076923
 40
0.6923076923076923
 40
0.6923076923076923
 40
0.6923076923076923
 40
0.7307692307692307
 40
0.7307692307692307
 40
0.7307692307692307
 40
0.7307692307692307
 40
0.7692307692307693
 40
0.7692307692307693
 40
0.7692307692307693
 40
0.7692307692307693
 40
0.8076923076923077
 40
0.8076923076923077
 40
0.8076923076923077
 40
0.8076923076923077
 40
0.8461538461538461
 40
0.8461538461538461
 40
0.8461538461538461
 40
0.8461538461538461
 40
0.8846153846153846
 40
0.8846153846153846
 40
0.8846153846153846
 40
0.8846153846153846
 40
0.9230769230769231
 40
0.9230769230769231
 40
0.9230769230769231
 40
0.9230769230769231
 40
1.0
 40
1.0
 40
1.0
 40
1.0
 10
25.2821
 20
9.3979
 30
0.0
 10
25.2821
 20
9.3979
 30
0.0
 10
25.5266
 20
9.7317
 30
0.0
 10
25.5266
 20
9.7317
 30
0.0
 10
25.5266
 20
9.7317
 30
0.0
 10
25.6204
 20
9.6638
 30
0.0
 10
25.7232
 20
9.6114
 30
0.0
 10
25.8344
 20
9.5758
 30
0.0
 10
25.8344
 20
9.5758
 30
0.0
 10
25.9463
 20
9.5402
 30
0.0
 10
26.0634
 20
9.5221
 30
0.0
 10
26.1863
 20
9.5221
 30
0.0
 10
26.1863
 20
9.5221
 30
0.0
 10
26.3124
 20
9.5221
 30
0.0
 10
26.4346
 20
9.5409
 30
0.0
 10
26.5517
 20
9.5777
 30
0.0
 10
26.5517
 20
9.5777
 30
0.0
 10
26.6687
 20
9.6146
 30
0.0
 10
26.7774
 20
9.6696
 30
0.0
 10
26.877
 20
9.7433
 30
0.0
 10
26.877
 20
9.7433
 30
0.0
 10
26.9772
 20
9.8164
 30
0.0
 10
27.0646
 20
9.9082
 30
0.0
 10
27.1396
 20
10.0182
 30
0.0
 10
27.1396
 20
10.0182
 30
0.0
 10
27.214
 20
10.1281
 30
0.0
 10
27.2722
 20
10.2562
 30
0.0
 10
27.3142
 20
10.403
 30
0.0
 10
27.3142
 20
10.403
 30
0.0
 10
27.3556
 20
10.5492
 30
0.0
 10
27.3769
 20
10.7134
 30
0.0
 10
27.3776
 20
10.8958
 30
0.0
 10
27.3776
 20
10.8958
 30
0.0
 10
27.3776
 20
11.0245
 30
0.0
 10
27.3647
 20
11.1468
 30
0.0
 10
27.3381
 20
11.2632
 30
0.0
 10
27.3381
 20
11.2632
 30
0.0
 10
27.3123
 20
11.3802
 30
0.0
 10
27.2741
 20
11.4889
 30
0.0
 10
27.2243
 20
11.5891
 30
0.0
 10
27.2243
 20
11.5891
 30
0.0
 10
27.1739
 20
11.6894
 30
0.0
 10
27.1124
 20
11.7786
 30
0.0
 10
27.04
 20
11.8582
 30
0.0
 10
27.04
 20
11.8582
 30
0.0
 10
27.04
 20
11.8582
 30
0.0
 10
27.2806
 20
12.1919
 30
0.0
 10
27.2806
 20
12.1919
 30
0.0
 10
27.2806
 20
12.1919
 30
0.0
 10
27.2806
 20
12.1919
 30
0.0
 10
27.0749
 20
12.3316
 30
0.0
 10
27.0749
 20
12.3316
 30
0.0
 10
27.0749
 20
12.3316
 30
0.0
 10
27.0749
 20
12.3316
 30
0.0
 10
26.846
 20
12.0173
 30
0.0
 10
26.846
 20
12.0173
 30
0.0
 10
26.846
 20
12.0173
 30
0.0
 10
26.7522
 20
12.0871
 30
0.0
 10
26.6506
 20
12.1395
 30
0.0
 10
26.5407
 20
12.1744
 30
0.0
 10
26.5407
 20
12.1744
 30
0.0
 10
26.4301
 20
12.2094
 30
0.0
 10
26.315
 20
12.2268
 30
0.0
 10
26.194
 20
12.2268
 30
0.0
 10
26.194
 20
12.2268
 30
0.0
 10
26.0214
 20
12.2262
 30
0.0
 10
25.8623
 20
12.1938
 30
0.0
 10
25.7154
 20
12.1298
 30
0.0
 10
25.7154
 20
12.1298
 30
0.0
 10
25.5693
 20
12.0658
 30
0.0
 10
25.4419
 20
11.9733
 30
0.0
 10
25.3332
 20
11.8536
 30
0.0
 10
25.3332
 20
11.8536
 30
0.0
 10
25.2239
 20
11.734
 30
0.0
 10
25.1398
 20
11.5904
 30
0.0
 10
25.079
 20
11.4229
 30
0.0
 10
25.079
 20
11.4229
 30
0.0
 10
25.0189
 20
11.2554
 30
0.0
 10
24.9878
 20
11.0685
 30
0.0
 10
24.9872
 20
10.8609
 30
0.0
 10
24.9872
 20
10.8609
 30
0.0
 10
24.9872
 20
10.7302
 30
0.0
 10
25.0014
 20
10.6054
 30
0.0
 10
25.0286
 20
10.4877
 30
0.0
 10
25.0286
 20
10.4877
 30
0.0
 10
25.0558
 20
10.37
 30
0.0
 10
25.0952
 20
10.2607
 30
0.0
 10
25.1463
 20
10.1605
 30
0.0
 10
25.1463
 20
10.1605
 30
0.0
 10
25.198
 20
10.0602
 30
0.0
 10
25.2601
 20
9.9703
 30
0.0
 10
25.3326
 20
9.8908
 30
0.0
 10
25.3326
 20
9.8908
 30
0.0
 10
25.3326
 20
9.8908
 30
0.0
 10
25.092
 20
9.5532
 30
0.0
 10
25.092
 20
9.5532
 30
0.0
 10
25.092
 20
9.5532
 30
0.0
 10
25.092
 20
9.5532
 30
0.0
 10
25.2821
 20
9.3979
 30
0.0
 10
25.2821
 20
9.3979
 30
0.0
  0
SPLINE
  5
AD
330
1F
100
AcDbEntity
  8
Ilustrace
 62
   250
100
AcDbSpline
210
0.0
220
0.0
230
1.0
 70
    11
 71
     3
 72
    52
 73
    48
 74
     0
 42
0.0000000001
 43
0.0000000001
 40
0.0
 40
0.0
 40
0.0
 40
0.0
 40
0.0769230769230769
 40
0.0769230769230769
 40
0.0769230769230769
 40
0.0769230769230769
 40
0.1538461538461539
 40
0.1538461538461539
 40
0.1538461538461539
 40
0.1538461538461539
 40
0.2307692307692308
 40
0.2307692307692308
 40
0.2307692307692308
 40
0.2307692307692308
 40
0.3076923076923077
 40
0.3076923076923077
 40
0.3076923076923077
 40
0.3076923076923077
 40
0.3846153846153846
 40
0.3846153846153846
 40
0.3846153846153846
 40
0.3846153846153846
 40
0.4615384615384616
 40
0.4615384615384616
 40
0.4615384615384616
 40
0.4615384615384616
 40
0.5384615384615384
 40
0.5384615384615384
 40
0.5384615384615384
 40
0.5384615384615384
 40
0.6153846153846154
 40
0.6153846153846154
 40
0.6153846153846154
 40
0.6153846153846154
 40
0.6923076923076923
 40
0.6923076923076923
 40
0.6923076923076923
 40
0.6923076923076923
 40
0.7692307692307693
 40
0.7692307692307693
 40
0.7692307692307693
 40
0.7692307692307693
 40
0.8461538461538461
 40
0.8461538461538461
 40
0.8461538461538461
 40
0.8461538461538461
 40
1.0
 40
1.0
 40
1.0
 40
1.0
 10
25.5305
 20
10.1779
 30
0.0
 10
25.5305
 20
10.1779
 30
0.0
 10
25.5227
 20
10.174
 30
0.0
 10
25.5227
 20
10.174
 30
0.0
 10
25.5227
 20
10.174
 30
0.0
 10
25.4839
 20
10.2407
 30
0.0
 10
25.4503
 20
10.3099
 30
0.0
 10
25.4218
 20
10.381
 30
0.0
 10
25.4218
 20
10.381
 30
0.0
 10
25.3934
 20
10.4528
 30
0.0
 10
25.3714
 20
10.5285
 30
0.0
 10
25.3558
 20
10.6099
 30
0.0
 10
25.3558
 20
10.6099
 30
0.0
 10
25.3403
 20
10.6908
 30
0.0
 10
25.3326
 20
10.78
 30
0.0
 10
25.3326
 20
10.8764
 30
0.0
 10
25.3326
 20
10.8764
 30
0.0
 10
25.3326
 20
10.9877
 30
0.0
 10
25.3442
 20
11.095
 30
0.0
 10
25.3668
 20
11.2004
 30
0.0
 10
25.3668
 20
11.2004
 30
0.0
 10
25.3901
 20
11.3052
 30
0.0
 10
25.4244
 20
11.4035
 30
0.0
 10
25.4697
 20
11.4941
 30
0.0
 10
25.4697
 20
11.4941
 30
0.0
 10
25.5156
 20
11.5852
 30
0.0
 10
25.5725
 20
11.6654
 30
0.0
 10
25.6411
 20
11.734
 30
0.0
 10
25.6411
 20
11.734
 30
0.0
 10
25.7096
 20
11.8032
 30
0.0
 10
25.7892
 20
11.8569
 30
0.0
 10
25.8797
 20
11.8957
 30
0.0
 10
25.8797
 20
11.8957
 30
0.0
 10
25.9709
 20
11.9351
 30
0.0
 10
26.0731
 20
11.9545
 30
0.0
 10
26.1863
 20
11.9552
 30
0.0
 10
26.1863
 20
11.9552
 30
0.0
 10
26.2852
 20
11.9545
 30
0.0
 10
26.3758
 20
11.9384
 30
0.0
 10
26.4573
 20
11.906
 30
0.0
 10
26.4573
 20
11.906
 30
0.0
 10
26.5394
 20
11.8743
 30
0.0
 10
26.6131
 20
11.8297
 30
0.0
 10
26.6791
 20
11.7728
 30
0.0
 10
26.6791
 20
11.7728
 30
0.0
 10
26.6791
 20
11.7728
 30
0.0
 10
25.5305
 20
10.1779
 30
0.0
 10
25.5305
 20
10.1779
 30
0.0
  0
SPLINE
  5
AE
330
1F
100
AcDbEntity
  8
Ilustrace
 62
   250
100
AcDbSpline
210
0.0
220
0.0
230
1.0
 70
    11
 71
     3
 72
    48
 73
    44
 74
     0
 42
0.0000000001
 43
0.0000000001
 40
0.0
 40
0.0
 40
0.0
 40
0.0
 40
0.0833333333333333
 40
0.0833333333333333
 40
0.0833333333333333
 40
0.0833333333333333
 40
0.1666666666666667
 40
0.1666666666666667
 40
0.1666666666666667
 40
0.1666666666666667
 40
0.25
 40
0.25
 40
0.25
 40
0.25
 40
0.3333333333333333
 40
0.3333333333333333
 40
0.3333333333333333
 40
0.3333333333333333
 40
0.4166666666666667
 40
0.4166666666666667
 40
0.4166666666666667
 40
0.4166666666666667
 40
0.5
 40
0.5
 40
0.5
 40
0.5
 40
0.5833333333333334
 40
0.5833333333333334
 40
0.5833333333333334
 40
0.5833333333333334
 40
0.6666666666666666
 40
0.6666666666666666
 40
0.6666666666666666
 40
0.6666666666666666
 40
0.75
 40
0.75
 40
0.75
 40
0.75
 40
0.8333333333333334
 40
0.8333333333333334
 40
0.8333333333333334
 40
0.8333333333333334
 40
1.0
 40
1.0
 40
1.0
 40
1.0
 10
26.8382
 20
11.5671
 30
0.0
 10
26.8382
 20
11.5671
 30
0.0
 10
26.8498
 20
11.5671
 30
0.0
 10
26.8498
 20
11.5671
 30
0.0
 10
26.8498
 20
11.5671
 30
0.0
 10
26.9171
 20
11.4546
 30
0.0
 10
26.9643
 20
11.3408
 30
0.0
 10
26.9921
 20
11.2257
 30
0.0
 10
26.9921
 20
11.2257
 30
0.0
 10
27.0199
 20
11.1112
 30
0.0
 10
27.0335
 20
10.9974
 30
0.0
 10
27.0322
 20
10.8842
 30
0.0
 10
27.0322
 20
10.8842
 30
0.0
 10
27.0322
 20
10.7665
 30
0.0
 10
27.0199
 20
10.6539
 30
0.0
 10
26.996
 20
10.5459
 30
0.0
 10
26.996
 20
10.5459
 30
0.0
 10
26.9721
 20
10.4379
 30
0.0
 10
26.9365
 20
10.3383
 30
0.0
 10
26.8899
 20
10.2471
 30
0.0
 10
26.8899
 20
10.2471
 30
0.0
 10
26.8427
 20
10.1559
 30
0.0
 10
26.7852
 20
10.0764
 30
0.0
 10
26.7166
 20
10.0091
 30
0.0
 10
26.7166
 20
10.0091
 30
0.0
 10
26.6474
 20
9.9412
 30
0.0
 10
26.5685
 20
9.8882
 30
0.0
 10
26.4793
 20
9.8507
 30
0.0
 10
26.4793
 20
9.8507
 30
0.0
 10
26.39
 20
9.8132
 30
0.0
 10
26.291
 20
9.7944
 30
0.0
 10
26.1824
 20
9.7937
 30
0.0
 10
26.1824
 20
9.7937
 30
0.0
 10
26.077
 20
9.7937
 30
0.0
 10
25.9845
 20
9.8099
 30
0.0
 10
25.9062
 20
9.8416
 30
0.0
 10
25.9062
 20
9.8416
 30
0.0
 10
25.8273
 20
9.8733
 30
0.0
 10
25.7568
 20
9.9199
 30
0.0
 10
25.6934
 20
9.98
 30
0.0
 10
25.6934
 20
9.98
 30
0.0
 10
25.6934
 20
9.98
 30
0.0
 10
26.8382
 20
11.5671
 30
0.0
 10
26.8382
 20
11.5671
 30
0.0
  0
SPLINE
  5
AF
330
1F
100
AcDbEntity
  8
Ilustrace
 62
   250
100
AcDbSpline
210
0.0
220
0.0
230
1.0
 70
    11
 71
     3
 72
    48
 73
    44
 74
     0
 42
0.0000000001
 43
0.0000000001
 40
0.0
 40
0.0
 40
0.0
 40
0.0
 40
0.0833333333333333
 40
0.0833333333333333
 40
0.0833333333333333
 40
0.0833333333333333
 40
0.1666666666666667
 40
0.1666666666666667
 40
0.1666666666666667
 40
0.1666666666666667
 40
0.25
 40
0.25
 40
0.25
 40
0.25
 40
0.3333333333333333
 40
0.3333333333333333
 40
0.3333333333333333
 40
0.3333333333333333
 40
0.4166666666666667
 40
0.4166666666666667
 40
0.4166666666666667
 40
0.4166666666666667
 40
0.5
 40
0.5
 40
0.5
 40
0.5
 40
0.5833333333333334
 40
0.5833333333333334
 40
0.5833333333333334
 40
0.5833333333333334
 40
0.6666666666666666
 40
0.6666666666666666
 40
0.6666666666666666
 40
0.6666666666666666
 40
0.75
 40
0.75
 40
0.75
 40
0.75
 40
0.8333333333333334
 40
0.8333333333333334
 40
0.8333333333333334
 40
0.8333333333333334
 40
1.0
 40
1.0
 40
1.0
 40
1.0
 10
29.0734
 20
9.5648
 30
0.0
 10
29.0734
 20
9.5648
 30
0.0
 10
29.0734
 20
10.2555
 30
0.0
 10
29.0734
 20
10.2555
 30
0.0
 10
29.0734
 20
10.2555
 30
0.0
 10
29.0734
 20
10.2555
 30
0.0
 10
29.4265
 20
10.2555
 30
0.0
 10
29.4265
 20
10.2555
 30
0.0
 10
29.4265
 20
10.2555
 30
0.0
 10
29.4265
 20
10.2555
 30
0.0
 10
29.4265
 20
10.5194
 30
0.0
 10
29.4265
 20
10.5194
 30
0.0
 10
29.4265
 20
10.5194
 30
0.0
 10
29.4265
 20
10.5194
 30
0.0
 10
29.0734
 20
10.5194
 30
0.0
 10
29.0734
 20
10.5194
 30
0.0
 10
29.0734
 20
10.5194
 30
0.0
 10
29.0734
 20
10.5194
 30
0.0
 10
29.0734
 20
12.0871
 30
0.0
 10
29.0734
 20
12.0871
 30
0.0
 10
29.0734
 20
12.0871
 30
0.0
 10
29.0734
 20
12.0871
 30
0.0
 10
28.7048
 20
12.0871
 30
0.0
 10
28.7048
 20
12.0871
 30
0.0
 10
28.7048
 20
12.0871
 30
0.0
 10
28.7048
 20
12.0871
 30
0.0
 10
27.5794
 20
10.4767
 30
0.0
 10
27.5794
 20
10.4767
 30
0.0
 10
27.5794
 20
10.4767
 30
0.0
 10
27.5794
 20
10.4767
 30
0.0
 10
27.5794
 20
10.2555
 30
0.0
 10
27.5794
 20
10.2555
 30
0.0
 10
27.5794
 20
10.2555
 30
0.0
 10
27.5794
 20
10.2555
 30
0.0
 10
28.7513
 20
10.2555
 30
0.0
 10
28.7513
 20
10.2555
 30
0.0
 10
28.7513
 20
10.2555
 30
0.0
 10
28.7513
 20
10.2555
 30
0.0
 10
28.7513
 20
9.5648
 30
0.0
 10
28.7513
 20
9.5648
 30
0.0
 10
28.7513
 20
9.5648
 30
0.0
 10
28.7513
 20
9.5648
 30
0.0
 10
29.0734
 20
9.5648
 30
0.0
 10
29.0734
 20
9.5648
 30
0.0
  0
SPLINE
  5
B0
330
1F
100
AcDbEntity
  8
Ilustrace
 62
   250
100
AcDbSpline
210
0.0
220
0.0
230
1.0
 70
    11
 71
     3
 72
    36
 73
    32
 74
     0
 42
0.0000000001
 43
0.0000000001
 40
0.0
 40
0.0
 40
0.0
 40
0.0
 40
0.1111111111111111
 40
0.1111111111111111
 40
0.1111111111111111
 40
0.1111111111111111
 40
0.2222222222222222
 40
0.2222222222222222
 40
0.2222222222222222
 40
0.2222222222222222
 40
0.3333333333333333
 40
0.3333333333333333
 40
0.3333333333333333
 40
0.3333333333333333
 40
0.4444444444444444
 40
0.4444444444444444
 40
0.4444444444444444
 40
0.4444444444444444
 40
0.5555555555555556
 40
0.5555555555555556
 40
0.5555555555555556
 40
0.5555555555555556
 40
0.6666666666666666
 40
0.6666666666666666
 40
0.6666666666666666
 40
0.6666666666666666
 40
0.7777777777777778
 40
0.7777777777777778
 40
0.7777777777777778
 40
0.7777777777777778
 40
1.0
 40
1.0
 40
1.0
 40
1.0
 10
27.9248
 20
10.5194
 30
0.0
 10
27.9248
 20
10.5194
 30
0.0
 10
27.9248
 20
10.5272
 30
0.0
 10
27.9248
 20
10.5272
 30
0.0
 10
27.9248
 20
10.5272
 30
0.0
 10
27.9248
 20
10.5272
 30
0.0
 10
28.5418
 20
11.3848
 30
0.0
 10
28.5418
 20
11.3848
 30
0.0
 10
28.5418
 20
11.3848
 30
0.0
 10
28.576
 20
11.4423
 30
0.0
 10
28.6103
 20
11.5005
 30
0.0
 10
28.644
 20
11.5594
 30
0.0
 10
28.644
 20
11.5594
 30
0.0
 10
28.6769
 20
11.6189
 30
0.0
 10
28.7132
 20
11.6848
 30
0.0
 10
28.7513
 20
11.7573
 30
0.0
 10
28.7513
 20
11.7573
 30
0.0
 10
28.7513
 20
11.7573
 30
0.0
 10
28.763
 20
11.7573
 30
0.0
 10
28.763
 20
11.7573
 30
0.0
 10
28.763
 20
11.7573
 30
0.0
 10
28.7552
 20
11.6253
 30
0.0
 10
28.7513
 20
11.4934
 30
0.0
 10
28.7513
 20
11.3615
 30
0.0
 10
28.7513
 20
11.3615
 30
0.0
 10
28.7513
 20
11.3615
 30
0.0
 10
28.7513
 20
10.5194
 30
0.0
 10
28.7513
 20
10.5194
 30
0.0
 10
28.7513
 20
10.5194
 30
0.0
 10
28.7513
 20
10.5194
 30
0.0
 10
27.9248
 20
10.5194
 30
0.0
 10
27.9248
 20
10.5194
 30
0.0
  0
SPLINE
  5
B1
330
1F
100
AcDbEntity
  8
Ilustrace
 62
   250
100
AcDbSpline
210
0.0
220
0.0
230
1.0
 70
    11
 71
     3
 72
   124
 73
   120
 74
     0
 42
0.0000000001
 43
0.0000000001
 40
0.0
 40
0.0
 40
0.0
 40
0.0
 40
0.032258064516129
 40
0.032258064516129
 40
0.032258064516129
 40
0.032258064516129
 40
0.0645161290322581
 40
0.0645161290322581
 40
0.0645161290322581
 40
0.0645161290322581
 40
0.0967741935483871
 40
0.0967741935483871
 40
0.0967741935483871
 40
0.0967741935483871
 40
0.1290322580645161
 40
0.1290322580645161
 40
0.1290322580645161
 40
0.1290322580645161
 40
0.1612903225806452
 40
0.1612903225806452
 40
0.1612903225806452
 40
0.1612903225806452
 40
0.1935483870967742
 40
0.1935483870967742
 40
0.1935483870967742
 40
0.1935483870967742
 40
0.2258064516129032
 40
0.2258064516129032
 40
0.2258064516129032
 40
0.2258064516129032
 40
0.2580645161290323
 40
0.2580645161290323
 40
0.2580645161290323
 40
0.2580645161290323
 40
0.2903225806451613
 40
0.2903225806451613
 40
0.2903225806451613
 40
0.2903225806451613
 40
0.3225806451612903
 40
0.3225806451612903
 40
0.3225806451612903
 40
0.3225806451612903
 40
0.3548387096774194
 40
0.3548387096774194
 40
0.3548387096774194
 40
0.3548387096774194
 40
0.3870967741935484
 40
0.3870967741935484
 40
0.3870967741935484
 40
0.3870967741935484
 40
0.4193548387096774
 40
0.4193548387096774
 40
0.4193548387096774
 40
0.4193548387096774
 40
0.4516129032258064
 40
0.4516129032258064
 40
0.4516129032258064
 40
0.4516129032258064
 40
0.4838709677419355
 40
0.4838709677419355
 40
0.4838709677419355
 40
0.4838709677419355
 40
0.5161290322580645
 40
0.5161290322580645
 40
0.5161290322580645
 40
0.5161290322580645
 40
0.5483870967741935
 40
0.5483870967741935
 40
0.5483870967741935
 40
0.5483870967741935
 40
0.5806451612903226
 40
0.5806451612903226
 40
0.5806451612903226
 40
0.5806451612903226
 40
0.6129032258064516
 40
0.6129032258064516
 40
0.6129032258064516
 40
0.6129032258064516
 40
0.6451612903225806
 40
0.6451612903225806
 40
0.6451612903225806
 40
0.6451612903225806
 40
0.6774193548387096
 40
0.6774193548387096
 40
0.6774193548387096
 40
0.6774193548387096
 40
0.7096774193548387
 40
0.7096774193548387
 40
0.7096774193548387
 40
0.7096774193548387
 40
0.7419354838709677
 40
0.7419354838709677
 40
0.7419354838709677
 40
0.7419354838709677
 40
0.7741935483870968
 40
0.7741935483870968
 40
0.7741935483870968
 40
0.7741935483870968
 40
0.8064516129032258
 40
0.8064516129032258
 40
0.8064516129032258
 40
0.8064516129032258
 40
0.8387096774193549
 40
0.8387096774193549
 40
0.8387096774193549
 40
0.8387096774193549
 40
0.8709677419354839
 40
0.8709677419354839
 40
0.8709677419354839
 40
0.8709677419354839
 40
0.9032258064516129
 40
0.9032258064516129
 40
0.9032258064516129
 40
0.9032258064516129
 40
0.9354838709677419
 40
0.9354838709677419
 40
0.9354838709677419
 40
0.9354838709677419
 40
1.0
 40
1.0
 40
1.0
 40
1.0
 10
30.1561
 20
10.8803
 30
0.0
 10
30.0519
 20
10.8363
 30
0.0
 10
29.9627
 20
10.7813
 30
0.0
 10
29.8883
 20
10.7167
 30
0.0
 10
29.8883
 20
10.7167
 30
0.0
 10
29.8139
 20
10.6513
 30
0.0
 10
29.7564
 20
10.5757
 30
0.0
 10
29.7163
 20
10.4897
 30
0.0
 10
29.7163
 20
10.4897
 30
0.0
 10
29.6762
 20
10.4036
 30
0.0
 10
29.6561
 20
10.3073
 30
0.0
 10
29.6555
 20
10.2012
 30
0.0
 10
29.6555
 20
10.2012
 30
0.0
 10
29.6561
 20
10.1081
 30
0.0
 10
29.6749
 20
10.0214
 30
0.0
 10
29.7137
 20
9.9393
 30
0.0
 10
29.7137
 20
9.9393
 30
0.0
 10
29.7518
 20
9.8578
 30
0.0
 10
29.8075
 20
9.786
 30
0.0
 10
29.8805
 20
9.7233
 30
0.0
 10
29.8805
 20
9.7233
 30
0.0
 10
29.9536
 20
9.6612
 30
0.0
 10
30.0422
 20
9.612
 30
0.0
 10
30.1464
 20
9.5764
 30
0.0
 10
30.1464
 20
9.5764
 30
0.0
 10
30.2511
 20
9.5409
 30
0.0
 10
30.3695
 20
9.5228
 30
0.0
 10
30.5014
 20
9.5221
 30
0.0
 10
30.5014
 20
9.5221
 30
0.0
 10
30.6224
 20
9.5228
 30
0.0
 10
30.7349
 20
9.5402
 30
0.0
 10
30.8384
 20
9.5745
 30
0.0
 10
30.8384
 20
9.5745
 30
0.0
 10
30.9419
 20
9.6088
 30
0.0
 10
31.0331
 20
9.6586
 30
0.0
 10
31.1107
 20
9.7233
 30
0.0
 10
31.1107
 20
9.7233
 30
0.0
 10
31.1883
 20
9.7873
 30
0.0
 10
31.2491
 20
9.8642
 30
0.0
 10
31.2924
 20
9.9541
 30
0.0
 10
31.2924
 20
9.9541
 30
0.0
 10
31.3364
 20
10.044
 30
0.0
 10
31.3584
 20
10.1443
 30
0.0
 10
31.359
 20
10.2555
 30
0.0
 10
31.359
 20
10.2555
 30
0.0
 10
31.3584
 20
10.3564
 30
0.0
 10
31.3377
 20
10.4483
 30
0.0
 10
31.2969
 20
10.5317
 30
0.0
 10
31.2969
 20
10.5317
 30
0.0
 10
31.2562
 20
10.6145
 30
0.0
 10
31.198
 20
10.6876
 30
0.0
 10
31.1223
 20
10.7503
 30
0.0
 10
31.1223
 20
10.7503
 30
0.0
 10
31.0466
 20
10.8137
 30
0.0
 10
30.9561
 20
10.8661
 30
0.0
 10
30.8507
 20
10.9075
 30
0.0
 10
30.8507
 20
10.9075
 30
0.0
 10
30.8507
 20
10.9075
 30
0.0
 10
30.8507
 20
10.9191
 30
0.0
 10
30.8507
 20
10.9191
 30
0.0
 10
30.8507
 20
10.9191
 30
0.0
 10
30.9535
 20
10.9676
 30
0.0
 10
31.0356
 20
11.0239
 30
0.0
 10
31.0971
 20
11.0885
 30
0.0
 10
31.0971
 20
11.0885
 30
0.0
 10
31.1585
 20
11.1526
 30
0.0
 10
31.2032
 20
11.2211
 30
0.0
 10
31.2303
 20
11.2929
 30
0.0
 10
31.2303
 20
11.2929
 30
0.0
 10
31.2568
 20
11.3654
 30
0.0
 10
31.2704
 20
11.4371
 30
0.0
 10
31.2698
 20
11.5089
 30
0.0
 10
31.2698
 20
11.5089
 30
0.0
 10
31.2698
 20
11.5891
 30
0.0
 10
31.2542
 20
11.6667
 30
0.0
 10
31.2232
 20
11.7405
 30
0.0
 10
31.2232
 20
11.7405
 30
0.0
 10
31.1922
 20
11.8142
 30
0.0
 10
31.1462
 20
11.8802
 30
0.0
 10
31.0848
 20
11.939
 30
0.0
 10
31.0848
 20
11.939
 30
0.0
 10
31.0227
 20
11.9972
 30
0.0
 10
30.9457
 20
12.0438
 30
0.0
 10
30.8539
 20
12.0774
 30
0.0
 10
30.8539
 20
12.0774
 30
0.0
 10
30.7621
 20
12.1117
 30
0.0
 10
30.6547
 20
12.1292
 30
0.0
 10
30.5325
 20
12.1298
 30
0.0
 10
30.5325
 20
12.1298
 30
0.0
 10
30.4206
 20
12.1292
 30
0.0
 10
30.3165
 20
12.113
 30
0.0
 10
30.222
 20
12.0813
 30
0.0
 10
30.222
 20
12.0813
 30
0.0
 10
30.127
 20
12.049
 30
0.0
 10
30.0442
 20
12.0037
 30
0.0
 10
29.973
 20
11.9442
 30
0.0
 10
29.973
 20
11.9442
 30
0.0
 10
29.9025
 20
11.8847
 30
0.0
 10
29.8476
 20
11.8142
 30
0.0
 10
29.8081
 20
11.7321
 30
0.0
 10
29.8081
 20
11.7321
 30
0.0
 10
29.7693
 20
11.6499
 30
0.0
 10
29.7493
 20
11.5587
 30
0.0
 10
29.7486
 20
11.4585
 30
0.0
 10
29.7486
 20
11.4585
 30
0.0
 10
29.7486
 20
11.3854
 30
0.0
 10
29.7622
 20
11.3143
 30
0.0
 10
29.7906
 20
11.2444
 30
0.0
 10
29.7906
 20
11.2444
 30
0.0
 10
29.8185
 20
11.1746
 30
0.0
 10
29.8624
 20
11.1092
 30
0.0
 10
29.9219
 20
11.0491
 30
0.0
 10
29.9219
 20
11.0491
 30
0.0
 10
29.9814
 20
10.9889
 30
0.0
 10
30.0578
 20
10.9366
 30
0.0
 10
30.1522
 20
10.8919
 30
0.0
 10
30.1522
 20
10.8919
 30
0.0
 10
30.1522
 20
10.8919
 30
0.0
 10
30.1561
 20
10.8803
 30
0.0
 10
30.1561
 20
10.8803
 30
0.0
  0
SPLINE
  5
B2
330
1F
100
AcDbEntity
  8
Ilustrace
 62
   250
100
AcDbSpline
210
0.0
220
0.0
230
1.0
 70
    11
 71
     3
 72
    56
 73
    52
 74
     0
 42
0.0000000001
 43
0.0000000001
 40
0.0
 40
0.0
 40
0.0
 40
0.0
 40
0.0714285714285714
 40
0.0714285714285714
 40
0.0714285714285714
 40
0.0714285714285714
 40
0.1428571428571428
 40
0.1428571428571428
 40
0.1428571428571428
 40
0.1428571428571428
 40
0.2142857142857143
 40
0.2142857142857143
 40
0.2142857142857143
 40
0.2142857142857143
 40
0.2857142857142857
 40
0.2857142857142857
 40
0.2857142857142857
 40
0.2857142857142857
 40
0.3571428571428572
 40
0.3571428571428572
 40
0.3571428571428572
 40
0.3571428571428572
 40
0.4285714285714285
 40
0.4285714285714285
 40
0.4285714285714285
 40
0.4285714285714285
 40
0.5
 40
0.5
 40
0.5
 40
0.5
 40
0.5714285714285714
 40
0.5714285714285714
 40
0.5714285714285714
 40
0.5714285714285714
 40
0.6428571428571429
 40
0.6428571428571429
 40
0.6428571428571429
 40
0.6428571428571429
 40
0.7142857142857143
 40
0.7142857142857143
 40
0.7142857142857143
 40
0.7142857142857143
 40
0.7857142857142857
 40
0.7857142857142857
 40
0.7857142857142857
 40
0.7857142857142857
 40
0.8571428571428571
 40
0.8571428571428571
 40
0.8571428571428571
 40
0.8571428571428571
 40
1.0
 40
1.0
 40
1.0
 40
1.0
 10
30.5092
 20
9.7705
 30
0.0
 10
30.4283
 20
9.7711
 30
0.0
 10
30.3566
 20
9.784
 30
0.0
 10
30.2932
 20
9.8093
 30
0.0
 10
30.2932
 20
9.8093
 30
0.0
 10
30.2291
 20
9.8351
 30
0.0
 10
30.1755
 20
9.8701
 30
0.0
 10
30.1315
 20
9.9147
 30
0.0
 10
30.1315
 20
9.9147
 30
0.0
 10
30.0882
 20
9.9587
 30
0.0
 10
30.0552
 20
10.0098
 30
0.0
 10
30.0332
 20
10.0667
 30
0.0
 10
30.0332
 20
10.0667
 30
0.0
 10
30.0118
 20
10.1236
 30
0.0
 10
30.0021
 20
10.1844
 30
0.0
 10
30.0047
 20
10.2478
 30
0.0
 10
30.0047
 20
10.2478
 30
0.0
 10
30.0047
 20
10.3286
 30
0.0
 10
30.0222
 20
10.403
 30
0.0
 10
30.0571
 20
10.4715
 30
0.0
 10
30.0571
 20
10.4715
 30
0.0
 10
30.0914
 20
10.5401
 30
0.0
 10
30.1425
 20
10.6002
 30
0.0
 10
30.2097
 20
10.6513
 30
0.0
 10
30.2097
 20
10.6513
 30
0.0
 10
30.2777
 20
10.7024
 30
0.0
 10
30.3604
 20
10.7425
 30
0.0
 10
30.4587
 20
10.7716
 30
0.0
 10
30.4587
 20
10.7716
 30
0.0
 10
30.5732
 20
10.7399
 30
0.0
 10
30.6715
 20
10.7005
 30
0.0
 10
30.7543
 20
10.6526
 30
0.0
 10
30.7543
 20
10.6526
 30
0.0
 10
30.8371
 20
10.6054
 30
0.0
 10
30.9011
 20
10.5466
 30
0.0
 10
30.9457
 20
10.4767
 30
0.0
 10
30.9457
 20
10.4767
 30
0.0
 10
30.9904
 20
10.4062
 30
0.0
 10
31.013
 20
10.3209
 30
0.0
 10
31.0137
 20
10.2206
 30
0.0
 10
31.0137
 20
10.2206
 30
0.0
 10
31.013
 20
10.1333
 30
0.0
 10
30.9923
 20
10.0557
 30
0.0
 10
30.9509
 20
9.9884
 30
0.0
 10
30.9509
 20
9.9884
 30
0.0
 10
30.9095
 20
9.9212
 30
0.0
 10
30.8513
 20
9.8681
 30
0.0
 10
30.7763
 20
9.8293
 30
0.0
 10
30.7763
 20
9.8293
 30
0.0
 10
30.7013
 20
9.7905
 30
0.0
 10
30.612
 20
9.7711
 30
0.0
 10
30.5092
 20
9.7705
 30
0.0
  0
SPLINE
  5
B3
330
1F
100
AcDbEntity
  8
Ilustrace
 62
   250
100
AcDbSpline
210
0.0
220
0.0
230
1.0
 70
    11
 71
     3
 72
    56
 73
    52
 74
     0
 42
0.0000000001
 43
0.0000000001
 40
0.0
 40
0.0
 40
0.0
 40
0.0
 40
0.0714285714285714
 40
0.0714285714285714
 40
0.0714285714285714
 40
0.0714285714285714
 40
0.1428571428571428
 40
0.1428571428571428
 40
0.1428571428571428
 40
0.1428571428571428
 40
0.2142857142857143
 40
0.2142857142857143
 40
0.2142857142857143
 40
0.2142857142857143
 40
0.2857142857142857
 40
0.2857142857142857
 40
0.2857142857142857
 40
0.2857142857142857
 40
0.3571428571428572
 40
0.3571428571428572
 40
0.3571428571428572
 40
0.3571428571428572
 40
0.4285714285714285
 40
0.4285714285714285
 40
0.4285714285714285
 40
0.4285714285714285
 40
0.5
 40
0.5
 40
0.5
 40
0.5
 40
0.5714285714285714
 40
0.5714285714285714
 40
0.5714285714285714
 40
0.5714285714285714
 40
0.6428571428571429
 40
0.6428571428571429
 40
0.6428571428571429
 40
0.6428571428571429
 40
0.7142857142857143
 40
0.7142857142857143
 40
0.7142857142857143
 40
0.7142857142857143
 40
0.7857142857142857
 40
0.7857142857142857
 40
0.7857142857142857
 40
0.7857142857142857
 40
0.8571428571428571
 40
0.8571428571428571
 40
0.8571428571428571
 40
0.8571428571428571
 40
1.0
 40
1.0
 40
1.0
 40
1.0
 10
30.5131
 20
11.8853
 30
0.0
 10
30.5894
 20
11.8847
 30
0.0
 10
30.6547
 20
11.8731
 30
0.0
 10
30.709
 20
11.8498
 30
0.0
 10
30.709
 20
11.8498
 30
0.0
 10
30.7634
 20
11.8265
 30
0.0
 10
30.8073
 20
11.7948
 30
0.0
 10
30.8416
 20
11.7553
 30
0.0
 10
30.8416
 20
11.7553
 30
0.0
 10
30.8752
 20
11.7159
 30
0.0
 10
30.9005
 20
11.6719
 30
0.0
 10
30.9166
 20
11.6234
 30
0.0
 10
30.9166
 20
11.6234
 30
0.0
 10
30.9322
 20
11.5749
 30
0.0
 10
30.9399
 20
11.5251
 30
0.0
 10
30.9399
 20
11.474
 30
0.0
 10
30.9399
 20
11.474
 30
0.0
 10
30.9393
 20
11.3977
 30
0.0
 10
30.9225
 20
11.3298
 30
0.0
 10
30.8888
 20
11.2703
 30
0.0
 10
30.8888
 20
11.2703
 30
0.0
 10
30.8552
 20
11.2101
 30
0.0
 10
30.8099
 20
11.159
 30
0.0
 10
30.7517
 20
11.117
 30
0.0
 10
30.7517
 20
11.117
 30
0.0
 10
30.6942
 20
11.0743
 30
0.0
 10
30.6288
 20
11.0407
 30
0.0
 10
30.5558
 20
11.0161
 30
0.0
 10
30.5558
 20
11.0161
 30
0.0
 10
30.4581
 20
11.042
 30
0.0
 10
30.3734
 20
11.075
 30
0.0
 10
30.3009
 20
11.1151
 30
0.0
 10
30.3009
 20
11.1151
 30
0.0
 10
30.2285
 20
11.1558
 30
0.0
 10
30.1722
 20
11.2063
 30
0.0
 10
30.1328
 20
11.2664
 30
0.0
 10
30.1328
 20
11.2664
 30
0.0
 10
30.0933
 20
11.3265
 30
0.0
 10
30.0739
 20
11.3983
 30
0.0
 10
30.0746
 20
11.4818
 30
0.0
 10
30.0746
 20
11.4818
 30
0.0
 10
30.0746
 20
11.5555
 30
0.0
 10
30.0914
 20
11.6221
 30
0.0
 10
30.125
 20
11.6829
 30
0.0
 10
30.125
 20
11.6829
 30
0.0
 10
30.1587
 20
11.7437
 30
0.0
 10
30.2084
 20
11.7922
 30
0.0
 10
30.2738
 20
11.8291
 30
0.0
 10
30.2738
 20
11.8291
 30
0.0
 10
30.3384
 20
11.8659
 30
0.0
 10
30.4186
 20
11.8847
 30
0.0
 10
30.5131
 20
11.8853
 30
0.0
  0
SPLINE
  5
B4
330
1F
100
AcDbEntity
  8
Ilustrace
 62
   250
100
AcDbSpline
210
0.0
220
0.0
230
1.0
 70
    11
 71
     3
 72
    68
 73
    64
 74
     0
 42
0.0000000001
 43
0.0000000001
 40
0.0
 40
0.0
 40
0.0
 40
0.0
 40
0.0588235294117647
 40
0.0588235294117647
 40
0.0588235294117647
 40
0.0588235294117647
 40
0.1176470588235294
 40
0.1176470588235294
 40
0.1176470588235294
 40
0.1176470588235294
 40
0.1764705882352941
 40
0.1764705882352941
 40
0.1764705882352941
 40
0.1764705882352941
 40
0.2352941176470588
 40
0.2352941176470588
 40
0.2352941176470588
 40
0.2352941176470588
 40
0.2941176470588235
 40
0.2941176470588235
 40
0.2941176470588235
 40
0.2941176470588235
 40
0.3529411764705883
 40
0.3529411764705883
 40
0.3529411764705883
 40
0.3529411764705883
 40
0.4117647058823529
 40
0.4117647058823529
 40
0.4117647058823529
 40
0.4117647058823529
 40
0.4705882352941176
 40
0.4705882352941176
 40
0.4705882352941176
 40
0.4705882352941176
 40
0.5294117647058824
 40
0.5294117647058824
 40
0.5294117647058824
 40
0.5294117647058824
 40
0.5882352941176471
 40
0.5882352941176471
 40
0.5882352941176471
 40
0.5882352941176471
 40
0.6470588235294118
 40
0.6470588235294118
 40
0.6470588235294118
 40
0.6470588235294118
 40
0.7058823529411765
 40
0.7058823529411765
 40
0.7058823529411765
 40
0.7058823529411765
 40
0.7647058823529411
 40
0.7647058823529411
 40
0.7647058823529411
 40
0.7647058823529411
 40
0.8235294117647058
 40
0.8235294117647058
 40
0.8235294117647058
 40
0.8235294117647058
 40
0.8823529411764706
 40
0.8823529411764706
 40
0.8823529411764706
 40
0.8823529411764706
 40
1.0
 40
1.0
 40
1.0
 40
1.0
 10
31.8441
 20
9.0953
 30
0.0
 10
31.9062
 20
9.1767
 30
0.0
 10
31.9663
 20
9.2692
 30
0.0
 10
32.0265
 20
9.3734
 30
0.0
 10
32.0265
 20
9.3734
 30
0.0
 10
32.086
 20
9.4775
 30
0.0
 10
32.1396
 20
9.5939
 30
0.0
 10
32.1888
 20
9.7239
 30
0.0
 10
32.1888
 20
9.7239
 30
0.0
 10
32.2373
 20
9.8539
 30
0.0
 10
32.2761
 20
9.9975
 30
0.0
 10
32.3059
 20
10.1559
 30
0.0
 10
32.3059
 20
10.1559
 30
0.0
 10
32.335
 20
10.3144
 30
0.0
 10
32.3505
 20
10.4884
 30
0.0
 10
32.3524
 20
10.6785
 30
0.0
 10
32.3524
 20
10.6785
 30
0.0
 10
32.3518
 20
10.8686
 30
0.0
 10
32.3369
 20
11.0426
 30
0.0
 10
32.3072
 20
11.2017
 30
0.0
 10
32.3072
 20
11.2017
 30
0.0
 10
32.2781
 20
11.3602
 30
0.0
 10
32.2392
 20
11.5044
 30
0.0
 10
32.1901
 20
11.6344
 30
0.0
 10
32.1901
 20
11.6344
 30
0.0
 10
32.1409
 20
11.7638
 30
0.0
 10
32.0866
 20
11.8802
 30
0.0
 10
32.0265
 20
11.9836
 30
0.0
 10
32.0265
 20
11.9836
 30
0.0
 10
31.967
 20
12.0871
 30
0.0
 10
31.9062
 20
12.1783
 30
0.0
 10
31.8441
 20
12.2579
 30
0.0
 10
31.8441
 20
12.2579
 30
0.0
 10
31.8441
 20
12.2579
 30
0.0
 10
31.5802
 20
12.2579
 30
0.0
 10
31.5802
 20
12.2579
 30
0.0
 10
31.5802
 20
12.2579
 30
0.0
 10
31.6727
 20
12.1292
 30
0.0
 10
31.7555
 20
11.9869
 30
0.0
 10
31.8286
 20
11.831
 30
0.0
 10
31.8286
 20
11.831
 30
0.0
 10
31.901
 20
11.6751
 30
0.0
 10
31.9586
 20
11.5025
 30
0.0
 10
32.0006
 20
11.3123
 30
0.0
 10
32.0006
 20
11.3123
 30
0.0
 10
32.0426
 20
11.1222
 30
0.0
 10
32.0646
 20
10.9107
 30
0.0
 10
32.0653
 20
10.6785
 30
0.0
 10
32.0653
 20
10.6785
 30
0.0
 10
32.0646
 20
10.4463
 30
0.0
 10
32.0426
 20
10.2342
 30
0.0
 10
32.0
 20
10.0427
 30
0.0
 10
32.0
 20
10.0427
 30
0.0
 10
31.9573
 20
9.8513
 30
0.0
 10
31.8997
 20
9.678
 30
0.0
 10
31.8266
 20
9.5215
 30
0.0
 10
31.8266
 20
9.5215
 30
0.0
 10
31.7542
 20
9.365
 30
0.0
 10
31.672
 20
9.2227
 30
0.0
 10
31.5802
 20
9.0953
 30
0.0
 10
31.5802
 20
9.0953
 30
0.0
 10
31.5802
 20
9.0953
 30
0.0
 10
31.8441
 20
9.0953
 30
0.0
 10
31.8441
 20
9.0953
 30
0.0
  0
SPLINE
  5
B5
330
1F
100
AcDbEntity
  8
Ilustrace
 62
   250
370
    13
100
AcDbSpline
210
0.0
220
0.0
230
1.0
 70
    24
 71
     3
 72
     8
 73
     4
 74
     0
 42
0.0000000001
 43
0.0000000001
 40
0.0
 40
0.0
 40
0.0
 40
0.0
 40
1.0
 40
1.0
 40
1.0
 40
1.0
 10
34.5652
 20
-7.2572
 30
0.0
 10
34.5652
 20
-7.2572
 30
0.0
 10
34.5652
 20
-22.2312
 30
0.0
 10
34.5652
 20
-22.2312
 30
0.0
  0
SPLINE
  5
B6
330
1F
100
AcDbEntity
  8
Ilustrace
 62
   250
100
AcDbSpline
210
0.0
220
0.0
230
1.0
 70
    11
 71
     3
 72
   104
 73
   100
 74
     0
 42
0.0000000001
 43
0.0000000001
 40
0.0
 40
0.0
 40
0.0
 40
0.0
 40
0.0384615384615385
 40
0.0384615384615385
 40
0.0384615384615385
 40
0.0384615384615385
 40
0.0769230769230769
 40
0.0769230769230769
 40
0.0769230769230769
 40
0.0769230769230769
 40
0.1153846153846154
 40
0.1153846153846154
 40
0.1153846153846154
 40
0.1153846153846154
 40
0.1538461538461539
 40
0.1538461538461539
 40
0.1538461538461539
 40
0.1538461538461539
 40
0.1923076923076923
 40
0.1923076923076923
 40
0.1923076923076923
 40
0.1923076923076923
 40
0.2307692307692308
 40
0.2307692307692308
 40
0.2307692307692308
 40
0.2307692307692308
 40
0.2692307692307692
 40
0.2692307692307692
 40
0.2692307692307692
 40
0.2692307692307692
 40
0.3076923076923077
 40
0.3076923076923077
 40
0.3076923076923077
 40
0.3076923076923077
 40
0.3461538461538461
 40
0.3461538461538461
 40
0.3461538461538461
 40
0.3461538461538461
 40
0.3846153846153846
 40
0.3846153846153846
 40
0.3846153846153846
 40
0.3846153846153846
 40
0.4230769230769231
 40
0.4230769230769231
 40
0.4230769230769231
 40
0.4230769230769231
 40
0.4615384615384616
 40
0.4615384615384616
 40
0.4615384615384616
 40
0.4615384615384616
 40
0.5
 40
0.5
 40
0.5
 40
0.5
 40
0.5384615384615384
 40
0.5384615384615384
 40
0.5384615384615384
 40
0.5384615384615384
 40
0.5769230769230769
 40
0.5769230769230769
 40
0.5769230769230769
 40
0.5769230769230769
 40
0.6153846153846154
 40
0.6153846153846154
 40
0.6153846153846154
 40
0.6153846153846154
 40
0.6538461538461539
 40
0.6538461538461539
 40
0.6538461538461539
 40
0.6538461538461539
 40
0.6923076923076923
 40
0.6923076923076923
 40
0.6923076923076923
 40
0.6923076923076923
 40
0.7307692307692307
 40
0.7307692307692307
 40
0.7307692307692307
 40
0.7307692307692307
 40
0.7692307692307693
 40
0.7692307692307693
 40
0.7692307692307693
 40
0.7692307692307693
 40
0.8076923076923077
 40
0.8076923076923077
 40
0.8076923076923077
 40
0.8076923076923077
 40
0.8461538461538461
 40
0.8461538461538461
 40
0.8461538461538461
 40
0.8461538461538461
 40
0.8846153846153846
 40
0.8846153846153846
 40
0.8846153846153846
 40
0.8846153846153846
 40
0.9230769230769231
 40
0.9230769230769231
 40
0.9230769230769231
 40
0.9230769230769231
 40
1.0
 40
1.0
 40
1.0
 40
1.0
 10
34.1129
 20
-17.6826
 30
0.0
 10
34.1129
 20
-17.6826
 30
0.0
 10
33.7791
 20
-17.4381
 30
0.0
 10
33.7791
 20
-17.4381
 30
0.0
 10
33.7791
 20
-17.4381
 30
0.0
 10
33.847
 20
-17.3443
 30
0.0
 10
33.8994
 20
-17.2415
 30
0.0
 10
33.935
 20
-17.1303
 30
0.0
 10
33.935
 20
-17.1303
 30
0.0
 10
33.9706
 20
-17.0184
 30
0.0
 10
33.9887
 20
-16.9013
 30
0.0
 10
33.9887
 20
-16.7784
 30
0.0
 10
33.9887
 20
-16.7784
 30
0.0
 10
33.9887
 20
-16.6523
 30
0.0
 10
33.9699
 20
-16.5301
 30
0.0
 10
33.9331
 20
-16.413
 30
0.0
 10
33.9331
 20
-16.413
 30
0.0
 10
33.8962
 20
-16.296
 30
0.0
 10
33.8412
 20
-16.1873
 30
0.0
 10
33.7675
 20
-16.0877
 30
0.0
 10
33.7675
 20
-16.0877
 30
0.0
 10
33.6944
 20
-15.9875
 30
0.0
 10
33.6026
 20
-15.9001
 30
0.0
 10
33.4926
 20
-15.8251
 30
0.0
 10
33.4926
 20
-15.8251
 30
0.0
 10
33.3827
 20
-15.7507
 30
0.0
 10
33.2546
 20
-15.6925
 30
0.0
 10
33.1078
 20
-15.6505
 30
0.0
 10
33.1078
 20
-15.6505
 30
0.0
 10
32.9616
 20
-15.6091
 30
0.0
 10
32.7974
 20
-15.5878
 30
0.0
 10
32.615
 20
-15.5871
 30
0.0
 10
32.615
 20
-15.5871
 30
0.0
 10
32.4863
 20
-15.5871
 30
0.0
 10
32.364
 20
-15.6
 30
0.0
 10
32.2476
 20
-15.6266
 30
0.0
 10
32.2476
 20
-15.6266
 30
0.0
 10
32.1306
 20
-15.6524
 30
0.0
 10
32.0219
 20
-15.6906
 30
0.0
 10
31.9217
 20
-15.7404
 30
0.0
 10
31.9217
 20
-15.7404
 30
0.0
 10
31.8214
 20
-15.7908
 30
0.0
 10
31.7322
 20
-15.8523
 30
0.0
 10
31.6526
 20
-15.9247
 30
0.0
 10
31.6526
 20
-15.9247
 30
0.0
 10
31.6526
 20
-15.9247
 30
0.0
 10
31.3189
 20
-15.6841
 30
0.0
 10
31.3189
 20
-15.6841
 30
0.0
 10
31.3189
 20
-15.6841
 30
0.0
 10
31.3189
 20
-15.6841
 30
0.0
 10
31.1792
 20
-15.8898
 30
0.0
 10
31.1792
 20
-15.8898
 30
0.0
 10
31.1792
 20
-15.8898
 30
0.0
 10
31.1792
 20
-15.8898
 30
0.0
 10
31.4935
 20
-16.1187
 30
0.0
 10
31.4935
 20
-16.1187
 30
0.0
 10
31.4935
 20
-16.1187
 30
0.0
 10
31.4237
 20
-16.2125
 30
0.0
 10
31.3713
 20
-16.3141
 30
0.0
 10
31.3364
 20
-16.424
 30
0.0
 10
31.3364
 20
-16.424
 30
0.0
 10
31.3014
 20
-16.5346
 30
0.0
 10
31.284
 20
-16.6497
 30
0.0
 10
31.284
 20
-16.7707
 30
0.0
 10
31.284
 20
-16.7707
 30
0.0
 10
31.2846
 20
-16.9433
 30
0.0
 10
31.317
 20
-17.1024
 30
0.0
 10
31.381
 20
-17.2493
 30
0.0
 10
31.381
 20
-17.2493
 30
0.0
 10
31.445
 20
-17.3954
 30
0.0
 10
31.5375
 20
-17.5228
 30
0.0
 10
31.6572
 20
-17.6315
 30
0.0
 10
31.6572
 20
-17.6315
 30
0.0
 10
31.7768
 20
-17.7408
 30
0.0
 10
31.9204
 20
-17.8249
 30
0.0
 10
32.0879
 20
-17.8857
 30
0.0
 10
32.0879
 20
-17.8857
 30
0.0
 10
32.2554
 20
-17.9458
 30
0.0
 10
32.4423
 20
-17.9769
 30
0.0
 10
32.6499
 20
-17.9775
 30
0.0
 10
32.6499
 20
-17.9775
 30
0.0
 10
32.7806
 20
-17.9775
 30
0.0
 10
32.9054
 20
-17.9633
 30
0.0
 10
33.0231
 20
-17.9361
 30
0.0
 10
33.0231
 20
-17.9361
 30
0.0
 10
33.1408
 20
-17.9089
 30
0.0
 10
33.2501
 20
-17.8695
 30
0.0
 10
33.3503
 20
-17.8184
 30
0.0
 10
33.3503
 20
-17.8184
 30
0.0
 10
33.4506
 20
-17.7667
 30
0.0
 10
33.5405
 20
-17.7046
 30
0.0
 10
33.62
 20
-17.6321
 30
0.0
 10
33.62
 20
-17.6321
 30
0.0
 10
33.62
 20
-17.6321
 30
0.0
 10
33.9576
 20
-17.8727
 30
0.0
 10
33.9576
 20
-17.8727
 30
0.0
 10
33.9576
 20
-17.8727
 30
0.0
 10
33.9576
 20
-17.8727
 30
0.0
 10
34.1129
 20
-17.6826
 30
0.0
 10
34.1129
 20
-17.6826
 30
0.0
  0
SPLINE
  5
B7
330
1F
100
AcDbEntity
  8
Ilustrace
 62
   250
100
AcDbSpline
210
0.0
220
0.0
230
1.0
 70
    11
 71
     3
 72
    52
 73
    48
 74
     0
 42
0.0000000001
 43
0.0000000001
 40
0.0
 40
0.0
 40
0.0
 40
0.0
 40
0.0769230769230769
 40
0.0769230769230769
 40
0.0769230769230769
 40
0.0769230769230769
 40
0.1538461538461539
 40
0.1538461538461539
 40
0.1538461538461539
 40
0.1538461538461539
 40
0.2307692307692308
 40
0.2307692307692308
 40
0.2307692307692308
 40
0.2307692307692308
 40
0.3076923076923077
 40
0.3076923076923077
 40
0.3076923076923077
 40
0.3076923076923077
 40
0.3846153846153846
 40
0.3846153846153846
 40
0.3846153846153846
 40
0.3846153846153846
 40
0.4615384615384616
 40
0.4615384615384616
 40
0.4615384615384616
 40
0.4615384615384616
 40
0.5384615384615384
 40
0.5384615384615384
 40
0.5384615384615384
 40
0.5384615384615384
 40
0.6153846153846154
 40
0.6153846153846154
 40
0.6153846153846154
 40
0.6153846153846154
 40
0.6923076923076923
 40
0.6923076923076923
 40
0.6923076923076923
 40
0.6923076923076923
 40
0.7692307692307693
 40
0.7692307692307693
 40
0.7692307692307693
 40
0.7692307692307693
 40
0.8461538461538461
 40
0.8461538461538461
 40
0.8461538461538461
 40
0.8461538461538461
 40
1.0
 40
1.0
 40
1.0
 40
1.0
 10
33.3329
 20
-17.4342
 30
0.0
 10
33.3329
 20
-17.4342
 30
0.0
 10
33.3368
 20
-17.442
 30
0.0
 10
33.3368
 20
-17.442
 30
0.0
 10
33.3368
 20
-17.442
 30
0.0
 10
33.2701
 20
-17.4808
 30
0.0
 10
33.2009
 20
-17.5144
 30
0.0
 10
33.1298
 20
-17.5429
 30
0.0
 10
33.1298
 20
-17.5429
 30
0.0
 10
33.058
 20
-17.5713
 30
0.0
 10
32.9823
 20
-17.5933
 30
0.0
 10
32.9009
 20
-17.6089
 30
0.0
 10
32.9009
 20
-17.6089
 30
0.0
 10
32.82
 20
-17.6244
 30
0.0
 10
32.7308
 20
-17.6321
 30
0.0
 10
32.6344
 20
-17.6321
 30
0.0
 10
32.6344
 20
-17.6321
 30
0.0
 10
32.5231
 20
-17.6321
 30
0.0
 10
32.4158
 20
-17.6205
 30
0.0
 10
32.3104
 20
-17.5979
 30
0.0
 10
32.3104
 20
-17.5979
 30
0.0
 10
32.2056
 20
-17.5746
 30
0.0
 10
32.1073
 20
-17.5403
 30
0.0
 10
32.0167
 20
-17.495
 30
0.0
 10
32.0167
 20
-17.495
 30
0.0
 10
31.9256
 20
-17.4491
 30
0.0
 10
31.8454
 20
-17.3922
 30
0.0
 10
31.7768
 20
-17.3236
 30
0.0
 10
31.7768
 20
-17.3236
 30
0.0
 10
31.7076
 20
-17.2551
 30
0.0
 10
31.6539
 20
-17.1755
 30
0.0
 10
31.6151
 20
-17.085
 30
0.0
 10
31.6151
 20
-17.085
 30
0.0
 10
31.5757
 20
-16.9938
 30
0.0
 10
31.5563
 20
-16.8916
 30
0.0
 10
31.5556
 20
-16.7784
 30
0.0
 10
31.5556
 20
-16.7784
 30
0.0
 10
31.5563
 20
-16.6795
 30
0.0
 10
31.5724
 20
-16.5889
 30
0.0
 10
31.6048
 20
-16.5074
 30
0.0
 10
31.6048
 20
-16.5074
 30
0.0
 10
31.6365
 20
-16.4253
 30
0.0
 10
31.6811
 20
-16.3516
 30
0.0
 10
31.738
 20
-16.2856
 30
0.0
 10
31.738
 20
-16.2856
 30
0.0
 10
31.738
 20
-16.2856
 30
0.0
 10
33.3329
 20
-17.4342
 30
0.0
 10
33.3329
 20
-17.4342
 30
0.0
  0
SPLINE
  5
B8
330
1F
100
AcDbEntity
  8
Ilustrace
 62
   250
100
AcDbSpline
210
0.0
220
0.0
230
1.0
 70
    11
 71
     3
 72
    48
 73
    44
 74
     0
 42
0.0000000001
 43
0.0000000001
 40
0.0
 40
0.0
 40
0.0
 40
0.0
 40
0.0833333333333333
 40
0.0833333333333333
 40
0.0833333333333333
 40
0.0833333333333333
 40
0.1666666666666667
 40
0.1666666666666667
 40
0.1666666666666667
 40
0.1666666666666667
 40
0.25
 40
0.25
 40
0.25
 40
0.25
 40
0.3333333333333333
 40
0.3333333333333333
 40
0.3333333333333333
 40
0.3333333333333333
 40
0.4166666666666667
 40
0.4166666666666667
 40
0.4166666666666667
 40
0.4166666666666667
 40
0.5
 40
0.5
 40
0.5
 40
0.5
 40
0.5833333333333334
 40
0.5833333333333334
 40
0.5833333333333334
 40
0.5833333333333334
 40
0.6666666666666666
 40
0.6666666666666666
 40
0.6666666666666666
 40
0.6666666666666666
 40
0.75
 40
0.75
 40
0.75
 40
0.75
 40
0.8333333333333334
 40
0.8333333333333334
 40
0.8333333333333334
 40
0.8333333333333334
 40
1.0
 40
1.0
 40
1.0
 40
1.0
 10
31.9437
 20
-16.1265
 30
0.0
 10
31.9437
 20
-16.1265
 30
0.0
 10
31.9437
 20
-16.1149
 30
0.0
 10
31.9437
 20
-16.1149
 30
0.0
 10
31.9437
 20
-16.1149
 30
0.0
 10
32.0562
 20
-16.0476
 30
0.0
 10
32.17
 20
-16.0004
 30
0.0
 10
32.2851
 20
-15.9726
 30
0.0
 10
32.2851
 20
-15.9726
 30
0.0
 10
32.3996
 20
-15.9448
 30
0.0
 10
32.5134
 20
-15.9312
 30
0.0
 10
32.6266
 20
-15.9325
 30
0.0
 10
32.6266
 20
-15.9325
 30
0.0
 10
32.7443
 20
-15.9325
 30
0.0
 10
32.8569
 20
-15.9448
 30
0.0
 10
32.9649
 20
-15.9687
 30
0.0
 10
32.9649
 20
-15.9687
 30
0.0
 10
33.0729
 20
-15.9926
 30
0.0
 10
33.1725
 20
-16.0282
 30
0.0
 10
33.2637
 20
-16.0748
 30
0.0
 10
33.2637
 20
-16.0748
 30
0.0
 10
33.3549
 20
-16.122
 30
0.0
 10
33.4344
 20
-16.1795
 30
0.0
 10
33.5017
 20
-16.2481
 30
0.0
 10
33.5017
 20
-16.2481
 30
0.0
 10
33.5696
 20
-16.3173
 30
0.0
 10
33.6226
 20
-16.3962
 30
0.0
 10
33.6601
 20
-16.4854
 30
0.0
 10
33.6601
 20
-16.4854
 30
0.0
 10
33.6976
 20
-16.5747
 30
0.0
 10
33.7164
 20
-16.6737
 30
0.0
 10
33.7171
 20
-16.7823
 30
0.0
 10
33.7171
 20
-16.7823
 30
0.0
 10
33.7171
 20
-16.8877
 30
0.0
 10
33.7009
 20
-16.9802
 30
0.0
 10
33.6692
 20
-17.0585
 30
0.0
 10
33.6692
 20
-17.0585
 30
0.0
 10
33.6375
 20
-17.1374
 30
0.0
 10
33.5909
 20
-17.2079
 30
0.0
 10
33.5308
 20
-17.2713
 30
0.0
 10
33.5308
 20
-17.2713
 30
0.0
 10
33.5308
 20
-17.2713
 30
0.0
 10
31.9437
 20
-16.1265
 30
0.0
 10
31.9437
 20
-16.1265
 30
0.0
  0
SPLINE
  5
B9
330
1F
100
AcDbEntity
  8
Ilustrace
 62
   250
100
AcDbSpline
210
0.0
220
0.0
230
1.0
 70
    11
 71
     3
 72
    48
 73
    44
 74
     0
 42
0.0000000001
 43
0.0000000001
 40
0.0
 40
0.0
 40
0.0
 40
0.0
 40
0.0833333333333333
 40
0.0833333333333333
 40
0.0833333333333333
 40
0.0833333333333333
 40
0.1666666666666667
 40
0.1666666666666667
 40
0.1666666666666667
 40
0.1666666666666667
 40
0.25
 40
0.25
 40
0.25
 40
0.25
 40
0.3333333333333333
 40
0.3333333333333333
 40
0.3333333333333333
 40
0.3333333333333333
 40
0.4166666666666667
 40
0.4166666666666667
 40
0.4166666666666667
 40
0.4166666666666667
 40
0.5
 40
0.5
 40
0.5
 40
0.5
 40
0.5833333333333334
 40
0.5833333333333334
 40
0.5833333333333334
 40
0.5833333333333334
 40
0.6666666666666666
 40
0.6666666666666666
 40
0.6666666666666666
 40
0.6666666666666666
 40
0.75
 40
0.75
 40
0.75
 40
0.75
 40
0.8333333333333334
 40
0.8333333333333334
 40
0.8333333333333334
 40
0.8333333333333334
 40
1.0
 40
1.0
 40
1.0
 40
1.0
 10
33.946
 20
-13.8913
 30
0.0
 10
33.946
 20
-13.8913
 30
0.0
 10
33.2553
 20
-13.8913
 30
0.0
 10
33.2553
 20
-13.8913
 30
0.0
 10
33.2553
 20
-13.8913
 30
0.0
 10
33.2553
 20
-13.8913
 30
0.0
 10
33.2553
 20
-13.5382
 30
0.0
 10
33.2553
 20
-13.5382
 30
0.0
 10
33.2553
 20
-13.5382
 30
0.0
 10
33.2553
 20
-13.5382
 30
0.0
 10
32.9914
 20
-13.5382
 30
0.0
 10
32.9914
 20
-13.5382
 30
0.0
 10
32.9914
 20
-13.5382
 30
0.0
 10
32.9914
 20
-13.5382
 30
0.0
 10
32.9914
 20
-13.8913
 30
0.0
 10
32.9914
 20
-13.8913
 30
0.0
 10
32.9914
 20
-13.8913
 30
0.0
 10
32.9914
 20
-13.8913
 30
0.0
 10
31.4237
 20
-13.8913
 30
0.0
 10
31.4237
 20
-13.8913
 30
0.0
 10
31.4237
 20
-13.8913
 30
0.0
 10
31.4237
 20
-13.8913
 30
0.0
 10
31.4237
 20
-14.2599
 30
0.0
 10
31.4237
 20
-14.2599
 30
0.0
 10
31.4237
 20
-14.2599
 30
0.0
 10
31.4237
 20
-14.2599
 30
0.0
 10
33.0341
 20
-15.3853
 30
0.0
 10
33.0341
 20
-15.3853
 30
0.0
 10
33.0341
 20
-15.3853
 30
0.0
 10
33.0341
 20
-15.3853
 30
0.0
 10
33.2553
 20
-15.3853
 30
0.0
 10
33.2553
 20
-15.3853
 30
0.0
 10
33.2553
 20
-15.3853
 30
0.0
 10
33.2553
 20
-15.3853
 30
0.0
 10
33.2553
 20
-14.2134
 30
0.0
 10
33.2553
 20
-14.2134
 30
0.0
 10
33.2553
 20
-14.2134
 30
0.0
 10
33.2553
 20
-14.2134
 30
0.0
 10
33.946
 20
-14.2134
 30
0.0
 10
33.946
 20
-14.2134
 30
0.0
 10
33.946
 20
-14.2134
 30
0.0
 10
33.946
 20
-14.2134
 30
0.0
 10
33.946
 20
-13.8913
 30
0.0
 10
33.946
 20
-13.8913
 30
0.0
  0
SPLINE
  5
BA
330
1F
100
AcDbEntity
  8
Ilustrace
 62
   250
100
AcDbSpline
210
0.0
220
0.0
230
1.0
 70
    11
 71
     3
 72
    36
 73
    32
 74
     0
 42
0.0000000001
 43
0.0000000001
 40
0.0
 40
0.0
 40
0.0
 40
0.0
 40
0.1111111111111111
 40
0.1111111111111111
 40
0.1111111111111111
 40
0.1111111111111111
 40
0.2222222222222222
 40
0.2222222222222222
 40
0.2222222222222222
 40
0.2222222222222222
 40
0.3333333333333333
 40
0.3333333333333333
 40
0.3333333333333333
 40
0.3333333333333333
 40
0.4444444444444444
 40
0.4444444444444444
 40
0.4444444444444444
 40
0.4444444444444444
 40
0.5555555555555556
 40
0.5555555555555556
 40
0.5555555555555556
 40
0.5555555555555556
 40
0.6666666666666666
 40
0.6666666666666666
 40
0.6666666666666666
 40
0.6666666666666666
 40
0.7777777777777778
 40
0.7777777777777778
 40
0.7777777777777778
 40
0.7777777777777778
 40
1.0
 40
1.0
 40
1.0
 40
1.0
 10
32.9914
 20
-15.0399
 30
0.0
 10
32.9914
 20
-15.0399
 30
0.0
 10
32.9836
 20
-15.0399
 30
0.0
 10
32.9836
 20
-15.0399
 30
0.0
 10
32.9836
 20
-15.0399
 30
0.0
 10
32.9836
 20
-15.0399
 30
0.0
 10
32.126
 20
-14.4229
 30
0.0
 10
32.126
 20
-14.4229
 30
0.0
 10
32.126
 20
-14.4229
 30
0.0
 10
32.0685
 20
-14.3887
 30
0.0
 10
32.0103
 20
-14.3544
 30
0.0
 10
31.9514
 20
-14.3207
 30
0.0
 10
31.9514
 20
-14.3207
 30
0.0
 10
31.8919
 20
-14.2878
 30
0.0
 10
31.826
 20
-14.2515
 30
0.0
 10
31.7535
 20
-14.2134
 30
0.0
 10
31.7535
 20
-14.2134
 30
0.0
 10
31.7535
 20
-14.2134
 30
0.0
 10
31.7535
 20
-14.2017
 30
0.0
 10
31.7535
 20
-14.2017
 30
0.0
 10
31.7535
 20
-14.2017
 30
0.0
 10
31.8855
 20
-14.2095
 30
0.0
 10
32.0174
 20
-14.2134
 30
0.0
 10
32.1493
 20
-14.2134
 30
0.0
 10
32.1493
 20
-14.2134
 30
0.0
 10
32.1493
 20
-14.2134
 30
0.0
 10
32.9914
 20
-14.2134
 30
0.0
 10
32.9914
 20
-14.2134
 30
0.0
 10
32.9914
 20
-14.2134
 30
0.0
 10
32.9914
 20
-14.2134
 30
0.0
 10
32.9914
 20
-15.0399
 30
0.0
 10
32.9914
 20
-15.0399
 30
0.0
  0
SPLINE
  5
BB
330
1F
100
AcDbEntity
  8
Ilustrace
 62
   250
100
AcDbSpline
210
0.0
220
0.0
230
1.0
 70
    11
 71
     3
 72
    56
 73
    52
 74
     0
 42
0.0000000001
 43
0.0000000001
 40
0.0
 40
0.0
 40
0.0
 40
0.0
 40
0.0714285714285714
 40
0.0714285714285714
 40
0.0714285714285714
 40
0.0714285714285714
 40
0.1428571428571428
 40
0.1428571428571428
 40
0.1428571428571428
 40
0.1428571428571428
 40
0.2142857142857143
 40
0.2142857142857143
 40
0.2142857142857143
 40
0.2142857142857143
 40
0.2857142857142857
 40
0.2857142857142857
 40
0.2857142857142857
 40
0.2857142857142857
 40
0.3571428571428572
 40
0.3571428571428572
 40
0.3571428571428572
 40
0.3571428571428572
 40
0.4285714285714285
 40
0.4285714285714285
 40
0.4285714285714285
 40
0.4285714285714285
 40
0.5
 40
0.5
 40
0.5
 40
0.5
 40
0.5714285714285714
 40
0.5714285714285714
 40
0.5714285714285714
 40
0.5714285714285714
 40
0.6428571428571429
 40
0.6428571428571429
 40
0.6428571428571429
 40
0.6428571428571429
 40
0.7142857142857143
 40
0.7142857142857143
 40
0.7142857142857143
 40
0.7142857142857143
 40
0.7857142857142857
 40
0.7857142857142857
 40
0.7857142857142857
 40
0.7857142857142857
 40
0.8571428571428571
 40
0.8571428571428571
 40
0.8571428571428571
 40
0.8571428571428571
 40
1.0
 40
1.0
 40
1.0
 40
1.0
 10
31.381
 20
-12.4322
 30
0.0
 10
31.381
 20
-12.5609
 30
0.0
 10
31.4094
 20
-12.6786
 30
0.0
 10
31.4664
 20
-12.786
 30
0.0
 10
31.4664
 20
-12.786
 30
0.0
 10
31.5233
 20
-12.8934
 30
0.0
 10
31.6067
 20
-12.9858
 30
0.0
 10
31.7179
 20
-13.0647
 30
0.0
 10
31.7179
 20
-13.0647
 30
0.0
 10
31.8292
 20
-13.1437
 30
0.0
 10
31.9663
 20
-13.2044
 30
0.0
 10
32.1293
 20
-13.2478
 30
0.0
 10
32.1293
 20
-13.2478
 30
0.0
 10
32.2923
 20
-13.2905
 30
0.0
 10
32.4798
 20
-13.3125
 30
0.0
 10
32.6926
 20
-13.3131
 30
0.0
 10
32.6926
 20
-13.3131
 30
0.0
 10
32.9713
 20
-13.3092
 30
0.0
 10
33.2068
 20
-13.2724
 30
0.0
 10
33.3995
 20
-13.2019
 30
0.0
 10
33.3995
 20
-13.2019
 30
0.0
 10
33.5922
 20
-13.1314
 30
0.0
 10
33.7384
 20
-13.0337
 30
0.0
 10
33.838
 20
-12.9095
 30
0.0
 10
33.838
 20
-12.9095
 30
0.0
 10
33.9376
 20
-12.7854
 30
0.0
 10
33.988
 20
-12.6405
 30
0.0
 10
33.9887
 20
-12.4749
 30
0.0
 10
33.9887
 20
-12.4749
 30
0.0
 10
33.988
 20
-12.2893
 30
0.0
 10
33.9363
 20
-12.1315
 30
0.0
 10
33.8341
 20
-12.0008
 30
0.0
 10
33.8341
 20
-12.0008
 30
0.0
 10
33.7319
 20
-11.8702
 30
0.0
 10
33.5819
 20
-11.7706
 30
0.0
 10
33.384
 20
-11.702
 30
0.0
 10
33.384
 20
-11.702
 30
0.0
 10
33.1861
 20
-11.6328
 30
0.0
 10
32.9442
 20
-11.5986
 30
0.0
 10
32.6577
 20
-11.5979
 30
0.0
 10
32.6577
 20
-11.5979
 30
0.0
 10
32.3893
 20
-11.5986
 30
0.0
 10
32.1597
 20
-11.6316
 30
0.0
 10
31.9695
 20
-11.6969
 30
0.0
 10
31.9695
 20
-11.6969
 30
0.0
 10
31.7794
 20
-11.7622
 30
0.0
 10
31.6339
 20
-11.8573
 30
0.0
 10
31.5336
 20
-11.9814
 30
0.0
 10
31.5336
 20
-11.9814
 30
0.0
 10
31.4327
 20
-12.1056
 30
0.0
 10
31.3816
 20
-12.2557
 30
0.0
 10
31.381
 20
-12.4322
 30
0.0
  0
SPLINE
  5
BC
330
1F
100
AcDbEntity
  8
Ilustrace
 62
   250
100
AcDbSpline
210
0.0
220
0.0
230
1.0
 70
    11
 71
     3
 72
    56
 73
    52
 74
     0
 42
0.0000000001
 43
0.0000000001
 40
0.0
 40
0.0
 40
0.0
 40
0.0
 40
0.0714285714285714
 40
0.0714285714285714
 40
0.0714285714285714
 40
0.0714285714285714
 40
0.1428571428571428
 40
0.1428571428571428
 40
0.1428571428571428
 40
0.1428571428571428
 40
0.2142857142857143
 40
0.2142857142857143
 40
0.2142857142857143
 40
0.2142857142857143
 40
0.2857142857142857
 40
0.2857142857142857
 40
0.2857142857142857
 40
0.2857142857142857
 40
0.3571428571428572
 40
0.3571428571428572
 40
0.3571428571428572
 40
0.3571428571428572
 40
0.4285714285714285
 40
0.4285714285714285
 40
0.4285714285714285
 40
0.4285714285714285
 40
0.5
 40
0.5
 40
0.5
 40
0.5
 40
0.5714285714285714
 40
0.5714285714285714
 40
0.5714285714285714
 40
0.5714285714285714
 40
0.6428571428571429
 40
0.6428571428571429
 40
0.6428571428571429
 40
0.6428571428571429
 40
0.7142857142857143
 40
0.7142857142857143
 40
0.7142857142857143
 40
0.7142857142857143
 40
0.7857142857142857
 40
0.7857142857142857
 40
0.7857142857142857
 40
0.7857142857142857
 40
0.8571428571428571
 40
0.8571428571428571
 40
0.8571428571428571
 40
0.8571428571428571
 40
1.0
 40
1.0
 40
1.0
 40
1.0
 10
31.6449
 20
-12.4555
 30
0.0
 10
31.6455
 20
-12.3663
 30
0.0
 10
31.6694
 20
-12.2893
 30
0.0
 10
31.7179
 20
-12.2246
 30
0.0
 10
31.7179
 20
-12.2246
 30
0.0
 10
31.7665
 20
-12.1599
 30
0.0
 10
31.8357
 20
-12.1069
 30
0.0
 10
31.9262
 20
-12.0655
 30
0.0
 10
31.9262
 20
-12.0655
 30
0.0
 10
32.0161
 20
-12.0241
 30
0.0
 10
32.1248
 20
-11.9931
 30
0.0
 10
32.2502
 20
-11.973
 30
0.0
 10
32.2502
 20
-11.973
 30
0.0
 10
32.3763
 20
-11.953
 30
0.0
 10
32.5173
 20
-11.9433
 30
0.0
 10
32.6732
 20
-11.9433
 30
0.0
 10
32.6732
 20
-11.9433
 30
0.0
 10
32.8892
 20
-11.9433
 30
0.0
 10
33.0755
 20
-11.962
 30
0.0
 10
33.232
 20
-11.9996
 30
0.0
 10
33.232
 20
-11.9996
 30
0.0
 10
33.3891
 20
-12.0364
 30
0.0
 10
33.5101
 20
-12.0933
 30
0.0
 10
33.5955
 20
-12.169
 30
0.0
 10
33.5955
 20
-12.169
 30
0.0
 10
33.6808
 20
-12.2447
 30
0.0
 10
33.7235
 20
-12.3404
 30
0.0
 10
33.7248
 20
-12.4555
 30
0.0
 10
33.7248
 20
-12.4555
 30
0.0
 10
33.7242
 20
-12.5596
 30
0.0
 10
33.6841
 20
-12.6495
 30
0.0
 10
33.6039
 20
-12.7265
 30
0.0
 10
33.6039
 20
-12.7265
 30
0.0
 10
33.5237
 20
-12.8028
 30
0.0
 10
33.4073
 20
-12.8617
 30
0.0
 10
33.2546
 20
-12.9037
 30
0.0
 10
33.2546
 20
-12.9037
 30
0.0
 10
33.1013
 20
-12.9457
 30
0.0
 10
32.9157
 20
-12.9671
 30
0.0
 10
32.6965
 20
-12.9677
 30
0.0
 10
32.6965
 20
-12.9677
 30
0.0
 10
32.4669
 20
-12.9671
 30
0.0
 10
32.2748
 20
-12.9445
 30
0.0
 10
32.1183
 20
-12.9005
 30
0.0
 10
32.1183
 20
-12.9005
 30
0.0
 10
31.9624
 20
-12.8565
 30
0.0
 10
31.8447
 20
-12.7963
 30
0.0
 10
31.7645
 20
-12.7194
 30
0.0
 10
31.7645
 20
-12.7194
 30
0.0
 10
31.685
 20
-12.6424
 30
0.0
 10
31.6449
 20
-12.5545
 30
0.0
 10
31.6449
 20
-12.4555
 30
0.0
  0
SPLINE
  5
BD
330
1F
100
AcDbEntity
  8
Ilustrace
 62
   250
370
    30
100
AcDbSpline
210
0.0
220
0.0
230
1.0
 70
    24
 71
     3
 72
     8
 73
     4
 74
     0
 42
0.0000000001
 43
0.0000000001
 40
0.0
 40
0.0
 40
0.0
 40
0.0
 40
1.0
 40
1.0
 40
1.0
 40
1.0
 10
-21.9855
 20
6.9428
 30
0.0
 10
-21.9855
 20
6.9428
 30
0.0
 10
-21.9855
 20
3.83
 30
0.0
 10
-21.9855
 20
3.83
 30
0.0
  0
SPLINE
  5
BE
330
1F
100
AcDbEntity
  8
Ilustrace
 62
   250
370
    30
100
AcDbSpline
210
0.0
220
0.0
230
1.0
 70
    24
 71
     3
 72
     8
 73
     4
 74
     0
 42
0.0000000001
 43
0.0000000001
 40
0.0
 40
0.0
 40
0.0
 40
0.0
 40
1.0
 40
1.0
 40
1.0
 40
1.0
 10
-21.9856
 20
6.9427
 30
0.0
 10
-21.9856
 20
6.9427
 30
0.0
 10
14.5775
 20
6.9427
 30
0.0
 10
14.5775
 20
6.9427
 30
0.0
  0
SPLINE
  5
BF
330
1F
100
AcDbEntity
  8
Ilustrace
 62
   250
370
    30
100
AcDbSpline
210
0.0
220
0.0
230
1.0
 70
    24
 71
     3
 72
     8
 73
     4
 74
     0
 42
0.0000000001
 43
0.0000000001
 40
0.0
 40
0.0
 40
0.0
 40
0.0
 40
1.0
 40
1.0
 40
1.0
 40
1.0
 10
14.5776
 20
6.9428
 30
0.0
 10
14.5776
 20
6.9428
 30
0.0
 10
14.5776
 20
3.7859
 30
0.0
 10
14.5776
 20
3.7859
 30
0.0
  0
SPLINE
  5
C0
330
1F
100
AcDbEntity
  8
Ilustrace
 62
   250
370
    30
100
AcDbSpline
210
0.0
220
0.0
230
1.0
 70
     8
 71
     3
 72
    16
 73
    12
 74
     0
 42
0.0000000001
 43
0.0000000001
 40
0.0
 40
0.0
 40
0.0
 40
0.0
 40
0.25
 40
0.25
 40
0.25
 40
0.25
 40
0.5
 40
0.5
 40
0.5
 40
0.5
 40
1.0
 40
1.0
 40
1.0
 40
1.0
 10
26.9578
 20
-3.2314
 30
0.0
 10
26.9578
 20
-3.2314
 30
0.0
 10
20.9801
 20
-3.2314
 30
0.0
 10
20.9801
 20
-3.2314
 30
0.0
 10
20.9801
 20
-3.2314
 30
0.0
 10
20.9801
 20
-3.2314
 30
0.0
 10
20.9626
 20
-26.8034
 30
0.0
 10
20.9626
 20
-26.8034
 30
0.0
 10
20.9626
 20
-26.8034
 30
0.0
 10
20.9626
 20
-26.8034
 30
0.0
 10
27.0192
 20
-26.8034
 30
0.0
 10
27.0192
 20
-26.8034
 30
0.0
  0
SPLINE
  5
C1
330
1F
100
AcDbEntity
  8
Ilustrace
 62
   250
370
    30
100
AcDbSpline
210
0.0
220
0.0
230
1.0
 70
     8
 71
     3
 72
   124
 73
   120
 74
     0
 42
0.0000000001
 43
0.0000000001
 40
0.0
 40
0.0
 40
0.0
 40
0.0
 40
0.032258064516129
 40
0.032258064516129
 40
0.032258064516129
 40
0.032258064516129
 40
0.0645161290322581
 40
0.0645161290322581
 40
0.0645161290322581
 40
0.0645161290322581
 40
0.0967741935483871
 40
0.0967741935483871
 40
0.0967741935483871
 40
0.0967741935483871
 40
0.1290322580645161
 40
0.1290322580645161
 40
0.1290322580645161
 40
0.1290322580645161
 40
0.1612903225806452
 40
0.1612903225806452
 40
0.1612903225806452
 40
0.1612903225806452
 40
0.1935483870967742
 40
0.1935483870967742
 40
0.1935483870967742
 40
0.1935483870967742
 40
0.2258064516129032
 40
0.2258064516129032
 40
0.2258064516129032
 40
0.2258064516129032
 40
0.2580645161290323
 40
0.2580645161290323
 40
0.2580645161290323
 40
0.2580645161290323
 40
0.2903225806451613
 40
0.2903225806451613
 40
0.2903225806451613
 40
0.2903225806451613
 40
0.3225806451612903
 40
0.3225806451612903
 40
0.3225806451612903
 40
0.3225806451612903
 40
0.3548387096774194
 40
0.3548387096774194
 40
0.3548387096774194
 40
0.3548387096774194
 40
0.3870967741935484
 40
0.3870967741935484
 40
0.3870967741935484
 40
0.3870967741935484
 40
0.4193548387096774
 40
0.4193548387096774
 40
0.4193548387096774
 40
0.4193548387096774
 40
0.4516129032258064
 40
0.4516129032258064
 40
0.4516129032258064
 40
0.4516129032258064
 40
0.4838709677419355
 40
0.4838709677419355
 40
0.4838709677419355
 40
0.4838709677419355
 40
0.5161290322580645
 40
0.5161290322580645
 40
0.5161290322580645
 40
0.5161290322580645
 40
0.5483870967741935
 40
0.5483870967741935
 40
0.5483870967741935
 40
0.5483870967741935
 40
0.5806451612903226
 40
0.5806451612903226
 40
0.5806451612903226
 40
0.5806451612903226
 40
0.6129032258064516
 40
0.6129032258064516
 40
0.6129032258064516
 40
0.6129032258064516
 40
0.6451612903225806
 40
0.6451612903225806
 40
0.6451612903225806
 40
0.6451612903225806
 40
0.6774193548387096
 40
0.6774193548387096
 40
0.6774193548387096
 40
0.6774193548387096
 40
0.7096774193548387
 40
0.7096774193548387
 40
0.7096774193548387
 40
0.7096774193548387
 40
0.7419354838709677
 40
0.7419354838709677
 40
0.7419354838709677
 40
0.7419354838709677
 40
0.7741935483870968
 40
0.7741935483870968
 40
0.7741935483870968
 40
0.7741935483870968
 40
0.8064516129032258
 40
0.8064516129032258
 40
0.8064516129032258
 40
0.8064516129032258
 40
0.8387096774193549
 40
0.8387096774193549
 40
0.8387096774193549
 40
0.8387096774193549
 40
0.8709677419354839
 40
0.8709677419354839
 40
0.8709677419354839
 40
0.8709677419354839
 40
0.9032258064516129
 40
0.9032258064516129
 40
0.9032258064516129
 40
0.9032258064516129
 40
0.9354838709677419
 40
0.9354838709677419
 40
0.9354838709677419
 40
0.9354838709677419
 40
1.0
 40
1.0
 40
1.0
 40
1.0
 10
26.1038
 20
-26.6836
 30
0.0
 10
26.1038
 20
-26.6836
 30
0.0
 10
22.261
 20
-26.6836
 30
0.0
 10
22.261
 20
-26.6836
 30
0.0
 10
22.261
 20
-26.6836
 30
0.0
 10
22.261
 20
-26.6836
 30
0.0
 10
22.2674
 20
-23.9399
 30
0.0
 10
22.2674
 20
-23.9399
 30
0.0
 10
22.2674
 20
-23.9399
 30
0.0
 10
22.2674
 20
-23.9399
 30
0.0
 10
26.3656
 20
-23.9069
 30
0.0
 10
26.3656
 20
-23.9069
 30
0.0
 10
26.3656
 20
-23.9069
 30
0.0
 10
26.3656
 20
-23.9069
 30
0.0
 10
26.6631
 20
-23.7416
 30
0.0
 10
26.6631
 20
-23.7416
 30
0.0
 10
26.6631
 20
-23.7416
 30
0.0
 10
26.6631
 20
-23.7416
 30
0.0
 10
26.9605
 20
-23.4111
 30
0.0
 10
26.9605
 20
-23.4111
 30
0.0
 10
26.9605
 20
-23.4111
 30
0.0
 10
26.9605
 20
-23.4111
 30
0.0
 10
26.9605
 20
-23.1137
 30
0.0
 10
26.9605
 20
-23.1137
 30
0.0
 10
26.9605
 20
-23.1137
 30
0.0
 10
26.9605
 20
-23.1137
 30
0.0
 10
26.7953
 20
-22.9154
 30
0.0
 10
26.7953
 20
-22.9154
 30
0.0
 10
26.7953
 20
-22.9154
 30
0.0
 10
26.7953
 20
-22.9154
 30
0.0
 10
26.597
 20
-22.7171
 30
0.0
 10
26.597
 20
-22.7171
 30
0.0
 10
26.597
 20
-22.7171
 30
0.0
 10
26.597
 20
-22.7171
 30
0.0
 10
26.1343
 20
-22.684
 30
0.0
 10
26.1343
 20
-22.684
 30
0.0
 10
26.1343
 20
-22.684
 30
0.0
 10
26.1343
 20
-22.684
 30
0.0
 10
22.3335
 20
-22.651
 30
0.0
 10
22.3335
 20
-22.651
 30
0.0
 10
22.3335
 20
-22.651
 30
0.0
 10
22.3335
 20
-22.651
 30
0.0
 10
22.2674
 20
-15.7765
 30
0.0
 10
22.2674
 20
-15.7765
 30
0.0
 10
22.2674
 20
-15.7765
 30
0.0
 10
22.2674
 20
-15.7765
 30
0.0
 10
26.1012
 20
-15.8095
 30
0.0
 10
26.1012
 20
-15.8095
 30
0.0
 10
26.1012
 20
-15.8095
 30
0.0
 10
26.1012
 20
-15.8095
 30
0.0
 10
26.4648
 20
-15.7104
 30
0.0
 10
26.4648
 20
-15.7104
 30
0.0
 10
26.4648
 20
-15.7104
 30
0.0
 10
26.4648
 20
-15.7104
 30
0.0
 10
26.7622
 20
-15.5121
 30
0.0
 10
26.7622
 20
-15.5121
 30
0.0
 10
26.7622
 20
-15.5121
 30
0.0
 10
26.7622
 20
-15.5121
 30
0.0
 10
26.9275
 20
-15.1816
 30
0.0
 10
26.9275
 20
-15.1816
 30
0.0
 10
26.9275
 20
-15.1816
 30
0.0
 10
26.9275
 20
-15.1816
 30
0.0
 10
26.9275
 20
-14.785
 30
0.0
 10
26.9275
 20
-14.785
 30
0.0
 10
26.9275
 20
-14.785
 30
0.0
 10
26.9275
 20
-14.785
 30
0.0
 10
26.7953
 20
-14.4875
 30
0.0
 10
26.7953
 20
-14.4875
 30
0.0
 10
26.7953
 20
-14.4875
 30
0.0
 10
26.7953
 20
-14.4875
 30
0.0
 10
26.5309
 20
-14.2562
 30
0.0
 10
26.5309
 20
-14.2562
 30
0.0
 10
26.5309
 20
-14.2562
 30
0.0
 10
26.5309
 20
-14.2562
 30
0.0
 10
26.2004
 20
-14.157
 30
0.0
 10
26.2004
 20
-14.157
 30
0.0
 10
26.2004
 20
-14.157
 30
0.0
 10
26.2004
 20
-14.157
 30
0.0
 10
22.3004
 20
-14.1901
 30
0.0
 10
22.3004
 20
-14.1901
 30
0.0
 10
22.3004
 20
-14.1901
 30
0.0
 10
22.3004
 20
-14.1901
 30
0.0
 10
22.2674
 20
-7.2826
 30
0.0
 10
22.2674
 20
-7.2826
 30
0.0
 10
22.2674
 20
-7.2826
 30
0.0
 10
22.2674
 20
-7.2826
 30
0.0
 10
26.2633
 20
-7.274
 30
0.0
 10
26.2633
 20
-7.274
 30
0.0
 10
26.2633
 20
-7.274
 30
0.0
 10
26.2633
 20
-7.274
 30
0.0
 10
26.6858
 20
-7.1495
 30
0.0
 10
26.6858
 20
-7.1495
 30
0.0
 10
26.6858
 20
-7.1495
 30
0.0
 10
26.6858
 20
-7.1495
 30
0.0
 10
26.9591
 20
-6.8009
 30
0.0
 10
26.9591
 20
-6.8009
 30
0.0
 10
26.9591
 20
-6.8009
 30
0.0
 10
26.9591
 20
-6.8009
 30
0.0
 10
26.9591
 20
-6.5271
 30
0.0
 10
26.9591
 20
-6.5271
 30
0.0
 10
26.9591
 20
-6.5271
 30
0.0
 10
26.9591
 20
-6.5271
 30
0.0
 10
26.8348
 20
-6.2781
 30
0.0
 10
26.8348
 20
-6.2781
 30
0.0
 10
26.8348
 20
-6.2781
 30
0.0
 10
26.8348
 20
-6.2781
 30
0.0
 10
26.4373
 20
-6.1288
 30
0.0
 10
26.4373
 20
-6.1288
 30
0.0
 10
26.4373
 20
-6.1288
 30
0.0
 10
26.4373
 20
-6.1288
 30
0.0
 10
26.1639
 20
-6.0789
 30
0.0
 10
26.1639
 20
-6.0789
 30
0.0
 10
26.1639
 20
-6.0789
 30
0.0
 10
26.1639
 20
-6.0789
 30
0.0
 10
22.2632
 20
-6.0789
 30
0.0
 10
22.2632
 20
-6.0789
 30
0.0
 10
22.2632
 20
-6.0789
 30
0.0
 10
22.2632
 20
-6.0789
 30
0.0
 10
22.2632
 20
-3.191
 30
0.0
 10
22.2632
 20
-3.191
 30
0.0
  0
SPLINE
  5
C2
330
1F
100
AcDbEntity
  8
Ilustrace
 62
   250
370
    30
100
AcDbSpline
210
0.0
220
0.0
230
1.0
 70
     8
 71
     3
 72
    36
 73
    32
 74
     0
 42
0.0000000001
 43
0.0000000001
 40
0.0
 40
0.0
 40
0.0
 40
0.0
 40
0.1111111111111111
 40
0.1111111111111111
 40
0.1111111111111111
 40
0.1111111111111111
 40
0.2222222222222222
 40
0.2222222222222222
 40
0.2222222222222222
 40
0.2222222222222222
 40
0.3333333333333333
 40
0.3333333333333333
 40
0.3333333333333333
 40
0.3333333333333333
 40
0.4444444444444444
 40
0.4444444444444444
 40
0.4444444444444444
 40
0.4444444444444444
 40
0.5555555555555556
 40
0.5555555555555556
 40
0.5555555555555556
 40
0.5555555555555556
 40
0.6666666666666666
 40
0.6666666666666666
 40
0.6666666666666666
 40
0.6666666666666666
 40
0.7777777777777778
 40
0.7777777777777778
 40
0.7777777777777778
 40
0.7777777777777778
 40
1.0
 40
1.0
 40
1.0
 40
1.0
 10
22.2497
 20
-3.44
 30
0.0
 10
22.2497
 20
-3.44
 30
0.0
 10
27.5533
 20
-3.4446
 30
0.0
 10
28.0249
 20
-3.4446
 30
0.0
 10
28.0249
 20
-3.4446
 30
0.0
 10
28.4965
 20
-3.4446
 30
0.0
 10
28.879
 20
-3.8277
 30
0.0
 10
28.879
 20
-4.2992
 30
0.0
 10
28.879
 20
-4.2992
 30
0.0
 10
28.879
 20
-4.7706
 30
0.0
 10
28.8952
 20
-25.643
 30
0.0
 10
28.8952
 20
-25.643
 30
0.0
 10
28.8952
 20
-25.643
 30
0.0
 10
28.8952
 20
-25.643
 30
0.0
 10
28.7727
 20
-25.9805
 30
0.0
 10
28.7727
 20
-25.9805
 30
0.0
 10
28.7727
 20
-25.9805
 30
0.0
 10
28.7727
 20
-25.9805
 30
0.0
 10
28.6181
 20
-26.2777
 30
0.0
 10
28.6181
 20
-26.2777
 30
0.0
 10
28.6181
 20
-26.2777
 30
0.0
 10
28.6181
 20
-26.2777
 30
0.0
 10
28.3685
 20
-26.456
 30
0.0
 10
28.3685
 20
-26.456
 30
0.0
 10
28.3685
 20
-26.456
 30
0.0
 10
28.3685
 20
-26.456
 30
0.0
 10
28.0951
 20
-26.5036
 30
0.0
 10
28.0951
 20
-26.5036
 30
0.0
 10
28.0951
 20
-26.5036
 30
0.0
 10
28.0951
 20
-26.5036
 30
0.0
 10
22.2344
 20
-26.4917
 30
0.0
 10
22.2344
 20
-26.4917
 30
0.0
  0
SPLINE
  5
C3
330
1F
100
AcDbEntity
  8
Ilustrace
 62
   250
370
    30
100
AcDbSpline
210
0.0
220
0.0
230
1.0
 70
    24
 71
     3
 72
     8
 73
     4
 74
     0
 42
0.0000000001
 43
0.0000000001
 40
0.0
 40
0.0
 40
0.0
 40
0.0
 40
1.0
 40
1.0
 40
1.0
 40
1.0
 10
19.7227
 20
-4.5809
 30
0.0
 10
19.7227
 20
-4.5809
 30
0.0
 10
19.1275
 20
-25.0242
 30
0.0
 10
19.1275
 20
-25.0242
 30
0.0
  0
SPLINE
  5
C4
330
1F
100
AcDbEntity
  8
Ilustrace
 62
   250
370
    30
100
AcDbSpline
210
0.0
220
0.0
230
1.0
 70
    24
 71
     3
 72
     8
 73
     4
 74
     0
 42
0.0000000001
 43
0.0000000001
 40
0.0
 40
0.0
 40
0.0
 40
0.0
 40
1.0
 40
1.0
 40
1.0
 40
1.0
 10
20.7208
 20
-4.6246
 30
0.0
 10
20.7208
 20
-4.6246
 30
0.0
 10
20.2248
 20
-25.0844
 30
0.0
 10
20.2248
 20
-25.0844
 30
0.0
  0
SPLINE
  5
C5
330
1F
100
AcDbEntity
  8
Ilustrace
 62
   250
370
    30
100
AcDbSpline
210
0.0
220
0.0
230
1.0
 70
    24
 71
     3
 72
     8
 73
     4
 74
     0
 42
0.0000000001
 43
0.0000000001
 40
0.0
 40
0.0
 40
0.0
 40
0.0
 40
1.0
 40
1.0
 40
1.0
 40
1.0
 10
18.2317
 20
2.8744
 30
0.0
 10
18.2317
 20
2.8744
 30
0.0
 10
-25.3865
 20
2.8744
 30
0.0
 10
-25.3865
 20
2.8744
 30
0.0
  0
SPLINE
  5
C6
330
1F
100
AcDbEntity
  8
Ilustrace
 62
   250
370
    30
100
AcDbSpline
210
0.0
220
0.0
230
1.0
 70
     8
 71
     3
 72
     8
 73
     4
 74
     0
 42
0.0000000001
 43
0.0000000001
 40
0.0
 40
0.0
 40
0.0
 40
0.0
 40
1.0
 40
1.0
 40
1.0
 40
1.0
 10
-25.3865
 20
2.8744
 30
0.0
 10
-25.3842
 20
2.9484
 30
0.0
 10
-25.5168
 20
3.7368
 30
0.0
 10
-25.1481
 20
3.7381
 30
0.0
  0
SPLINE
  5
C7
330
1F
100
AcDbEntity
  8
Ilustrace
 62
   250
370
    30
100
AcDbSpline
210
0.0
220
0.0
230
1.0
 70
    24
 71
     3
 72
    16
 73
    12
 74
     0
 42
0.0000000001
 43
0.0000000001
 40
0.0
 40
0.0
 40
0.0
 40
0.0
 40
0.25
 40
0.25
 40
0.25
 40
0.25
 40
0.5
 40
0.5
 40
0.5
 40
0.5
 40
1.0
 40
1.0
 40
1.0
 40
1.0
 10
-25.1481
 20
3.7381
 30
0.0
 10
-25.1481
 20
3.7381
 30
0.0
 10
-24.2841
 20
3.7381
 30
0.0
 10
-24.2841
 20
3.7381
 30
0.0
 10
-24.2841
 20
3.7381
 30
0.0
 10
-24.2841
 20
3.7381
 30
0.0
 10
17.1294
 20
3.7381
 30
0.0
 10
17.1294
 20
3.7381
 30
0.0
 10
17.1294
 20
3.7381
 30
0.0
 10
17.1294
 20
3.7381
 30
0.0
 10
17.9929
 20
3.7381
 30
0.0
 10
17.9929
 20
3.7381
 30
0.0
  0
SPLINE
  5
C8
330
1F
100
AcDbEntity
  8
Ilustrace
 62
   250
370
    30
100
AcDbSpline
210
0.0
220
0.0
230
1.0
 70
     8
 71
     3
 72
     8
 73
     4
 74
     0
 42
0.0000000001
 43
0.0000000001
 40
0.0
 40
0.0
 40
0.0
 40
0.0
 40
1.0
 40
1.0
 40
1.0
 40
1.0
 10
17.9929
 20
3.7381
 30
0.0
 10
18.3624
 20
3.7065
 30
0.0
 10
18.2262
 20
3.029
 30
0.0
 10
18.2317
 20
2.8744
 30
0.0
  0
SPLINE
  5
C9
330
1F
100
AcDbEntity
  8
Ilustrace
 62
   250
370
    30
100
AcDbSpline
210
0.0
220
0.0
230
1.0
 70
    24
 71
     3
 72
     8
 73
     4
 74
     0
 42
0.0000000001
 43
0.0000000001
 40
0.0
 40
0.0
 40
0.0
 40
0.0
 40
1.0
 40
1.0
 40
1.0
 40
1.0
 10
18.2317
 20
2.8744
 30
0.0
 10
18.2317
 20
2.8744
 30
0.0
 10
-25.3868
 20
2.8744
 30
0.0
 10
-25.3868
 20
2.8744
 30
0.0
  0
SPLINE
  5
CA
330
1F
100
AcDbEntity
  8
Ilustrace
 62
   250
370
    30
100
AcDbSpline
210
0.0
220
0.0
230
1.0
 70
    24
 71
     3
 72
     8
 73
     4
 74
     0
 42
0.0000000001
 43
0.0000000001
 40
0.0
 40
0.0
 40
0.0
 40
0.0
 40
1.0
 40
1.0
 40
1.0
 40
1.0
 10
19.3487
 20
-25.0147
 30
0.0
 10
19.3487
 20
-25.0147
 30
0.0
 10
19.6026
 20
-24.5241
 30
0.0
 10
19.6026
 20
-24.5241
 30
0.0
  0
SPLINE
  5
CB
330
1F
100
AcDbEntity
  8
Ilustrace
 62
   250
370
    30
100
AcDbSpline
210
0.0
220
0.0
230
1.0
 70
    24
 71
     3
 72
     8
 73
     4
 74
     0
 42
0.0000000001
 43
0.0000000001
 40
0.0
 40
0.0
 40
0.0
 40
0.0
 40
1.0
 40
1.0
 40
1.0
 40
1.0
 10
20.0838
 20
-24.9559
 30
0.0
 10
20.0838
 20
-24.9559
 30
0.0
 10
20.1032
 20
-25.0075
 30
0.0
 10
20.1032
 20
-25.0075
 30
0.0
  0
SPLINE
  5
CC
330
1F
100
AcDbEntity
  8
Ilustrace
 62
   250
370
    30
100
AcDbSpline
210
0.0
220
0.0
230
1.0
 70
    24
 71
     3
 72
     8
 73
     4
 74
     0
 42
0.0000000001
 43
0.0000000001
 40
0.0
 40
0.0
 40
0.0
 40
0.0
 40
1.0
 40
1.0
 40
1.0
 40
1.0
 10
15.5802
 20
-24.5151
 30
0.0
 10
15.5802
 20
-24.5151
 30
0.0
 10
15.4156
 20
-24.497
 30
0.0
 10
15.4156
 20
-24.497
 30
0.0
  0
SPLINE
  5
CD
330
1F
100
AcDbEntity
  8
Ilustrace
 62
   250
370
    30
100
AcDbSpline
210
0.0
220
0.0
230
1.0
 70
     8
 71
     3
 72
    12
 73
     8
 74
     0
 42
0.0000000001
 43
0.0000000001
 40
0.0
 40
0.0
 40
0.0
 40
0.0
 40
0.3333333333333333
 40
0.3333333333333333
 40
0.3333333333333333
 40
0.3333333333333333
 40
1.0
 40
1.0
 40
1.0
 40
1.0
 10
20.222
 20
-25.0892
 30
0.0
 10
20.5185
 20
-25.0289
 30
0.0
 10
20.4227
 20
-24.4834
 30
0.0
 10
20.7208
 20
-24.4504
 30
0.0
 10
20.7208
 20
-24.4504
 30
0.0
 10
20.8231
 20
-24.4615
 30
0.0
 10
20.8791
 20
-24.5313
 30
0.0
 10
20.9203
 20
-24.6213
 30
0.0
  0
SPLINE
  5
CE
330
1F
100
AcDbEntity
  8
Ilustrace
 62
   250
370
    30
100
AcDbSpline
210
0.0
220
0.0
230
1.0
 70
     8
 71
     3
 72
     8
 73
     4
 74
     0
 42
0.0000000001
 43
0.0000000001
 40
0.0
 40
0.0
 40
0.0
 40
0.0
 40
1.0
 40
1.0
 40
1.0
 40
1.0
 10
19.2672
 20
-25.0543
 30
0.0
 10
19.2215
 20
-25.0764
 30
0.0
 10
19.0981
 20
-25.0979
 30
0.0
 10
19.0955
 20
-25.0016
 30
0.0
  0
SPLINE
  5
CF
330
1F
100
AcDbEntity
  8
Ilustrace
 62
   250
370
    30
100
AcDbSpline
210
0.0
220
0.0
230
1.0
 70
    24
 71
     3
 72
    16
 73
    12
 74
     0
 42
0.0000000001
 43
0.0000000001
 40
0.0
 40
0.0
 40
0.0
 40
0.0
 40
0.25
 40
0.25
 40
0.25
 40
0.25
 40
0.5
 40
0.5
 40
0.5
 40
0.5
 40
1.0
 40
1.0
 40
1.0
 40
1.0
 10
19.0955
 20
-25.0016
 30
0.0
 10
19.0955
 20
-25.0016
 30
0.0
 10
19.0955
 20
-24.1379
 30
0.0
 10
19.0955
 20
-24.1379
 30
0.0
 10
19.0955
 20
-24.1379
 30
0.0
 10
19.0955
 20
-24.1379
 30
0.0
 10
19.0955
 20
-5.9835
 30
0.0
 10
19.0955
 20
-5.9835
 30
0.0
 10
19.0955
 20
-5.9835
 30
0.0
 10
19.0955
 20
-5.9835
 30
0.0
 10
19.0955
 20
-5.1199
 30
0.0
 10
19.0955
 20
-5.1199
 30
0.0
  0
SPLINE
  5
D0
330
1F
100
AcDbEntity
  8
Ilustrace
 62
   250
370
    30
100
AcDbSpline
210
0.0
220
0.0
230
1.0
 70
     8
 71
     3
 72
    16
 73
    12
 74
     0
 42
0.0000000001
 43
0.0000000001
 40
0.0
 40
0.0
 40
0.0
 40
0.0
 40
0.25
 40
0.25
 40
0.25
 40
0.25
 40
0.5
 40
0.5
 40
0.5
 40
0.5
 40
1.0
 40
1.0
 40
1.0
 40
1.0
 10
20.8387
 20
-4.6588
 30
0.0
 10
20.5913
 20
-4.3872
 30
0.0
 10
20.3581
 20
-5.1126
 30
0.0
 10
20.3436
 20
-5.14
 30
0.0
 10
20.3436
 20
-5.14
 30
0.0
 10
20.3248
 20
-5.1758
 30
0.0
 10
20.2912
 20
-5.2017
 30
0.0
 10
20.252
 20
-5.2105
 30
0.0
 10
20.252
 20
-5.2105
 30
0.0
 10
20.2024
 20
-5.2215
 30
0.0
 10
20.1501
 20
-5.2034
 30
0.0
 10
20.1176
 20
-5.1645
 30
0.0
  0
SPLINE
  5
D1
330
1F
100
AcDbEntity
  8
Ilustrace
 62
   250
370
    30
100
AcDbSpline
210
0.0
220
0.0
230
1.0
 70
     8
 71
     3
 72
    12
 73
     8
 74
     0
 42
0.0000000001
 43
0.0000000001
 40
0.0
 40
0.0
 40
0.0
 40
0.0
 40
0.3333333333333333
 40
0.3333333333333333
 40
0.3333333333333333
 40
0.3333333333333333
 40
1.0
 40
1.0
 40
1.0
 40
1.0
 10
20.1176
 20
-5.1645
 30
0.0
 10
20.1176
 20
-5.1645
 30
0.0
 10
20.1012
 20
-5.14
 30
0.0
 10
20.1012
 20
-5.14
 30
0.0
 10
20.1012
 20
-5.14
 30
0.0
 10
20.1012
 20
-5.14
 30
0.0
 10
19.8555
 20
-4.6692
 30
0.0
 10
19.8555
 20
-4.6692
 30
0.0
  0
SPLINE
  5
D2
330
1F
100
AcDbEntity
  8
Ilustrace
 62
   250
370
    30
100
AcDbSpline
210
0.0
220
0.0
230
1.0
 70
     8
 71
     3
 72
    16
 73
    12
 74
     0
 42
0.0000000001
 43
0.0000000001
 40
0.0
 40
0.0
 40
0.0
 40
0.0
 40
0.25
 40
0.25
 40
0.25
 40
0.25
 40
0.5
 40
0.5
 40
0.5
 40
0.5
 40
1.0
 40
1.0
 40
1.0
 40
1.0
 10
19.8555
 20
-4.6692
 30
0.0
 10
19.8359
 20
-4.6325
 30
0.0
 10
19.8073
 20
-4.5831
 30
0.0
 10
19.7579
 20
-4.5828
 30
0.0
 10
19.7579
 20
-4.5828
 30
0.0
 10
19.4936
 20
-4.5805
 30
0.0
 10
19.4375
 20
-4.9637
 30
0.0
 10
19.3413
 20
-5.1455
 30
0.0
 10
19.3413
 20
-5.1455
 30
0.0
 10
19.2793
 20
-5.2623
 30
0.0
 10
19.1453
 20
-5.2133
 30
0.0
 10
19.0955
 20
-5.1199
 30
0.0
  0
SPLINE
  5
D3
330
1F
100
AcDbEntity
  8
Ilustrace
 62
   250
370
    30
100
AcDbSpline
210
0.0
220
0.0
230
1.0
 70
    24
 71
     3
 72
     8
 73
     4
 74
     0
 42
0.0000000001
 43
0.0000000001
 40
0.0
 40
0.0
 40
0.0
 40
0.0
 40
1.0
 40
1.0
 40
1.0
 40
1.0
 10
19.0955
 20
-5.3312
 30
0.0
 10
19.0955
 20
-5.3312
 30
0.0
 10
18.2317
 20
-5.3312
 30
0.0
 10
18.2317
 20
-5.3312
 30
0.0
  0
SPLINE
  5
D4
330
1F
100
AcDbEntity
  8
Ilustrace
 62
   250
370
    30
100
AcDbSpline
210
0.0
220
0.0
230
1.0
 70
     8
 71
     3
 72
     8
 73
     4
 74
     0
 42
0.0000000001
 43
0.0000000001
 40
0.0
 40
0.0
 40
0.0
 40
0.0
 40
1.0
 40
1.0
 40
1.0
 40
1.0
 10
18.2317
 20
-5.3312
 30
0.0
 10
17.9268
 20
-5.3312
 30
0.0
 10
16.9407
 20
-5.5276
 30
0.0
 10
16.9362
 20
-4.8993
 30
0.0
  0
SPLINE
  5
D5
330
1F
100
AcDbEntity
  8
Ilustrace
 62
   250
370
    30
100
AcDbSpline
210
0.0
220
0.0
230
1.0
 70
    24
 71
     3
 72
    12
 73
     8
 74
     0
 42
0.0000000001
 43
0.0000000001
 40
0.0
 40
0.0
 40
0.0
 40
0.0
 40
0.3333333333333333
 40
0.3333333333333333
 40
0.3333333333333333
 40
0.3333333333333333
 40
1.0
 40
1.0
 40
1.0
 40
1.0
 10
16.9362
 20
-4.8993
 30
0.0
 10
16.9362
 20
-4.8993
 30
0.0
 10
16.9362
 20
-4.0354
 30
0.0
 10
16.9362
 20
-4.0354
 30
0.0
 10
16.9362
 20
-4.0354
 30
0.0
 10
16.9362
 20
-4.0354
 30
0.0
 10
16.9362
 20
0.2833
 30
0.0
 10
16.9362
 20
0.2833
 30
0.0
  0
SPLINE
  5
D6
330
1F
100
AcDbEntity
  8
Ilustrace
 62
   250
370
    30
100
AcDbSpline
210
0.0
220
0.0
230
1.0
 70
     8
 71
     3
 72
     8
 73
     4
 74
     0
 42
0.0000000001
 43
0.0000000001
 40
0.0
 40
0.0
 40
0.0
 40
0.0
 40
1.0
 40
1.0
 40
1.0
 40
1.0
 10
16.9362
 20
0.2833
 30
0.0
 10
16.9362
 20
0.6814
 30
0.0
 10
16.7406
 20
1.524
 30
0.0
 10
17.368
 20
1.5788
 30
0.0
  0
SPLINE
  5
D7
330
1F
100
AcDbEntity
  8
Ilustrace
 62
   250
370
    30
100
AcDbSpline
210
0.0
220
0.0
230
1.0
 70
    24
 71
     3
 72
     8
 73
     4
 74
     0
 42
0.0000000001
 43
0.0000000001
 40
0.0
 40
0.0
 40
0.0
 40
0.0
 40
1.0
 40
1.0
 40
1.0
 40
1.0
 10
18.2317
 20
2.8744
 30
0.0
 10
18.2317
 20
2.8744
 30
0.0
 10
18.2317
 20
2.0105
 30
0.0
 10
18.2317
 20
2.0105
 30
0.0
  0
SPLINE
  5
D8
330
1F
100
AcDbEntity
  8
Ilustrace
 62
   250
370
    30
100
AcDbSpline
210
0.0
220
0.0
230
1.0
 70
     8
 71
     3
 72
     8
 73
     4
 74
     0
 42
0.0000000001
 43
0.0000000001
 40
0.0
 40
0.0
 40
0.0
 40
0.0
 40
1.0
 40
1.0
 40
1.0
 40
1.0
 10
18.2317
 20
2.0105
 30
0.0
 10
18.2273
 20
1.3824
 30
0.0
 10
17.2412
 20
1.5788
 30
0.0
 10
16.9362
 20
1.5788
 30
0.0
  0
SPLINE
  5
D9
330
1F
100
AcDbEntity
  8
Ilustrace
 62
   250
370
    30
100
AcDbSpline
210
0.0
220
0.0
230
1.0
 70
    24
 71
     3
 72
     8
 73
     4
 74
     0
 42
0.0000000001
 43
0.0000000001
 40
0.0
 40
0.0
 40
0.0
 40
0.0
 40
1.0
 40
1.0
 40
1.0
 40
1.0
 10
16.9362
 20
1.5788
 30
0.0
 10
16.9362
 20
1.5788
 30
0.0
 10
-24.0911
 20
1.5788
 30
0.0
 10
-24.0911
 20
1.5788
 30
0.0
  0
SPLINE
  5
DA
330
1F
100
AcDbEntity
  8
Ilustrace
 62
   250
370
    30
100
AcDbSpline
210
0.0
220
0.0
230
1.0
 70
     8
 71
     3
 72
     8
 73
     4
 74
     0
 42
0.0000000001
 43
0.0000000001
 40
0.0
 40
0.0
 40
0.0
 40
0.0
 40
1.0
 40
1.0
 40
1.0
 40
1.0
 10
-24.0911
 20
1.5788
 30
0.0
 10
-24.3959
 20
1.5788
 30
0.0
 10
-25.3824
 20
1.3824
 30
0.0
 10
-25.3865
 20
2.0105
 30
0.0
  0
SPLINE
  5
DB
330
1F
100
AcDbEntity
  8
Ilustrace
 62
   250
370
    30
100
AcDbSpline
210
0.0
220
0.0
230
1.0
 70
    24
 71
     3
 72
     8
 73
     4
 74
     0
 42
0.0000000001
 43
0.0000000001
 40
0.0
 40
0.0
 40
0.0
 40
0.0
 40
1.0
 40
1.0
 40
1.0
 40
1.0
 10
-25.3865
 20
2.0105
 30
0.0
 10
-25.3865
 20
2.0105
 30
0.0
 10
-25.3865
 20
2.8744
 30
0.0
 10
-25.3865
 20
2.8744
 30
0.0
  0
SPLINE
  5
DC
330
1F
100
AcDbEntity
  8
Ilustrace
 62
   250
370
    30
100
AcDbSpline
210
0.0
220
0.0
230
1.0
 70
     8
 71
     3
 72
     8
 73
     4
 74
     0
 42
0.0000000001
 43
0.0000000001
 40
0.0
 40
0.0
 40
0.0
 40
0.0
 40
1.0
 40
1.0
 40
1.0
 40
1.0
 10
-24.523
 20
1.5788
 30
0.0
 10
-23.8956
 20
1.524
 30
0.0
 10
-24.0911
 20
0.6814
 30
0.0
 10
-24.0911
 20
0.2833
 30
0.0
  0
SPLINE
  5
DD
330
1F
100
AcDbEntity
  8
Ilustrace
 62
   250
370
    30
100
AcDbSpline
210
0.0
220
0.0
230
1.0
 70
    24
 71
     3
 72
     8
 73
     4
 74
     0
 42
0.0000000001
 43
0.0000000001
 40
0.0
 40
0.0
 40
0.0
 40
0.0
 40
1.0
 40
1.0
 40
1.0
 40
1.0
 10
-24.0911
 20
0.2833
 30
0.0
 10
-24.0911
 20
0.2833
 30
0.0
 10
-24.0911
 20
-15.5798
 30
0.0
 10
-24.0911
 20
-15.5798
 30
0.0
  0
SPLINE
  5
DE
330
1F
100
AcDbEntity
  8
Ilustrace
 62
   250
370
    30
100
AcDbSpline
210
0.0
220
0.0
230
1.0
 70
     8
 71
     3
 72
    16
 73
    12
 74
     0
 42
0.0000000001
 43
0.0000000001
 40
0.0
 40
0.0
 40
0.0
 40
0.0
 40
0.25
 40
0.25
 40
0.25
 40
0.25
 40
0.5
 40
0.5
 40
0.5
 40
0.5
 40
1.0
 40
1.0
 40
1.0
 40
1.0
 10
-24.0911
 20
-15.5798
 30
0.0
 10
-24.0911
 20
-16.1986
 30
0.0
 10
-24.1951
 20
-16.8532
 30
0.0
 10
-23.733
 20
-17.3378
 30
0.0
 10
-23.733
 20
-17.3378
 30
0.0
 10
-23.6575
 20
-17.4172
 30
0.0
 10
-23.5718
 20
-17.4866
 30
0.0
 10
-23.4785
 20
-17.5447
 30
0.0
 10
-23.4785
 20
-17.5447
 30
0.0
 10
-23.1055
 20
-17.7759
 30
0.0
 10
-22.5636
 20
-17.8002
 30
0.0
 10
-22.1699
 20
-17.8695
 30
0.0
  0
SPLINE
  5
DF
330
1F
100
AcDbEntity
  8
Ilustrace
 62
   250
370
    30
100
AcDbSpline
210
0.0
220
0.0
230
1.0
 70
     8
 71
     3
 72
    16
 73
    12
 74
     0
 42
0.0000000001
 43
0.0000000001
 40
0.0
 40
0.0
 40
0.0
 40
0.0
 40
0.25
 40
0.25
 40
0.25
 40
0.25
 40
0.5
 40
0.5
 40
0.5
 40
0.5
 40
1.0
 40
1.0
 40
1.0
 40
1.0
 10
-22.1699
 20
-17.8695
 30
0.0
 10
-22.1699
 20
-17.8695
 30
0.0
 10
14.565
 20
-24.3469
 30
0.0
 10
14.565
 20
-24.3469
 30
0.0
 10
14.565
 20
-24.3469
 30
0.0
 10
14.565
 20
-24.3469
 30
0.0
 10
15.4156
 20
-24.497
 30
0.0
 10
15.4156
 20
-24.497
 30
0.0
 10
15.4156
 20
-24.497
 30
0.0
 10
15.4156
 20
-24.497
 30
0.0
 10
15.5802
 20
-24.5151
 30
0.0
 10
15.5802
 20
-24.5151
 30
0.0
  0
SPLINE
  5
E0
330
1F
100
AcDbEntity
  8
Ilustrace
 62
   250
370
    30
100
AcDbSpline
210
0.0
220
0.0
230
1.0
 70
     8
 71
     3
 72
     8
 73
     4
 74
     0
 42
0.0000000001
 43
0.0000000001
 40
0.0
 40
0.0
 40
0.0
 40
0.0
 40
1.0
 40
1.0
 40
1.0
 40
1.0
 10
15.5802
 20
-24.5151
 30
0.0
 10
15.8398
 20
-24.5105
 30
0.0
 10
16.0415
 20
-24.4525
 30
0.0
 10
16.2799
 20
-24.3551
 30
0.0
  0
SPLINE
  5
E1
330
1F
100
AcDbEntity
  8
Ilustrace
 62
   250
370
    30
100
AcDbSpline
210
0.0
220
0.0
230
1.0
 70
     8
 71
     3
 72
     8
 73
     4
 74
     0
 42
0.0000000001
 43
0.0000000001
 40
0.0
 40
0.0
 40
0.0
 40
0.0
 40
1.0
 40
1.0
 40
1.0
 40
1.0
 10
16.2334
 20
-24.3682
 30
0.0
 10
16.5707
 20
-24.2731
 30
0.0
 10
16.9347
 20
-24.3332
 30
0.0
 10
17.279
 20
-24.3332
 30
0.0
  0
SPLINE
  5
E2
330
1F
100
AcDbEntity
  8
Ilustrace
 62
   250
370
    30
100
AcDbSpline
210
0.0
220
0.0
230
1.0
 70
    24
 71
     3
 72
    12
 73
     8
 74
     0
 42
0.0000000001
 43
0.0000000001
 40
0.0
 40
0.0
 40
0.0
 40
0.0
 40
0.3333333333333333
 40
0.3333333333333333
 40
0.3333333333333333
 40
0.3333333333333333
 40
1.0
 40
1.0
 40
1.0
 40
1.0
 10
17.279
 20
-24.3332
 30
0.0
 10
17.279
 20
-24.3332
 30
0.0
 10
18.2317
 20
-24.3332
 30
0.0
 10
18.2317
 20
-24.3332
 30
0.0
 10
18.2317
 20
-24.3332
 30
0.0
 10
18.2317
 20
-24.3332
 30
0.0
 10
19.0955
 20
-24.3332
 30
0.0
 10
19.0955
 20
-24.3332
 30
0.0
  0
SPLINE
  5
E3
330
1F
100
AcDbEntity
  8
Ilustrace
 62
   250
370
    30
100
AcDbSpline
210
0.0
220
0.0
230
1.0
 70
     8
 71
     3
 72
    16
 73
    12
 74
     0
 42
0.0000000001
 43
0.0000000001
 40
0.0
 40
0.0
 40
0.0
 40
0.0
 40
0.25
 40
0.25
 40
0.25
 40
0.25
 40
0.5
 40
0.5
 40
0.5
 40
0.5
 40
1.0
 40
1.0
 40
1.0
 40
1.0
 10
19.619
 20
-24.4996
 30
0.0
 10
19.6514
 20
-24.4683
 30
0.0
 10
19.6789
 20
-24.4554
 30
0.0
 10
19.7238
 20
-24.4504
 30
0.0
 10
19.7238
 20
-24.4504
 30
0.0
 10
19.9412
 20
-24.4743
 30
0.0
 10
20.0716
 20
-24.9646
 30
0.0
 10
20.0959
 20
-25.0102
 30
0.0
 10
20.0959
 20
-25.0102
 30
0.0
 10
20.1196
 20
-25.0551
 30
0.0
 10
20.1842
 20
-25.0624
 30
0.0
 10
20.222
 20
-25.0892
 30
0.0
  0
SPLINE
  5
E4
330
1F
100
AcDbEntity
  8
Ilustrace
 62
   250
370
    30
100
AcDbSpline
210
0.0
220
0.0
230
1.0
 70
     8
 71
     3
 72
     8
 73
     4
 74
     0
 42
0.0000000001
 43
0.0000000001
 40
0.0
 40
0.0
 40
0.0
 40
0.0
 40
1.0
 40
1.0
 40
1.0
 40
1.0
 10
19.3411
 20
-25.0153
 30
0.0
 10
19.3132
 20
-25.0505
 30
0.0
 10
19.3061
 20
-25.0596
 30
0.0
 10
19.2616
 20
-25.0569
 30
0.0
  0
SPLINE
  5
E5
330
1F
100
AcDbEntity
  8
Ilustrace
 62
   250
370
    30
100
AcDbSpline
210
0.0
220
0.0
230
1.0
 70
     8
 71
     3
 72
     8
 73
     4
 74
     0
 42
0.0000000001
 43
0.0000000001
 40
0.0
 40
0.0
 40
0.0
 40
0.0
 40
1.0
 40
1.0
 40
1.0
 40
1.0
 10
-20.0566
 20
-18.249
 30
0.0
 10
-19.593
 20
-18.4651
 30
0.0
 10
-19.7725
 20
-19.132
 30
0.0
 10
-19.7725
 20
-19.5184
 30
0.0
  0
SPLINE
  5
E6
330
1F
100
AcDbEntity
  8
Ilustrace
 62
   250
370
    30
100
AcDbSpline
210
0.0
220
0.0
230
1.0
 70
     8
 71
     3
 72
    16
 73
    12
 74
     0
 42
0.0000000001
 43
0.0000000001
 40
0.0
 40
0.0
 40
0.0
 40
0.0
 40
0.25
 40
0.25
 40
0.25
 40
0.25
 40
0.5
 40
0.5
 40
0.5
 40
0.5
 40
1.0
 40
1.0
 40
1.0
 40
1.0
 10
-19.7725
 20
-19.5184
 30
0.0
 10
-19.7725
 20
-19.5184
 30
0.0
 10
-19.7725
 20
-25.1967
 30
0.0
 10
-19.7725
 20
-25.1967
 30
0.0
 10
-19.7725
 20
-25.1967
 30
0.0
 10
-19.7725
 20
-25.1967
 30
0.0
 10
-19.7725
 20
-26.0607
 30
0.0
 10
-19.7725
 20
-26.0607
 30
0.0
 10
-19.7725
 20
-26.0607
 30
0.0
 10
-19.7725
 20
-26.0607
 30
0.0
 10
-19.7612
 20
-26.2298
 30
0.0
 10
-19.7612
 20
-26.2298
 30
0.0
  0
SPLINE
  5
E7
330
1F
100
AcDbEntity
  8
Ilustrace
 62
   250
370
    30
100
AcDbSpline
210
0.0
220
0.0
230
1.0
 70
     8
 71
     3
 72
     8
 73
     4
 74
     0
 42
0.0000000001
 43
0.0000000001
 40
0.0
 40
0.0
 40
0.0
 40
0.0
 40
1.0
 40
1.0
 40
1.0
 40
1.0
 10
-19.7612
 20
-26.2298
 30
0.0
 10
-19.6733
 20
-26.8973
 30
0.0
 10
-19.1202
 20
-27.3141
 30
0.0
 10
-18.4767
 20
-27.3564
 30
0.0
  0
SPLINE
  5
E8
330
1F
100
AcDbEntity
  8
Ilustrace
 62
   250
370
    30
100
AcDbSpline
210
0.0
220
0.0
230
1.0
 70
    24
 71
     3
 72
    12
 73
     8
 74
     0
 42
0.0000000001
 43
0.0000000001
 40
0.0
 40
0.0
 40
0.0
 40
0.0
 40
0.3333333333333333
 40
0.3333333333333333
 40
0.3333333333333333
 40
0.3333333333333333
 40
1.0
 40
1.0
 40
1.0
 40
1.0
 10
-18.4767
 20
-27.3564
 30
0.0
 10
-18.4767
 20
-27.3564
 30
0.0
 10
-17.6132
 20
-27.3564
 30
0.0
 10
-17.6132
 20
-27.3564
 30
0.0
 10
-17.6132
 20
-27.3564
 30
0.0
 10
-17.6132
 20
-27.3564
 30
0.0
 10
10.4581
 20
-27.3564
 30
0.0
 10
10.4581
 20
-27.3564
 30
0.0
  0
SPLINE
  5
E9
330
1F
100
AcDbEntity
  8
Ilustrace
 62
   250
370
    30
100
AcDbSpline
210
0.0
220
0.0
230
1.0
 70
     8
 71
     3
 72
    20
 73
    16
 74
     0
 42
0.0000000001
 43
0.0000000001
 40
0.0
 40
0.0
 40
0.0
 40
0.0
 40
0.2
 40
0.2
 40
0.2
 40
0.2
 40
0.4
 40
0.4
 40
0.4
 40
0.4
 40
0.6
 40
0.6
 40
0.6
 40
0.6
 40
1.0
 40
1.0
 40
1.0
 40
1.0
 10
10.4581
 20
-27.3564
 30
0.0
 10
10.865
 20
-27.3564
 30
0.0
 10
11.4052
 20
-27.428
 30
0.0
 10
11.8164
 20
-27.2579
 30
0.0
 10
11.8164
 20
-27.2579
 30
0.0
 10
11.9212
 20
-27.2148
 30
0.0
 10
12.0196
 20
-27.1578
 30
0.0
 10
12.1099
 20
-27.0891
 30
0.0
 10
12.1099
 20
-27.0891
 30
0.0
 10
12.6985
 20
-26.638
 30
0.0
 10
12.6173
 20
-25.9588
 30
0.0
 10
12.6173
 20
-25.2895
 30
0.0
 10
12.6173
 20
-25.2895
 30
0.0
 10
12.6173
 20
-24.893
 30
0.0
 10
12.4514
 20
-24.2331
 30
0.0
 10
12.9732
 20
-24.0931
 30
0.0
  0
SPLINE
  5
EA
330
1F
100
AcDbEntity
  8
Ilustrace
 62
   250
370
    30
100
AcDbSpline
210
0.0
220
0.0
230
1.0
 70
    24
 71
     3
 72
     8
 73
     4
 74
     0
 42
0.0000000001
 43
0.0000000001
 40
0.0
 40
0.0
 40
0.0
 40
0.0
 40
1.0
 40
1.0
 40
1.0
 40
1.0
 10
12.8948
 20
-24.1012
 30
0.0
 10
12.8948
 20
-24.1012
 30
0.0
 10
13.0494
 20
-24.0862
 30
0.0
 10
13.0494
 20
-24.0862
 30
0.0
  0
SPLINE
  5
EB
330
1F
100
AcDbEntity
  8
Ilustrace
 62
   250
370
    30
100
AcDbSpline
210
0.0
220
0.0
230
1.0
 70
     8
 71
     3
 72
     8
 73
     4
 74
     0
 42
0.0000000001
 43
0.0000000001
 40
0.0
 40
0.0
 40
0.0
 40
0.0
 40
1.0
 40
1.0
 40
1.0
 40
1.0
 10
16.2215
 20
-24.3791
 30
0.0
 10
16.5982
 20
-24.034
 30
0.0
 10
16.3773
 20
-23.4913
 30
0.0
 10
16.2156
 20
-23.1019
 30
0.0
  0
SPLINE
  5
EC
330
1F
100
AcDbEntity
  8
Ilustrace
 62
   250
370
    30
100
AcDbSpline
210
0.0
220
0.0
230
1.0
 70
    24
 71
     3
 72
     8
 73
     4
 74
     0
 42
0.0000000001
 43
0.0000000001
 40
0.0
 40
0.0
 40
0.0
 40
0.0
 40
1.0
 40
1.0
 40
1.0
 40
1.0
 10
16.2156
 20
-23.1019
 30
0.0
 10
16.2156
 20
-23.1019
 30
0.0
 10
16.0425
 20
-22.6605
 30
0.0
 10
16.0425
 20
-22.6605
 30
0.0
  0
SPLINE
  5
ED
330
1F
100
AcDbEntity
  8
Ilustrace
 62
   250
370
    30
100
AcDbSpline
210
0.0
220
0.0
230
1.0
 70
     8
 71
     3
 72
    16
 73
    12
 74
     0
 42
0.0000000001
 43
0.0000000001
 40
0.0
 40
0.0
 40
0.0
 40
0.0
 40
0.25
 40
0.25
 40
0.25
 40
0.25
 40
0.5
 40
0.5
 40
0.5
 40
0.5
 40
1.0
 40
1.0
 40
1.0
 40
1.0
 10
16.0425
 20
-22.6605
 30
0.0
 10
15.4487
 20
-21.105
 30
0.0
 10
14.9831
 20
-19.4972
 30
0.0
 10
14.723
 20
-17.8511
 30
0.0
 10
14.723
 20
-17.8511
 30
0.0
 10
14.4716
 20
-16.259
 30
0.0
 10
14.4161
 20
-14.6401
 30
0.0
 10
14.5684
 20
-13.0357
 30
0.0
 10
14.5684
 20
-13.0357
 30
0.0
 10
14.8361
 20
-10.2142
 30
0.0
 10
15.7231
 20
-7.4528
 30
0.0
 10
16.9362
 20
-4.8993
 30
0.0
  0
SPLINE
  5
EE
330
1F
100
AcDbEntity
  8
Ilustrace
 62
   250
370
    13
100
AcDbSpline
210
0.0
220
0.0
230
1.0
 70
    24
 71
     3
 72
     8
 73
     4
 74
     0
 42
0.0000000001
 43
0.0000000001
 40
0.0
 40
0.0
 40
0.0
 40
0.0
 40
1.0
 40
1.0
 40
1.0
 40
1.0
 10
-32.5833
 20
6.715
 30
0.0
 10
-32.5833
 20
6.715
 30
0.0
 10
-32.5833
 20
-25.7884
 30
0.0
 10
-32.5833
 20
-25.7884
 30
0.0
  0
SPLINE
  5
EF
330
1F
100
AcDbEntity
  8
Ilustrace
 62
   250
100
AcDbSpline
210
0.0
220
0.0
230
1.0
 70
    11
 71
     3
 72
    36
 73
    32
 74
     0
 42
0.0000000001
 43
0.0000000001
 40
0.0
 40
0.0
 40
0.0
 40
0.0
 40
0.1111111111111111
 40
0.1111111111111111
 40
0.1111111111111111
 40
0.1111111111111111
 40
0.2222222222222222
 40
0.2222222222222222
 40
0.2222222222222222
 40
0.2222222222222222
 40
0.3333333333333333
 40
0.3333333333333333
 40
0.3333333333333333
 40
0.3333333333333333
 40
0.4444444444444444
 40
0.4444444444444444
 40
0.4444444444444444
 40
0.4444444444444444
 40
0.5555555555555556
 40
0.5555555555555556
 40
0.5555555555555556
 40
0.5555555555555556
 40
0.6666666666666666
 40
0.6666666666666666
 40
0.6666666666666666
 40
0.6666666666666666
 40
0.7777777777777778
 40
0.7777777777777778
 40
0.7777777777777778
 40
0.7777777777777778
 40
1.0
 40
1.0
 40
1.0
 40
1.0
 10
-35.4817
 20
-11.4276
 30
0.0
 10
-35.4817
 20
-11.4276
 30
0.0
 10
-35.1984
 20
-11.4276
 30
0.0
 10
-35.1984
 20
-11.4276
 30
0.0
 10
-35.1984
 20
-11.4276
 30
0.0
 10
-35.1984
 20
-11.4276
 30
0.0
 10
-35.1984
 20
-10.1936
 30
0.0
 10
-35.1984
 20
-10.1936
 30
0.0
 10
-35.1984
 20
-10.1936
 30
0.0
 10
-35.1984
 20
-10.1936
 30
0.0
 10
-35.1906
 20
-10.1936
 30
0.0
 10
-35.1906
 20
-10.1936
 30
0.0
 10
-35.1906
 20
-10.1936
 30
0.0
 10
-35.1906
 20
-10.1936
 30
0.0
 10
-32.9593
 20
-11.2879
 30
0.0
 10
-32.9593
 20
-11.2879
 30
0.0
 10
-32.9593
 20
-11.2879
 30
0.0
 10
-32.9593
 20
-11.2879
 30
0.0
 10
-32.9593
 20
-10.9348
 30
0.0
 10
-32.9593
 20
-10.9348
 30
0.0
 10
-32.9593
 20
-10.9348
 30
0.0
 10
-32.9593
 20
-10.9348
 30
0.0
 10
-35.2566
 20
-9.8366
 30
0.0
 10
-35.2566
 20
-9.8366
 30
0.0
 10
-35.2566
 20
-9.8366
 30
0.0
 10
-35.2566
 20
-9.8366
 30
0.0
 10
-35.4817
 20
-9.8366
 30
0.0
 10
-35.4817
 20
-9.8366
 30
0.0
 10
-35.4817
 20
-9.8366
 30
0.0
 10
-35.4817
 20
-9.8366
 30
0.0
 10
-35.4817
 20
-11.4276
 30
0.0
 10
-35.4817
 20
-11.4276
 30
0.0
  0
SPLINE
  5
F0
330
1F
100
AcDbEntity
  8
Ilustrace
 62
   250
100
AcDbSpline
210
0.0
220
0.0
230
1.0
 70
    11
 71
     3
 72
   124
 73
   120
 74
     0
 42
0.0000000001
 43
0.0000000001
 40
0.0
 40
0.0
 40
0.0
 40
0.0
 40
0.032258064516129
 40
0.032258064516129
 40
0.032258064516129
 40
0.032258064516129
 40
0.0645161290322581
 40
0.0645161290322581
 40
0.0645161290322581
 40
0.0645161290322581
 40
0.0967741935483871
 40
0.0967741935483871
 40
0.0967741935483871
 40
0.0967741935483871
 40
0.1290322580645161
 40
0.1290322580645161
 40
0.1290322580645161
 40
0.1290322580645161
 40
0.1612903225806452
 40
0.1612903225806452
 40
0.1612903225806452
 40
0.1612903225806452
 40
0.1935483870967742
 40
0.1935483870967742
 40
0.1935483870967742
 40
0.1935483870967742
 40
0.2258064516129032
 40
0.2258064516129032
 40
0.2258064516129032
 40
0.2258064516129032
 40
0.2580645161290323
 40
0.2580645161290323
 40
0.2580645161290323
 40
0.2580645161290323
 40
0.2903225806451613
 40
0.2903225806451613
 40
0.2903225806451613
 40
0.2903225806451613
 40
0.3225806451612903
 40
0.3225806451612903
 40
0.3225806451612903
 40
0.3225806451612903
 40
0.3548387096774194
 40
0.3548387096774194
 40
0.3548387096774194
 40
0.3548387096774194
 40
0.3870967741935484
 40
0.3870967741935484
 40
0.3870967741935484
 40
0.3870967741935484
 40
0.4193548387096774
 40
0.4193548387096774
 40
0.4193548387096774
 40
0.4193548387096774
 40
0.4516129032258064
 40
0.4516129032258064
 40
0.4516129032258064
 40
0.4516129032258064
 40
0.4838709677419355
 40
0.4838709677419355
 40
0.4838709677419355
 40
0.4838709677419355
 40
0.5161290322580645
 40
0.5161290322580645
 40
0.5161290322580645
 40
0.5161290322580645
 40
0.5483870967741935
 40
0.5483870967741935
 40
0.5483870967741935
 40
0.5483870967741935
 40
0.5806451612903226
 40
0.5806451612903226
 40
0.5806451612903226
 40
0.5806451612903226
 40
0.6129032258064516
 40
0.6129032258064516
 40
0.6129032258064516
 40
0.6129032258064516
 40
0.6451612903225806
 40
0.6451612903225806
 40
0.6451612903225806
 40
0.6451612903225806
 40
0.6774193548387096
 40
0.6774193548387096
 40
0.6774193548387096
 40
0.6774193548387096
 40
0.7096774193548387
 40
0.7096774193548387
 40
0.7096774193548387
 40
0.7096774193548387
 40
0.7419354838709677
 40
0.7419354838709677
 40
0.7419354838709677
 40
0.7419354838709677
 40
0.7741935483870968
 40
0.7741935483870968
 40
0.7741935483870968
 40
0.7741935483870968
 40
0.8064516129032258
 40
0.8064516129032258
 40
0.8064516129032258
 40
0.8064516129032258
 40
0.8387096774193549
 40
0.8387096774193549
 40
0.8387096774193549
 40
0.8387096774193549
 40
0.8709677419354839
 40
0.8709677419354839
 40
0.8709677419354839
 40
0.8709677419354839
 40
0.9032258064516129
 40
0.9032258064516129
 40
0.9032258064516129
 40
0.9032258064516129
 40
0.9354838709677419
 40
0.9354838709677419
 40
0.9354838709677419
 40
0.9354838709677419
 40
1.0
 40
1.0
 40
1.0
 40
1.0
 10
-32.9205
 20
-9.2856
 30
0.0
 10
-32.9186
 20
-9.2448
 30
0.0
 10
-32.9186
 20
-9.1976
 30
0.0
 10
-32.9218
 20
-9.1446
 30
0.0
 10
-32.9218
 20
-9.1446
 30
0.0
 10
-32.9244
 20
-9.0915
 30
0.0
 10
-32.9302
 20
-9.0333
 30
0.0
 10
-32.9399
 20
-8.9712
 30
0.0
 10
-32.9399
 20
-8.9712
 30
0.0
 10
-32.9502
 20
-8.88
 30
0.0
 10
-32.9703
 20
-8.7908
 30
0.0
 10
-32.9988
 20
-8.7035
 30
0.0
 10
-32.9988
 20
-8.7035
 30
0.0
 10
-33.0279
 20
-8.6162
 30
0.0
 10
-33.066
 20
-8.5327
 30
0.0
 10
-33.1126
 20
-8.4538
 30
0.0
 10
-33.1126
 20
-8.4538
 30
0.0
 10
-33.1592
 20
-8.3749
 30
0.0
 10
-33.2141
 20
-8.3031
 30
0.0
 10
-33.2775
 20
-8.2378
 30
0.0
 10
-33.2775
 20
-8.2378
 30
0.0
 10
-33.3577
 20
-8.1544
 30
0.0
 10
-33.4541
 20
-8.08
 30
0.0
 10
-33.5679
 20
-8.0147
 30
0.0
 10
-33.5679
 20
-8.0147
 30
0.0
 10
-33.6811
 20
-7.9493
 30
0.0
 10
-33.8117
 20
-7.8982
 30
0.0
 10
-33.9598
 20
-7.8607
 30
0.0
 10
-33.9598
 20
-7.8607
 30
0.0
 10
-34.108
 20
-7.8232
 30
0.0
 10
-34.2735
 20
-7.8038
 30
0.0
 10
-34.4572
 20
-7.8032
 30
0.0
 10
-34.4572
 20
-7.8032
 30
0.0
 10
-34.6208
 20
-7.8032
 30
0.0
 10
-34.7677
 20
-7.8226
 30
0.0
 10
-34.899
 20
-7.8607
 30
0.0
 10
-34.899
 20
-7.8607
 30
0.0
 10
-35.0302
 20
-7.8989
 30
0.0
 10
-35.1421
 20
-7.9545
 30
0.0
 10
-35.2353
 20
-8.027
 30
0.0
 10
-35.2353
 20
-8.027
 30
0.0
 10
-35.3284
 20
-8.0994
 30
0.0
 10
-35.3996
 20
-8.1867
 30
0.0
 10
-35.4494
 20
-8.2895
 30
0.0
 10
-35.4494
 20
-8.2895
 30
0.0
 10
-35.4992
 20
-8.3924
 30
0.0
 10
-35.5237
 20
-8.5081
 30
0.0
 10
-35.5244
 20
-8.6375
 30
0.0
 10
-35.5244
 20
-8.6375
 30
0.0
 10
-35.5237
 20
-8.7669
 30
0.0
 10
-35.4992
 20
-8.8846
 30
0.0
 10
-35.4513
 20
-8.99
 30
0.0
 10
-35.4513
 20
-8.99
 30
0.0
 10
-35.4041
 20
-9.0954
 30
0.0
 10
-35.3381
 20
-9.186
 30
0.0
 10
-35.2553
 20
-9.2616
 30
0.0
 10
-35.2553
 20
-9.2616
 30
0.0
 10
-35.1719
 20
-9.338
 30
0.0
 10
-35.0768
 20
-9.3962
 30
0.0
 10
-34.9695
 20
-9.4369
 30
0.0
 10
-34.9695
 20
-9.4369
 30
0.0
 10
-34.8621
 20
-9.4777
 30
0.0
 10
-34.7483
 20
-9.4983
 30
0.0
 10
-34.628
 20
-9.499
 30
0.0
 10
-34.628
 20
-9.499
 30
0.0
 10
-34.5199
 20
-9.4983
 30
0.0
 10
-34.4191
 20
-9.4809
 30
0.0
 10
-34.3259
 20
-9.4466
 30
0.0
 10
-34.3259
 20
-9.4466
 30
0.0
 10
-34.2321
 20
-9.4117
 30
0.0
 10
-34.1506
 20
-9.3619
 30
0.0
 10
-34.0801
 20
-9.2972
 30
0.0
 10
-34.0801
 20
-9.2972
 30
0.0
 10
-34.0103
 20
-9.2325
 30
0.0
 10
-33.9553
 20
-9.1543
 30
0.0
 10
-33.9159
 20
-9.0637
 30
0.0
 10
-33.9159
 20
-9.0637
 30
0.0
 10
-33.8764
 20
-8.9725
 30
0.0
 10
-33.8564
 20
-8.871
 30
0.0
 10
-33.8557
 20
-8.7578
 30
0.0
 10
-33.8557
 20
-8.7578
 30
0.0
 10
-33.8564
 20
-8.6297
 30
0.0
 10
-33.8796
 20
-8.5153
 30
0.0
 10
-33.9256
 20
-8.415
 30
0.0
 10
-33.9256
 20
-8.415
 30
0.0
 10
-33.9715
 20
-8.3154
 30
0.0
 10
-34.0375
 20
-8.23
 30
0.0
 10
-34.1235
 20
-8.1602
 30
0.0
 10
-34.1235
 20
-8.1602
 30
0.0
 10
-34.1235
 20
-8.1602
 30
0.0
 10
-34.1235
 20
-8.1485
 30
0.0
 10
-34.1235
 20
-8.1485
 30
0.0
 10
-34.1235
 20
-8.1485
 30
0.0
 10
-33.976
 20
-8.1725
 30
0.0
 10
-33.8467
 20
-8.2132
 30
0.0
 10
-33.7361
 20
-8.2701
 30
0.0
 10
-33.7361
 20
-8.2701
 30
0.0
 10
-33.6248
 20
-8.3277
 30
0.0
 10
-33.5317
 20
-8.3982
 30
0.0
 10
-33.456
 20
-8.4823
 30
0.0
 10
-33.456
 20
-8.4823
 30
0.0
 10
-33.3862
 20
-8.5547
 30
0.0
 10
-33.3318
 20
-8.6356
 30
0.0
 10
-33.2917
 20
-8.7255
 30
0.0
 10
-33.2917
 20
-8.7255
 30
0.0
 10
-33.2516
 20
-8.8154
 30
0.0
 10
-33.2251
 20
-8.9104
 30
0.0
 10
-33.2115
 20
-9.01
 30
0.0
 10
-33.2115
 20
-9.01
 30
0.0
 10
-33.2057
 20
-9.0676
 30
0.0
 10
-33.2012
 20
-9.1193
 30
0.0
 10
-33.1986
 20
-9.164
 30
0.0
 10
-33.1986
 20
-9.164
 30
0.0
 10
-33.196
 20
-9.2086
 30
0.0
 10
-33.196
 20
-9.2493
 30
0.0
 10
-33.1999
 20
-9.2856
 30
0.0
 10
-33.1999
 20
-9.2856
 30
0.0
 10
-33.1999
 20
-9.2856
 30
0.0
 10
-32.9205
 20
-9.2856
 30
0.0
 10
-32.9205
 20
-9.2856
 30
0.0
  0
SPLINE
  5
F1
330
1F
100
AcDbEntity
  8
Ilustrace
 62
   250
100
AcDbSpline
210
0.0
220
0.0
230
1.0
 70
    11
 71
     3
 72
    64
 73
    60
 74
     0
 42
0.0000000001
 43
0.0000000001
 40
0.0
 40
0.0
 40
0.0
 40
0.0
 40
0.0625
 40
0.0625
 40
0.0625
 40
0.0625
 40
0.125
 40
0.125
 40
0.125
 40
0.125
 40
0.1875
 40
0.1875
 40
0.1875
 40
0.1875
 40
0.25
 40
0.25
 40
0.25
 40
0.25
 40
0.3125
 40
0.3125
 40
0.3125
 40
0.3125
 40
0.375
 40
0.375
 40
0.375
 40
0.375
 40
0.4375
 40
0.4375
 40
0.4375
 40
0.4375
 40
0.5
 40
0.5
 40
0.5
 40
0.5
 40
0.5625
 40
0.5625
 40
0.5625
 40
0.5625
 40
0.625
 40
0.625
 40
0.625
 40
0.625
 40
0.6875
 40
0.6875
 40
0.6875
 40
0.6875
 40
0.75
 40
0.75
 40
0.75
 40
0.75
 40
0.8125
 40
0.8125
 40
0.8125
 40
0.8125
 40
0.875
 40
0.875
 40
0.875
 40
0.875
 40
1.0
 40
1.0
 40
1.0
 40
1.0
 10
-35.2644
 20
-8.6685
 30
0.0
 10
-35.2637
 20
-8.5786
 30
0.0
 10
-35.2443
 20
-8.5004
 30
0.0
 10
-35.2062
 20
-8.4351
 30
0.0
 10
-35.2062
 20
-8.4351
 30
0.0
 10
-35.168
 20
-8.3697
 30
0.0
 10
-35.1143
 20
-8.3154
 30
0.0
 10
-35.0458
 20
-8.2734
 30
0.0
 10
-35.0458
 20
-8.2734
 30
0.0
 10
-34.9772
 20
-8.2307
 30
0.0
 10
-34.8964
 20
-8.1996
 30
0.0
 10
-34.8045
 20
-8.1789
 30
0.0
 10
-34.8045
 20
-8.1789
 30
0.0
 10
-34.712
 20
-8.1582
 30
0.0
 10
-34.6118
 20
-8.1485
 30
0.0
 10
-34.5038
 20
-8.1485
 30
0.0
 10
-34.5038
 20
-8.1485
 30
0.0
 10
-34.4753
 20
-8.1485
 30
0.0
 10
-34.4507
 20
-8.1511
 30
0.0
 10
-34.4313
 20
-8.157
 30
0.0
 10
-34.4313
 20
-8.157
 30
0.0
 10
-34.4113
 20
-8.1621
 30
0.0
 10
-34.3925
 20
-8.1699
 30
0.0
 10
-34.3757
 20
-8.1796
 30
0.0
 10
-34.3757
 20
-8.1796
 30
0.0
 10
-34.3246
 20
-8.2093
 30
0.0
 10
-34.2794
 20
-8.2488
 30
0.0
 10
-34.2399
 20
-8.2973
 30
0.0
 10
-34.2399
 20
-8.2973
 30
0.0
 10
-34.2004
 20
-8.3452
 30
0.0
 10
-34.1694
 20
-8.4014
 30
0.0
 10
-34.1468
 20
-8.4655
 30
0.0
 10
-34.1468
 20
-8.4655
 30
0.0
 10
-34.1241
 20
-8.5295
 30
0.0
 10
-34.1125
 20
-8.6
 30
0.0
 10
-34.1118
 20
-8.6763
 30
0.0
 10
-34.1118
 20
-8.6763
 30
0.0
 10
-34.1125
 20
-8.7753
 30
0.0
 10
-34.1358
 20
-8.8606
 30
0.0
 10
-34.181
 20
-8.9331
 30
0.0
 10
-34.181
 20
-8.9331
 30
0.0
 10
-34.2263
 20
-9.0055
 30
0.0
 10
-34.2884
 20
-9.0618
 30
0.0
 10
-34.3686
 20
-9.1012
 30
0.0
 10
-34.3686
 20
-9.1012
 30
0.0
 10
-34.4488
 20
-9.1407
 30
0.0
 10
-34.5419
 20
-9.1607
 30
0.0
 10
-34.6474
 20
-9.1614
 30
0.0
 10
-34.6474
 20
-9.1614
 30
0.0
 10
-34.769
 20
-9.1607
 30
0.0
 10
-34.8757
 20
-9.1394
 30
0.0
 10
-34.9675
 20
-9.0974
 30
0.0
 10
-34.9675
 20
-9.0974
 30
0.0
 10
-35.06
 20
-9.0553
 30
0.0
 10
-35.1324
 20
-8.9978
 30
0.0
 10
-35.1848
 20
-8.924
 30
0.0
 10
-35.1848
 20
-8.924
 30
0.0
 10
-35.2372
 20
-8.8503
 30
0.0
 10
-35.2637
 20
-8.7649
 30
0.0
 10
-35.2644
 20
-8.6685
 30
0.0
  0
SPLINE
  5
F2
330
1F
100
AcDbEntity
  8
Ilustrace
 62
   250
370
     9
100
AcDbSpline
210
0.0
220
0.0
230
1.0
 70
    11
 71
     3
 72
    32
 73
    28
 74
     0
 42
0.0000000001
 43
0.0000000001
 40
0.0
 40
0.0
 40
0.0
 40
0.0
 40
0.125
 40
0.125
 40
0.125
 40
0.125
 40
0.25
 40
0.25
 40
0.25
 40
0.25
 40
0.375
 40
0.375
 40
0.375
 40
0.375
 40
0.5
 40
0.5
 40
0.5
 40
0.5
 40
0.625
 40
0.625
 40
0.625
 40
0.625
 40
0.75
 40
0.75
 40
0.75
 40
0.75
 40
1.0
 40
1.0
 40
1.0
 40
1.0
 10
-32.9938
 20
-25.9866
 30
0.0
 10
-32.9938
 20
-25.9866
 30
0.0
 10
-32.9938
 20
-25.9866
 30
0.0
 10
-32.9938
 20
-25.9866
 30
0.0
 10
-32.9938
 20
-25.9866
 30
0.0
 10
-32.9938
 20
-25.9866
 30
0.0
 10
-32.9938
 20
-25.9866
 30
0.0
 10
-32.9938
 20
-25.9866
 30
0.0
 10
-32.9938
 20
-25.9866
 30
0.0
 10
-32.9938
 20
-25.9866
 30
0.0
 10
-32.5504
 20
-27.2594
 30
0.0
 10
-32.5504
 20
-27.2594
 30
0.0
 10
-32.5504
 20
-27.2594
 30
0.0
 10
-32.5504
 20
-27.2594
 30
0.0
 10
-32.107
 20
-25.9866
 30
0.0
 10
-32.107
 20
-25.9866
 30
0.0
 10
-32.107
 20
-25.9866
 30
0.0
 10
-32.107
 20
-25.9866
 30
0.0
 10
-32.107
 20
-25.9866
 30
0.0
 10
-32.107
 20
-25.9866
 30
0.0
 10
-32.107
 20
-25.9866
 30
0.0
 10
-32.107
 20
-25.9866
 30
0.0
 10
-32.107
 20
-25.9866
 30
0.0
 10
-32.107
 20
-25.9866
 30
0.0
 10
-32.107
 20
-25.9866
 30
0.0
 10
-32.107
 20
-25.9866
 30
0.0
 10
-32.9938
 20
-25.9866
 30
0.0
 10
-32.9938
 20
-25.9866
 30
0.0
  0
SPLINE
  5
F3
330
1F
100
AcDbEntity
  8
Ilustrace
 62
   250
370
     9
100
AcDbSpline
210
0.0
220
0.0
230
1.0
 70
    11
 71
     3
 72
    32
 73
    28
 74
     0
 42
0.0000000001
 43
0.0000000001
 40
0.0
 40
0.0
 40
0.0
 40
0.0
 40
0.125
 40
0.125
 40
0.125
 40
0.125
 40
0.25
 40
0.25
 40
0.25
 40
0.25
 40
0.375
 40
0.375
 40
0.375
 40
0.375
 40
0.5
 40
0.5
 40
0.5
 40
0.5
 40
0.625
 40
0.625
 40
0.625
 40
0.625
 40
0.75
 40
0.75
 40
0.75
 40
0.75
 40
1.0
 40
1.0
 40
1.0
 40
1.0
 10
-29.0081
 20
-25.9806
 30
0.0
 10
-29.0081
 20
-25.9806
 30
0.0
 10
-29.0081
 20
-25.9806
 30
0.0
 10
-29.0081
 20
-25.9806
 30
0.0
 10
-29.0081
 20
-25.9806
 30
0.0
 10
-29.0081
 20
-25.9806
 30
0.0
 10
-29.0081
 20
-25.9806
 30
0.0
 10
-29.0081
 20
-25.9806
 30
0.0
 10
-29.0081
 20
-25.9806
 30
0.0
 10
-29.0081
 20
-25.9806
 30
0.0
 10
-28.5647
 20
-27.2534
 30
0.0
 10
-28.5647
 20
-27.2534
 30
0.0
 10
-28.5647
 20
-27.2534
 30
0.0
 10
-28.5647
 20
-27.2534
 30
0.0
 10
-28.1213
 20
-25.9806
 30
0.0
 10
-28.1213
 20
-25.9806
 30
0.0
 10
-28.1213
 20
-25.9806
 30
0.0
 10
-28.1213
 20
-25.9806
 30
0.0
 10
-28.1213
 20
-25.9806
 30
0.0
 10
-28.1213
 20
-25.9806
 30
0.0
 10
-28.1213
 20
-25.9806
 30
0.0
 10
-28.1213
 20
-25.9806
 30
0.0
 10
-28.1213
 20
-25.9806
 30
0.0
 10
-28.1213
 20
-25.9806
 30
0.0
 10
-28.1213
 20
-25.9806
 30
0.0
 10
-28.1213
 20
-25.9806
 30
0.0
 10
-29.0081
 20
-25.9806
 30
0.0
 10
-29.0081
 20
-25.9806
 30
0.0
  0
SPLINE
  5
F4
330
1F
100
AcDbEntity
  8
Ilustrace
 62
   250
370
     9
100
AcDbSpline
210
0.0
220
0.0
230
1.0
 70
    11
 71
     3
 72
    32
 73
    28
 74
     0
 42
0.0000000001
 43
0.0000000001
 40
0.0
 40
0.0
 40
0.0
 40
0.0
 40
0.125
 40
0.125
 40
0.125
 40
0.125
 40
0.25
 40
0.25
 40
0.25
 40
0.25
 40
0.375
 40
0.375
 40
0.375
 40
0.375
 40
0.5
 40
0.5
 40
0.5
 40
0.5
 40
0.625
 40
0.625
 40
0.625
 40
0.625
 40
0.75
 40
0.75
 40
0.75
 40
0.75
 40
1.0
 40
1.0
 40
1.0
 40
1.0
 10
-17.5796
 20
24.4664
 30
0.0
 10
-17.5796
 20
24.4664
 30
0.0
 10
-17.5796
 20
24.4664
 30
0.0
 10
-17.5796
 20
24.4664
 30
0.0
 10
-17.5796
 20
24.4664
 30
0.0
 10
-17.5796
 20
24.4664
 30
0.0
 10
-17.5796
 20
24.4664
 30
0.0
 10
-17.5796
 20
24.4664
 30
0.0
 10
-17.5796
 20
24.4664
 30
0.0
 10
-17.5796
 20
24.4664
 30
0.0
 10
-18.8524
 20
24.023
 30
0.0
 10
-18.8524
 20
24.023
 30
0.0
 10
-18.8524
 20
24.023
 30
0.0
 10
-18.8524
 20
24.023
 30
0.0
 10
-17.5796
 20
23.5796
 30
0.0
 10
-17.5796
 20
23.5796
 30
0.0
 10
-17.5796
 20
23.5796
 30
0.0
 10
-17.5796
 20
23.5796
 30
0.0
 10
-17.5796
 20
23.5796
 30
0.0
 10
-17.5796
 20
23.5796
 30
0.0
 10
-17.5796
 20
23.5796
 30
0.0
 10
-17.5796
 20
23.5796
 30
0.0
 10
-17.5796
 20
23.5796
 30
0.0
 10
-17.5796
 20
23.5796
 30
0.0
 10
-17.5796
 20
23.5796
 30
0.0
 10
-17.5796
 20
23.5796
 30
0.0
 10
-17.5796
 20
24.4664
 30
0.0
 10
-17.5796
 20
24.4664
 30
0.0
  0
SPLINE
  5
F5
330
1F
100
AcDbEntity
  8
Ilustrace
 62
   250
370
     9
100
AcDbSpline
210
0.0
220
0.0
230
1.0
 70
    11
 71
     3
 72
    32
 73
    28
 74
     0
 42
0.0000000001
 43
0.0000000001
 40
0.0
 40
0.0
 40
0.0
 40
0.0
 40
0.125
 40
0.125
 40
0.125
 40
0.125
 40
0.25
 40
0.25
 40
0.25
 40
0.25
 40
0.375
 40
0.375
 40
0.375
 40
0.375
 40
0.5
 40
0.5
 40
0.5
 40
0.5
 40
0.625
 40
0.625
 40
0.625
 40
0.625
 40
0.75
 40
0.75
 40
0.75
 40
0.75
 40
1.0
 40
1.0
 40
1.0
 40
1.0
 10
7.7714
 20
9.2808
 30
0.0
 10
7.7714
 20
9.2808
 30
0.0
 10
7.7714
 20
9.2808
 30
0.0
 10
7.7714
 20
9.2808
 30
0.0
 10
7.7714
 20
9.2808
 30
0.0
 10
7.7714
 20
9.2808
 30
0.0
 10
7.7714
 20
9.2808
 30
0.0
 10
7.7714
 20
9.2808
 30
0.0
 10
7.7714
 20
9.2808
 30
0.0
 10
7.7714
 20
9.2808
 30
0.0
 10
6.4986
 20
8.8374
 30
0.0
 10
6.4986
 20
8.8374
 30
0.0
 10
6.4986
 20
8.8374
 30
0.0
 10
6.4986
 20
8.8374
 30
0.0
 10
7.7714
 20
8.394
 30
0.0
 10
7.7714
 20
8.394
 30
0.0
 10
7.7714
 20
8.394
 30
0.0
 10
7.7714
 20
8.394
 30
0.0
 10
7.7714
 20
8.394
 30
0.0
 10
7.7714
 20
8.394
 30
0.0
 10
7.7714
 20
8.394
 30
0.0
 10
7.7714
 20
8.394
 30
0.0
 10
7.7714
 20
8.394
 30
0.0
 10
7.7714
 20
8.394
 30
0.0
 10
7.7714
 20
8.394
 30
0.0
 10
7.7714
 20
8.394
 30
0.0
 10
7.7714
 20
9.2808
 30
0.0
 10
7.7714
 20
9.2808
 30
0.0
  0
SPLINE
  5
F6
330
1F
100
AcDbEntity
  8
Ilustrace
 62
   250
370
     9
100
AcDbSpline
210
0.0
220
0.0
230
1.0
 70
    11
 71
     3
 72
    32
 73
    28
 74
     0
 42
0.0000000001
 43
0.0000000001
 40
0.0
 40
0.0
 40
0.0
 40
0.0
 40
0.125
 40
0.125
 40
0.125
 40
0.125
 40
0.25
 40
0.25
 40
0.25
 40
0.25
 40
0.375
 40
0.375
 40
0.375
 40
0.375
 40
0.5
 40
0.5
 40
0.5
 40
0.5
 40
0.625
 40
0.625
 40
0.625
 40
0.625
 40
0.75
 40
0.75
 40
0.75
 40
0.75
 40
1.0
 40
1.0
 40
1.0
 40
1.0
 10
-33.0106
 20
5.5129
 30
0.0
 10
-33.0106
 20
5.5129
 30
0.0
 10
-33.0106
 20
5.5129
 30
0.0
 10
-33.0106
 20
5.5129
 30
0.0
 10
-33.0106
 20
5.5129
 30
0.0
 10
-33.0106
 20
5.5129
 30
0.0
 10
-33.0106
 20
5.5129
 30
0.0
 10
-33.0106
 20
5.5129
 30
0.0
 10
-33.0106
 20
5.5129
 30
0.0
 10
-33.0106
 20
5.5129
 30
0.0
 10
-32.5672
 20
6.7857
 30
0.0
 10
-32.5672
 20
6.7857
 30
0.0
 10
-32.5672
 20
6.7857
 30
0.0
 10
-32.5672
 20
6.7857
 30
0.0
 10
-32.1238
 20
5.5129
 30
0.0
 10
-32.1238
 20
5.5129
 30
0.0
 10
-32.1238
 20
5.5129
 30
0.0
 10
-32.1238
 20
5.5129
 30
0.0
 10
-32.1238
 20
5.5129
 30
0.0
 10
-32.1238
 20
5.5129
 30
0.0
 10
-32.1238
 20
5.5129
 30
0.0
 10
-32.1238
 20
5.5129
 30
0.0
 10
-32.1238
 20
5.5129
 30
0.0
 10
-32.1238
 20
5.5129
 30
0.0
 10
-32.1238
 20
5.5129
 30
0.0
 10
-32.1238
 20
5.5129
 30
0.0
 10
-33.0106
 20
5.5129
 30
0.0
 10
-33.0106
 20
5.5129
 30
0.0
  0
SPLINE
  5
F7
330
1F
100
AcDbEntity
  8
Ilustrace
 62
   250
370
     9
100
AcDbSpline
210
0.0
220
0.0
230
1.0
 70
    11
 71
     3
 72
    32
 73
    28
 74
     0
 42
0.0000000001
 43
0.0000000001
 40
0.0
 40
0.0
 40
0.0
 40
0.0
 40
0.125
 40
0.125
 40
0.125
 40
0.125
 40
0.25
 40
0.25
 40
0.25
 40
0.25
 40
0.375
 40
0.375
 40
0.375
 40
0.375
 40
0.5
 40
0.5
 40
0.5
 40
0.5
 40
0.625
 40
0.625
 40
0.625
 40
0.625
 40
0.75
 40
0.75
 40
0.75
 40
0.75
 40
1.0
 40
1.0
 40
1.0
 40
1.0
 10
-29.0249
 20
2.3692
 30
0.0
 10
-29.0249
 20
2.3692
 30
0.0
 10
-29.0249
 20
2.3692
 30
0.0
 10
-29.0249
 20
2.3692
 30
0.0
 10
-29.0249
 20
2.3692
 30
0.0
 10
-29.0249
 20
2.3692
 30
0.0
 10
-29.0249
 20
2.3692
 30
0.0
 10
-29.0249
 20
2.3692
 30
0.0
 10
-29.0249
 20
2.3692
 30
0.0
 10
-29.0249
 20
2.3692
 30
0.0
 10
-28.5815
 20
3.642
 30
0.0
 10
-28.5815
 20
3.642
 30
0.0
 10
-28.5815
 20
3.642
 30
0.0
 10
-28.5815
 20
3.642
 30
0.0
 10
-28.1381
 20
2.3692
 30
0.0
 10
-28.1381
 20
2.3692
 30
0.0
 10
-28.1381
 20
2.3692
 30
0.0
 10
-28.1381
 20
2.3692
 30
0.0
 10
-28.1381
 20
2.3692
 30
0.0
 10
-28.1381
 20
2.3692
 30
0.0
 10
-28.1381
 20
2.3692
 30
0.0
 10
-28.1381
 20
2.3692
 30
0.0
 10
-28.1381
 20
2.3692
 30
0.0
 10
-28.1381
 20
2.3692
 30
0.0
 10
-28.1381
 20
2.3692
 30
0.0
 10
-28.1381
 20
2.3692
 30
0.0
 10
-29.0249
 20
2.3692
 30
0.0
 10
-29.0249
 20
2.3692
 30
0.0
  0
SPLINE
  5
F8
330
1F
100
AcDbEntity
  8
Ilustrace
 62
   250
370
     9
100
AcDbSpline
210
0.0
220
0.0
230
1.0
 70
    11
 71
     3
 72
    32
 73
    28
 74
     0
 42
0.0000000001
 43
0.0000000001
 40
0.0
 40
0.0
 40
0.0
 40
0.0
 40
0.125
 40
0.125
 40
0.125
 40
0.125
 40
0.25
 40
0.25
 40
0.25
 40
0.25
 40
0.375
 40
0.375
 40
0.375
 40
0.375
 40
0.5
 40
0.5
 40
0.5
 40
0.5
 40
0.625
 40
0.625
 40
0.625
 40
0.625
 40
0.75
 40
0.75
 40
0.75
 40
0.75
 40
1.0
 40
1.0
 40
1.0
 40
1.0
 10
10.1858
 20
24.4611
 30
0.0
 10
10.1858
 20
24.4611
 30
0.0
 10
10.1858
 20
24.4611
 30
0.0
 10
10.1858
 20
24.4611
 30
0.0
 10
10.1858
 20
24.4611
 30
0.0
 10
10.1858
 20
24.4611
 30
0.0
 10
10.1858
 20
24.4611
 30
0.0
 10
10.1858
 20
24.4611
 30
0.0
 10
10.1858
 20
24.4611
 30
0.0
 10
10.1858
 20
24.4611
 30
0.0
 10
11.4586
 20
24.0177
 30
0.0
 10
11.4586
 20
24.0177
 30
0.0
 10
11.4586
 20
24.0177
 30
0.0
 10
11.4586
 20
24.0177
 30
0.0
 10
10.1858
 20
23.5743
 30
0.0
 10
10.1858
 20
23.5743
 30
0.0
 10
10.1858
 20
23.5743
 30
0.0
 10
10.1858
 20
23.5743
 30
0.0
 10
10.1858
 20
23.5743
 30
0.0
 10
10.1858
 20
23.5743
 30
0.0
 10
10.1858
 20
23.5743
 30
0.0
 10
10.1858
 20
23.5743
 30
0.0
 10
10.1858
 20
23.5743
 30
0.0
 10
10.1858
 20
23.5743
 30
0.0
 10
10.1858
 20
23.5743
 30
0.0
 10
10.1858
 20
23.5743
 30
0.0
 10
10.1858
 20
24.4611
 30
0.0
 10
10.1858
 20
24.4611
 30
0.0
  0
SPLINE
  5
F9
330
1F
100
AcDbEntity
  8
Ilustrace
 62
   250
370
     9
100
AcDbSpline
210
0.0
220
0.0
230
1.0
 70
    11
 71
     3
 72
    32
 73
    28
 74
     0
 42
0.0000000001
 43
0.0000000001
 40
0.0
 40
0.0
 40
0.0
 40
0.0
 40
0.125
 40
0.125
 40
0.125
 40
0.125
 40
0.25
 40
0.25
 40
0.25
 40
0.25
 40
0.375
 40
0.375
 40
0.375
 40
0.375
 40
0.5
 40
0.5
 40
0.5
 40
0.5
 40
0.625
 40
0.625
 40
0.625
 40
0.625
 40
0.75
 40
0.75
 40
0.75
 40
0.75
 40
1.0
 40
1.0
 40
1.0
 40
1.0
 10
-15.2191
 20
9.3196
 30
0.0
 10
-15.2191
 20
9.3196
 30
0.0
 10
-15.2191
 20
9.3196
 30
0.0
 10
-15.2191
 20
9.3196
 30
0.0
 10
-15.2191
 20
9.3196
 30
0.0
 10
-15.2191
 20
9.3196
 30
0.0
 10
-15.2191
 20
9.3196
 30
0.0
 10
-15.2191
 20
9.3196
 30
0.0
 10
-15.2191
 20
9.3196
 30
0.0
 10
-15.2191
 20
9.3196
 30
0.0
 10
-13.9463
 20
8.8762
 30
0.0
 10
-13.9463
 20
8.8762
 30
0.0
 10
-13.9463
 20
8.8762
 30
0.0
 10
-13.9463
 20
8.8762
 30
0.0
 10
-15.2191
 20
8.4328
 30
0.0
 10
-15.2191
 20
8.4328
 30
0.0
 10
-15.2191
 20
8.4328
 30
0.0
 10
-15.2191
 20
8.4328
 30
0.0
 10
-15.2191
 20
8.4328
 30
0.0
 10
-15.2191
 20
8.4328
 30
0.0
 10
-15.2191
 20
8.4328
 30
0.0
 10
-15.2191
 20
8.4328
 30
0.0
 10
-15.2191
 20
8.4328
 30
0.0
 10
-15.2191
 20
8.4328
 30
0.0
 10
-15.2191
 20
8.4328
 30
0.0
 10
-15.2191
 20
8.4328
 30
0.0
 10
-15.2191
 20
9.3196
 30
0.0
 10
-15.2191
 20
9.3196
 30
0.0
  0
SPLINE
  5
FA
330
1F
100
AcDbEntity
  8
Ilustrace
 62
   250
370
    13
100
AcDbSpline
210
0.0
220
0.0
230
1.0
 70
    24
 71
     3
 72
     8
 73
     4
 74
     0
 42
0.0000000001
 43
0.0000000001
 40
0.0
 40
0.0
 40
0.0
 40
0.0
 40
1.0
 40
1.0
 40
1.0
 40
1.0
 10
4.6849
 20
3.8833
 30
0.0
 10
4.6849
 20
3.8833
 30
0.0
 10
4.6849
 20
-13.8309
 30
0.0
 10
4.6849
 20
-13.8309
 30
0.0
  0
SPLINE
  5
FB
330
1F
100
AcDbEntity
  8
Ilustrace
 62
   250
370
     9
100
AcDbSpline
210
0.0
220
0.0
230
1.0
 70
    11
 71
     3
 72
    32
 73
    28
 74
     0
 42
0.0000000001
 43
0.0000000001
 40
0.0
 40
0.0
 40
0.0
 40
0.0
 40
0.125
 40
0.125
 40
0.125
 40
0.125
 40
0.25
 40
0.25
 40
0.25
 40
0.25
 40
0.375
 40
0.375
 40
0.375
 40
0.375
 40
0.5
 40
0.5
 40
0.5
 40
0.5
 40
0.625
 40
0.625
 40
0.625
 40
0.625
 40
0.75
 40
0.75
 40
0.75
 40
0.75
 40
1.0
 40
1.0
 40
1.0
 40
1.0
 10
4.2344
 20
-13.2144
 30
0.0
 10
4.2344
 20
-13.2144
 30
0.0
 10
4.2344
 20
-13.2144
 30
0.0
 10
4.2344
 20
-13.2144
 30
0.0
 10
4.2344
 20
-13.2144
 30
0.0
 10
4.2344
 20
-13.2144
 30
0.0
 10
4.2344
 20
-13.2144
 30
0.0
 10
4.2344
 20
-13.2144
 30
0.0
 10
4.2344
 20
-13.2144
 30
0.0
 10
4.2344
 20
-13.2144
 30
0.0
 10
4.6778
 20
-14.4872
 30
0.0
 10
4.6778
 20
-14.4872
 30
0.0
 10
4.6778
 20
-14.4872
 30
0.0
 10
4.6778
 20
-14.4872
 30
0.0
 10
5.1212
 20
-13.2144
 30
0.0
 10
5.1212
 20
-13.2144
 30
0.0
 10
5.1212
 20
-13.2144
 30
0.0
 10
5.1212
 20
-13.2144
 30
0.0
 10
5.1212
 20
-13.2144
 30
0.0
 10
5.1212
 20
-13.2144
 30
0.0
 10
5.1212
 20
-13.2144
 30
0.0
 10
5.1212
 20
-13.2144
 30
0.0
 10
5.1212
 20
-13.2144
 30
0.0
 10
5.1212
 20
-13.2144
 30
0.0
 10
5.1212
 20
-13.2144
 30
0.0
 10
5.1212
 20
-13.2144
 30
0.0
 10
4.2344
 20
-13.2144
 30
0.0
 10
4.2344
 20
-13.2144
 30
0.0
  0
SPLINE
  5
FC
330
1F
100
AcDbEntity
  8
Ilustrace
 62
   250
370
     9
100
AcDbSpline
210
0.0
220
0.0
230
1.0
 70
    11
 71
     3
 72
    32
 73
    28
 74
     0
 42
0.0000000001
 43
0.0000000001
 40
0.0
 40
0.0
 40
0.0
 40
0.0
 40
0.125
 40
0.125
 40
0.125
 40
0.125
 40
0.25
 40
0.25
 40
0.25
 40
0.25
 40
0.375
 40
0.375
 40
0.375
 40
0.375
 40
0.5
 40
0.5
 40
0.5
 40
0.5
 40
0.625
 40
0.625
 40
0.625
 40
0.625
 40
0.75
 40
0.75
 40
0.75
 40
0.75
 40
1.0
 40
1.0
 40
1.0
 40
1.0
 10
34.1934
 20
-21.1129
 30
0.0
 10
34.1934
 20
-21.1129
 30
0.0
 10
34.1934
 20
-21.1129
 30
0.0
 10
34.1934
 20
-21.1129
 30
0.0
 10
34.1934
 20
-21.1129
 30
0.0
 10
34.1934
 20
-21.1129
 30
0.0
 10
34.1934
 20
-21.1129
 30
0.0
 10
34.1934
 20
-21.1129
 30
0.0
 10
34.1934
 20
-21.1129
 30
0.0
 10
34.1934
 20
-21.1129
 30
0.0
 10
34.6368
 20
-22.3857
 30
0.0
 10
34.6368
 20
-22.3857
 30
0.0
 10
34.6368
 20
-22.3857
 30
0.0
 10
34.6368
 20
-22.3857
 30
0.0
 10
35.0802
 20
-21.1129
 30
0.0
 10
35.0802
 20
-21.1129
 30
0.0
 10
35.0802
 20
-21.1129
 30
0.0
 10
35.0802
 20
-21.1129
 30
0.0
 10
35.0802
 20
-21.1129
 30
0.0
 10
35.0802
 20
-21.1129
 30
0.0
 10
35.0802
 20
-21.1129
 30
0.0
 10
35.0802
 20
-21.1129
 30
0.0
 10
35.0802
 20
-21.1129
 30
0.0
 10
35.0802
 20
-21.1129
 30
0.0
 10
35.0802
 20
-21.1129
 30
0.0
 10
35.0802
 20
-21.1129
 30
0.0
 10
34.1934
 20
-21.1129
 30
0.0
 10
34.1934
 20
-21.1129
 30
0.0
  0
SPLINE
  5
FD
330
1F
100
AcDbEntity
  8
Ilustrace
 62
   250
370
     9
100
AcDbSpline
210
0.0
220
0.0
230
1.0
 70
    11
 71
     3
 72
    32
 73
    28
 74
     0
 42
0.0000000001
 43
0.0000000001
 40
0.0
 40
0.0
 40
0.0
 40
0.0
 40
0.125
 40
0.125
 40
0.125
 40
0.125
 40
0.25
 40
0.25
 40
0.25
 40
0.25
 40
0.375
 40
0.375
 40
0.375
 40
0.375
 40
0.5
 40
0.5
 40
0.5
 40
0.5
 40
0.625
 40
0.625
 40
0.625
 40
0.625
 40
0.75
 40
0.75
 40
0.75
 40
0.75
 40
1.0
 40
1.0
 40
1.0
 40
1.0
 10
4.2397
 20
2.6338
 30
0.0
 10
4.2397
 20
2.6338
 30
0.0
 10
4.2397
 20
2.6338
 30
0.0
 10
4.2397
 20
2.6338
 30
0.0
 10
4.2397
 20
2.6338
 30
0.0
 10
4.2397
 20
2.6338
 30
0.0
 10
4.2397
 20
2.6338
 30
0.0
 10
4.2397
 20
2.6338
 30
0.0
 10
4.2397
 20
2.6338
 30
0.0
 10
4.2397
 20
2.6338
 30
0.0
 10
4.6831
 20
3.9066
 30
0.0
 10
4.6831
 20
3.9066
 30
0.0
 10
4.6831
 20
3.9066
 30
0.0
 10
4.6831
 20
3.9066
 30
0.0
 10
5.1265
 20
2.6338
 30
0.0
 10
5.1265
 20
2.6338
 30
0.0
 10
5.1265
 20
2.6338
 30
0.0
 10
5.1265
 20
2.6338
 30
0.0
 10
5.1265
 20
2.6338
 30
0.0
 10
5.1265
 20
2.6338
 30
0.0
 10
5.1265
 20
2.6338
 30
0.0
 10
5.1265
 20
2.6338
 30
0.0
 10
5.1265
 20
2.6338
 30
0.0
 10
5.1265
 20
2.6338
 30
0.0
 10
5.1265
 20
2.6338
 30
0.0
 10
5.1265
 20
2.6338
 30
0.0
 10
4.2397
 20
2.6338
 30
0.0
 10
4.2397
 20
2.6338
 30
0.0
  0
SPLINE
  5
FE
330
1F
100
AcDbEntity
  8
Ilustrace
 62
   250
370
     9
100
AcDbSpline
210
0.0
220
0.0
230
1.0
 70
    11
 71
     3
 72
    32
 73
    28
 74
     0
 42
0.0000000001
 43
0.0000000001
 40
0.0
 40
0.0
 40
0.0
 40
0.0
 40
0.125
 40
0.125
 40
0.125
 40
0.125
 40
0.25
 40
0.25
 40
0.25
 40
0.25
 40
0.375
 40
0.375
 40
0.375
 40
0.375
 40
0.5
 40
0.5
 40
0.5
 40
0.5
 40
0.625
 40
0.625
 40
0.625
 40
0.625
 40
0.75
 40
0.75
 40
0.75
 40
0.75
 40
1.0
 40
1.0
 40
1.0
 40
1.0
 10
34.1325
 20
-7.9987
 30
0.0
 10
34.1325
 20
-7.9987
 30
0.0
 10
34.1325
 20
-7.9987
 30
0.0
 10
34.1325
 20
-7.9987
 30
0.0
 10
34.1325
 20
-7.9987
 30
0.0
 10
34.1325
 20
-7.9987
 30
0.0
 10
34.1325
 20
-7.9987
 30
0.0
 10
34.1325
 20
-7.9987
 30
0.0
 10
34.1325
 20
-7.9987
 30
0.0
 10
34.1325
 20
-7.9987
 30
0.0
 10
34.5759
 20
-6.7259
 30
0.0
 10
34.5759
 20
-6.7259
 30
0.0
 10
34.5759
 20
-6.7259
 30
0.0
 10
34.5759
 20
-6.7259
 30
0.0
 10
35.0193
 20
-7.9987
 30
0.0
 10
35.0193
 20
-7.9987
 30
0.0
 10
35.0193
 20
-7.9987
 30
0.0
 10
35.0193
 20
-7.9987
 30
0.0
 10
35.0193
 20
-7.9987
 30
0.0
 10
35.0193
 20
-7.9987
 30
0.0
 10
35.0193
 20
-7.9987
 30
0.0
 10
35.0193
 20
-7.9987
 30
0.0
 10
35.0193
 20
-7.9987
 30
0.0
 10
35.0193
 20
-7.9987
 30
0.0
 10
35.0193
 20
-7.9987
 30
0.0
 10
35.0193
 20
-7.9987
 30
0.0
 10
34.1325
 20
-7.9987
 30
0.0
 10
34.1325
 20
-7.9987
 30
0.0
  0
ENDSEC
  0
SECTION
  2
OBJECTS
  0
DICTIONARY
  5
C
330
0
100
AcDbDictionary
281
     1
  3
ACAD_GROUP
350
D
  3
ACAD_LAYOUT
350
1A
  3
ACAD_MATERIAL
350
3B
  3
ACAD_MLEADERSTYLE
350
101
  3
ACAD_MLINESTYLE
350
17
  3
ACAD_PLOTSETTINGS
350
19
  3
ACAD_PLOTSTYLENAME
350
E
  3
ACAD_VISUALSTYLE
350
2A
  3
AcDbVariableDictionary
350
FF
  0
DICTIONARY
  5
D
102
{ACAD_REACTORS
330
C
102
}
330
C
100
AcDbDictionary
281
     1
  0
DICTIONARY
  5
1A
102
{ACAD_REACTORS
330
C
102
}
330
C
100
AcDbDictionary
281
     1
  3
Layout1
350
1E
  3
Layout2
350
26
  3
Model
350
22
  0
DICTIONARY
  5
3B
102
{ACAD_REACTORS
330
C
102
}
330
C
100
AcDbDictionary
281
     1
  3
ByBlock
350
3D
  3
ByLayer
350
3C
  3
Global
350
3E
  0
DICTIONARY
  5
101
102
{ACAD_REACTORS
330
C
102
}
330
C
100
AcDbDictionary
281
     1
  0
DICTIONARY
  5
17
102
{ACAD_REACTORS
330
C
102
}
330
C
100
AcDbDictionary
281
     1
  3
Standard
350
18
  0
DICTIONARY
  5
19
102
{ACAD_REACTORS
330
C
102
}
330
C
100
AcDbDictionary
281
     1
  0
ACDBDICTIONARYWDFLT
  5
E
102
{ACAD_REACTORS
330
C
102
}
330
C
100
AcDbDictionary
281
     1
  3
Normal
350
F
100
AcDbDictionaryWithDefault
340
F
  0
DICTIONARY
  5
2A
102
{ACAD_REACTORS
330
C
102
}
330
C
100
AcDbDictionary
281
     1
  3
2dWireframe
350
2F
  3
3D Hidden
350
31
  3
3dWireframe
350
30
  3
Basic
350
32
  3
Brighten
350
36
  3
ColorChange
350
3A
  3
Conceptual
350
34
  3
Dim
350
35
  3
Facepattern
350
39
  3
Flat
350
2B
  3
FlatWithEdges
350
2C
  3
Gouraud
350
2D
  3
GouraudWithEdges
350
2E
  3
Linepattern
350
38
  3
Realistic
350
33
  3
Thicken
350
37
  0
DICTIONARY
  5
FF
102
{ACAD_REACTORS
330
C
102
}
330
C
100
AcDbDictionary
281
     1
  3
DIMASSOC
350
102
  3
HIDETEXT
350
103
  0
LAYOUT
  5
1E
102
{ACAD_REACTORS
330
1A
102
}
330
1A
100
AcDbPlotSettings
  1

  2
none_device
  4

  6

 40
0.0
 41
0.0
 42
0.0
 43
0.0
 44
0.0
 45
0.0
 46
0.0
 47
0.0
 48
0.0
 49
0.0
140
0.0
141
0.0
142
1.0
143
1.0
 70
   688
 72
     0
 73
     0
 74
     5
  7

 75
    16
147
1.0
148
0.0
149
0.0
100
AcDbLayout
  1
Layout1
 70
     1
 71
     1
 10
0.0
 20
0.0
 11
12.0
 21
9.0
 12
0.0
 22
0.0
 32
0.0
 14
1.000000000000000E+20
 24
1.000000000000000E+20
 34
1.000000000000000E+20
 15
-1.000000000000000E+20
 25
-1.000000000000000E+20
 35
-1.000000000000000E+20
146
0.0
 13
0.0
 23
0.0
 33
0.0
 16
1.0
 26
0.0
 36
0.0
 17
0.0
 27
1.0
 37
0.0
 76
     0
330
1B
  0
LAYOUT
  5
26
102
{ACAD_REACTORS
330
1A
102
}
330
1A
100
AcDbPlotSettings
  1

  2
none_device
  4

  6

 40
0.0
 41
0.0
 42
0.0
 43
0.0
 44
0.0
 45
0.0
 46
0.0
 47
0.0
 48
0.0
 49
0.0
140
0.0
141
0.0
142
1.0
143
1.0
 70
   688
 72
     0
 73
     0
 74
     5
  7

 75
    16
147
1.0
148
0.0
149
0.0
100
AcDbLayout
  1
Layout2
 70
     1
 71
     2
 10
0.0
 20
0.0
 11
0.0
 21
0.0
 12
0.0
 22
0.0
 32
0.0
 14
0.0
 24
0.0
 34
0.0
 15
0.0
 25
0.0
 35
0.0
146
0.0
 13
0.0
 23
0.0
 33
0.0
 16
1.0
 26
0.0
 36
0.0
 17
0.0
 27
1.0
 37
0.0
 76
     0
330
23
  0
LAYOUT
  5
22
102
{ACAD_REACTORS
330
1A
102
}
330
1A
100
AcDbPlotSettings
  1

  2
none_device
  4

  6

 40
0.0
 41
0.0
 42
0.0
 43
0.0
 44
0.0
 45
0.0
 46
0.0
 47
0.0
 48
0.0
 49
0.0
140
0.0
141
0.0
142
1.0
143
1.0
 70
  1712
 72
     0
 73
     0
 74
     0
  7

 75
     0
147
1.0
148
0.0
149
0.0
100
AcDbLayout
  1
Model
 70
     1
 71
     0
 10
0.0
 20
0.0
 11
12.0
 21
9.0
 12
0.0
 22
0.0
 32
0.0
 14
-35.5244
 24
-27.5124
 34
0.0
 15
35.5243
 25
27.4033
 35
0.0
146
0.0
 13
0.0
 23
0.0
 33
0.0
 16
1.0
 26
0.0
 36
0.0
 17
0.0
 27
1.0
 37
0.0
 76
     0
330
1F
331
29
  0
MATERIAL
  5
3D
102
{ACAD_REACTORS
330
3B
102
}
102
{ACAD_XDICTIONARY
360
126
102
}
330
3B
100
AcDbMaterial
  1
ByBlock
  0
MATERIAL
  5
3C
102
{ACAD_REACTORS
330
3B
102
}
102
{ACAD_XDICTIONARY
360
124
102
}
330
3B
100
AcDbMaterial
  1
ByLayer
  0
MATERIAL
  5
3E
102
{ACAD_REACTORS
330
3B
102
}
102
{ACAD_XDICTIONARY
360
128
102
}
330
3B
100
AcDbMaterial
  1
Global
  0
MLINESTYLE
  5
18
102
{ACAD_REACTORS
330
17
102
}
330
17
100
AcDbMlineStyle
  2
Standard
 70
     0
  3

 62
   256
 51
90.0
 52
90.0
 71
     2
 49
0.5
 62
   256
  6
BYLAYER
 49
-0.5
 62
   256
  6
BYLAYER
  0
ACDBPLACEHOLDER
  5
F
102
{ACAD_REACTORS
330
E
102
}
330
E
  0
VISUALSTYLE
  5
2F
102
{ACAD_REACTORS
330
2A
102
}
102
{ACAD_XDICTIONARY
360
10C
102
}
330
2A
100
AcDbVisualStyle
  2
2dWireframe
 70
     4
 71
     0
 72
     2
 73
     0
 90
        0
 40
-0.6
 41
-30.0
 62
     5
 63
     7
 74
     1
 91
        4
 64
     7
 65
   257
 75
     1
175
     1
 42
1.0
 92
        0
 66
   257
 43
1.0
 76
     1
 77
     6
 78
     2
 67
     7
 79
     5
170
     0
171
     0
290
     0
174
     0
 93
        1
 44
0.0
173
     0
291
     0
 45
0.0
1001
ACAD
1000
AcDbSavedByObjectVersion
1070
     0
  0
VISUALSTYLE
  5
31
102
{ACAD_REACTORS
330
2A
102
}
102
{ACAD_XDICTIONARY
360
110
102
}
330
2A
100
AcDbVisualStyle
  2
3D Hidden
 70
     6
 71
     1
 72
     2
 73
     2
 90
        0
 40
-0.6
 41
-30.0
 62
     5
 63
     7
 74
     2
 91
        2
 64
     7
 65
   257
 75
     2
175
     1
 42
40.0
 92
        0
 66
   257
 43
1.0
 76
     1
 77
     6
 78
     2
 67
     7
 79
     3
170
     0
171
     0
290
     0
174
     0
 93
        1
 44
0.0
173
     0
291
     0
 45
0.0
1001
ACAD
1000
AcDbSavedByObjectVersion
1070
     0
  0
VISUALSTYLE
  5
30
102
{ACAD_REACTORS
330
2A
102
}
102
{ACAD_XDICTIONARY
360
10E
102
}
330
2A
100
AcDbVisualStyle
  2
3dWireframe
 70
     5
 71
     0
 72
     2
 73
     0
 90
        0
 40
-0.6
 41
-30.0
 62
     5
 63
     7
 74
     1
 91
        4
 64
     7
 65
   257
 75
     1
175
     1
 42
1.0
 92
        0
 66
   257
 43
1.0
 76
     1
 77
     6
 78
     2
 67
     7
 79
     5
170
     0
171
     0
290
     0
174
     0
 93
        1
 44
0.0
173
     0
291
     0
 45
0.0
1001
ACAD
1000
AcDbSavedByObjectVersion
1070
     0
  0
VISUALSTYLE
  5
32
102
{ACAD_REACTORS
330
2A
102
}
102
{ACAD_XDICTIONARY
360
112
102
}
330
2A
100
AcDbVisualStyle
  2
Basic
 70
     7
 71
     1
 72
     0
 73
     1
 90
        0
 40
-0.6
 41
-30.0
 62
     5
 63
     7
 74
     0
 91
        4
 64
     7
 65
   257
 75
     1
175
     1
 42
1.0
 92
        8
 66
     7
 43
1.0
 76
     1
 77
     6
 78
     2
 67
     7
 79
     5
170
     0
171
     0
290
     0
174
     0
 93
        1
 44
0.0
173
     0
291
     1
 45
0.0
1001
ACAD
1000
AcDbSavedByObjectVersion
1070
     0
  0
VISUALSTYLE
  5
36
102
{ACAD_REACTORS
330
2A
102
}
102
{ACAD_XDICTIONARY
360
11A
102
}
330
2A
100
AcDbVisualStyle
  2
Brighten
 70
    12
 71
     2
 72
     2
 73
     0
 90
        0
 40
-0.6
 41
-30.0
 62
     5
 63
     7
 74
     1
 91
        4
 64
     7
 65
   257
 75
     1
175
     1
 42
1.0
 92
        8
 66
     7
 43
1.0
 76
     1
 77
     6
 78
     2
 67
     7
 79
     5
170
     0
171
     0
290
     0
174
     0
 93
        1
 44
50.0
173
     0
291
     1
 45
0.0
1001
ACAD
1000
AcDbSavedByObjectVersion
1070
     0
  0
VISUALSTYLE
  5
3A
102
{ACAD_REACTORS
330
2A
102
}
102
{ACAD_XDICTIONARY
360
122
102
}
330
2A
100
AcDbVisualStyle
  2
ColorChange
 70
    16
 71
     2
 72
     2
 73
     3
 90
        0
 40
-0.6
 41
-30.0
 62
     5
 63
     8
 74
     1
 91
        4
 64
     7
 65
   257
 75
     1
175
     1
 42
1.0
 92
        8
 66
     8
 43
1.0
 76
     1
 77
     6
 78
     2
 67
     7
 79
     5
170
     0
171
     0
290
     0
174
     0
 93
        1
 44
0.0
173
     0
291
     1
 45
0.0
1001
ACAD
1000
AcDbSavedByObjectVersion
1070
     0
  0
VISUALSTYLE
  5
34
102
{ACAD_REACTORS
330
2A
102
}
102
{ACAD_XDICTIONARY
360
116
102
}
330
2A
100
AcDbVisualStyle
  2
Conceptual
 70
     9
 71
     3
 72
     2
 73
     0
 90
        0
 40
-0.6
 41
-30.0
 62
     5
 63
     7
 74
     2
 91
        2
 64
     7
 65
   257
 75
     1
175
     1
 42
40.0
 92
        8
 66
     7
 43
1.0
 76
     1
 77
     6
 78
     2
 67
     7
 79
     3
170
     0
171
     0
290
     0
174
     0
 93
        1
 44
0.0
173
     0
291
     0
 45
0.0
1001
ACAD
1000
AcDbSavedByObjectVersion
1070
     0
  0
VISUALSTYLE
  5
35
102
{ACAD_REACTORS
330
2A
102
}
102
{ACAD_XDICTIONARY
360
118
102
}
330
2A
100
AcDbVisualStyle
  2
Dim
 70
    11
 71
     2
 72
     2
 73
     0
 90
        0
 40
-0.6
 41
-30.0
 62
     5
 63
     7
 74
     1
 91
        4
 64
     7
 65
   257
 75
     1
175
     1
 42
1.0
 92
        8
 66
     7
 43
1.0
 76
     1
 77
     6
 78
     2
 67
     7
 79
     5
170
     0
171
     0
290
     0
174
     0
 93
        1
 44
-50.0
173
     0
291
     1
 45
0.0
1001
ACAD
1000
AcDbSavedByObjectVersion
1070
     0
  0
VISUALSTYLE
  5
39
102
{ACAD_REACTORS
330
2A
102
}
102
{ACAD_XDICTIONARY
360
120
102
}
330
2A
100
AcDbVisualStyle
  2
Facepattern
 70
    15
 71
     2
 72
     2
 73
     0
 90
        0
 40
-0.6
 41
-30.0
 62
     5
 63
     7
 74
     1
 91
        4
 64
     7
 65
   257
 75
     1
175
     1
 42
1.0
 92
        8
 66
     7
 43
1.0
 76
     1
 77
     6
 78
     2
 67
     7
 79
     5
170
     0
171
     0
290
     0
174
     0
 93
        1
 44
0.0
173
     0
291
     1
 45
0.0
1001
ACAD
1000
AcDbSavedByObjectVersion
1070
     0
  0
VISUALSTYLE
  5
2B
102
{ACAD_REACTORS
330
2A
102
}
102
{ACAD_XDICTIONARY
360
104
102
}
330
2A
100
AcDbVisualStyle
  2
Flat
 70
     0
 71
     2
 72
     1
 73
     1
 90
        2
 40
-0.6
 41
30.0
 62
     5
 63
     7
 74
     0
 91
        4
 64
     7
 65
   257
 75
     1
175
     1
 42
1.0
 92
        8
 66
     7
 43
1.0
 76
     1
 77
     6
 78
     2
 67
     7
 79
     5
170
     0
171
     0
290
     0
174
     0
 93
       13
 44
0.0
173
     0
291
     1
 45
0.0
1001
ACAD
1000
AcDbSavedByObjectVersion
1070
     0
  0
VISUALSTYLE
  5
2C
102
{ACAD_REACTORS
330
2A
102
}
102
{ACAD_XDICTIONARY
360
106
102
}
330
2A
100
AcDbVisualStyle
  2
FlatWithEdges
 70
     1
 71
     2
 72
     1
 73
     1
 90
        2
 40
-0.6
 41
30.0
 62
     5
 63
     7
 74
     1
 91
        4
 64
     7
 65
   257
 75
     1
175
     1
 42
1.0
 92
        0
 66
   257
 43
1.0
 76
     1
 77
     6
 78
     2
 67
     7
 79
     5
170
     0
171
     0
290
     0
174
     0
 93
       13
 44
0.0
173
     0
291
     1
 45
0.0
1001
ACAD
1000
AcDbSavedByObjectVersion
1070
     0
  0
VISUALSTYLE
  5
2D
102
{ACAD_REACTORS
330
2A
102
}
102
{ACAD_XDICTIONARY
360
108
102
}
330
2A
100
AcDbVisualStyle
  2
Gouraud
 70
     2
 71
     2
 72
     2
 73
     1
 90
        2
 40
-0.6
 41
30.0
 62
     5
 63
     7
 74
     0
 91
        4
 64
     7
 65
   257
 75
     1
175
     1
 42
1.0
 92
        0
 66
     7
 43
1.0
 76
     1
 77
     6
 78
     2
 67
     7
 79
     5
170
     0
171
     0
290
     0
174
     0
 93
       13
 44
0.0
173
     0
291
     1
 45
0.0
1001
ACAD
1000
AcDbSavedByObjectVersion
1070
     0
  0
VISUALSTYLE
  5
2E
102
{ACAD_REACTORS
330
2A
102
}
102
{ACAD_XDICTIONARY
360
10A
102
}
330
2A
100
AcDbVisualStyle
  2
GouraudWithEdges
 70
     3
 71
     2
 72
     2
 73
     1
 90
        2
 40
-0.6
 41
30.0
 62
     5
 63
     7
 74
     1
 91
        4
 64
     7
 65
   257
 75
     1
175
     1
 42
1.0
 92
        0
 66
   257
 43
1.0
 76
     1
 77
     6
 78
     2
 67
     7
 79
     5
170
     0
171
     0
290
     0
174
     0
 93
       13
 44
0.0
173
     0
291
     1
 45
0.0
1001
ACAD
1000
AcDbSavedByObjectVersion
1070
     0
  0
VISUALSTYLE
  5
38
102
{ACAD_REACTORS
330
2A
102
}
102
{ACAD_XDICTIONARY
360
11E
102
}
330
2A
100
AcDbVisualStyle
  2
Linepattern
 70
    14
 71
     2
 72
     2
 73
     0
 90
        0
 40
-0.6
 41
-30.0
 62
     5
 63
     7
 74
     1
 91
        4
 64
     7
 65
   257
 75
     7
175
     7
 42
1.0
 92
        8
 66
     7
 43
1.0
 76
     1
 77
     6
 78
     2
 67
     7
 79
     5
170
     0
171
     0
290
     0
174
     0
 93
        1
 44
0.0
173
     0
291
     1
 45
0.0
1001
ACAD
1000
AcDbSavedByObjectVersion
1070
     0
  0
VISUALSTYLE
  5
33
102
{ACAD_REACTORS
330
2A
102
}
102
{ACAD_XDICTIONARY
360
114
102
}
330
2A
100
AcDbVisualStyle
  2
Realistic
 70
     8
 71
     2
 72
     2
 73
     0
 90
        0
 40
-0.6
 41
-30.0
 62
     5
 63
     7
 74
     1
 91
        0
 64
     7
 65
   257
 75
     1
175
     1
 42
1.0
 92
        8
 66
     8
 43
1.0
 76
     1
 77
     6
 78
     2
 67
     7
 79
     5
170
     0
171
     0
290
     0
174
     0
 93
       13
 44
0.0
173
     0
291
     0
 45
0.0
1001
ACAD
1000
AcDbSavedByObjectVersion
1070
     0
  0
VISUALSTYLE
  5
37
102
{ACAD_REACTORS
330
2A
102
}
102
{ACAD_XDICTIONARY
360
11C
102
}
330
2A
100
AcDbVisualStyle
  2
Thicken
 70
    13
 71
     2
 72
     2
 73
     0
 90
        0
 40
-0.6
 41
-30.0
 62
     5
 63
     7
 74
     1
 91
        4
 64
     7
 65
   257
 75
     1
175
     1
 42
1.0
 92
       12
 66
     7
 43
1.0
 76
     1
 77
     6
 78
     2
 67
     7
 79
     5
170
     0
171
     0
290
     0
174
     0
 93
        1
 44
0.0
173
     0
291
     1
 45
0.0
1001
ACAD
1000
AcDbSavedByObjectVersion
1070
     0
  0
DICTIONARYVAR
  5
102
102
{ACAD_REACTORS
330
FF
102
}
330
FF
100
DictionaryVariables
280
     0
  1
2
  0
DICTIONARYVAR
  5
103
102
{ACAD_REACTORS
330
FF
102
}
330
FF
100
DictionaryVariables
280
     0
  1
1
  0
DICTIONARY
  5
126
330
3D
100
AcDbDictionary
280
     1
281
     1
  3
ACAD_XREC_ROUNDTRIP
360
127
  0
DICTIONARY
  5
124
330
3C
100
AcDbDictionary
280
     1
281
     1
  3
ACAD_XREC_ROUNDTRIP
360
125
  0
DICTIONARY
  5
128
330
3E
100
AcDbDictionary
280
     1
281
     1
  3
ACAD_XREC_ROUNDTRIP
360
129
  0
DICTIONARY
  5
10C
330
2F
100
AcDbDictionary
280
     1
281
     1
  3
ACAD_XREC_ROUNDTRIP
360
10D
  0
DICTIONARY
  5
110
330
31
100
AcDbDictionary
280
     1
281
     1
  3
ACAD_XREC_ROUNDTRIP
360
111
  0
DICTIONARY
  5
10E
330
30
100
AcDbDictionary
280
     1
281
     1
  3
ACAD_XREC_ROUNDTRIP
360
10F
  0
DICTIONARY
  5
112
330
32
100
AcDbDictionary
280
     1
281
     1
  3
ACAD_XREC_ROUNDTRIP
360
113
  0
DICTIONARY
  5
11A
330
36
100
AcDbDictionary
280
     1
281
     1
  3
ACAD_XREC_ROUNDTRIP
360
11B
  0
DICTIONARY
  5
122
330
3A
100
AcDbDictionary
280
     1
281
     1
  3
ACAD_XREC_ROUNDTRIP
360
123
  0
DICTIONARY
  5
116
330
34
100
AcDbDictionary
280
     1
281
     1
  3
ACAD_XREC_ROUNDTRIP
360
117
  0
DICTIONARY
  5
118
330
35
100
AcDbDictionary
280
     1
281
     1
  3
ACAD_XREC_ROUNDTRIP
360
119
  0
DICTIONARY
  5
120
330
39
100
AcDbDictionary
280
     1
281
     1
  3
ACAD_XREC_ROUNDTRIP
360
121
  0
DICTIONARY
  5
104
330
2B
100
AcDbDictionary
280
     1
281
     1
  3
ACAD_XREC_ROUNDTRIP
360
105
  0
DICTIONARY
  5
106
330
2C
100
AcDbDictionary
280
     1
281
     1
  3
ACAD_XREC_ROUNDTRIP
360
107
  0
DICTIONARY
  5
108
330
2D
100
AcDbDictionary
280
     1
281
     1
  3
ACAD_XREC_ROUNDTRIP
360
109
  0
DICTIONARY
  5
10A
330
2E
100
AcDbDictionary
280
     1
281
     1
  3
ACAD_XREC_ROUNDTRIP
360
10B
  0
DICTIONARY
  5
11E
330
38
100
AcDbDictionary
280
     1
281
     1
  3
ACAD_XREC_ROUNDTRIP
360
11F
  0
DICTIONARY
  5
114
330
33
100
AcDbDictionary
280
     1
281
     1
  3
ACAD_XREC_ROUNDTRIP
360
115
  0
DICTIONARY
  5
11C
330
37
100
AcDbDictionary
280
     1
281
     1
  3
ACAD_XREC_ROUNDTRIP
360
11D
  0
XRECORD
  5
127
102
{ACAD_REACTORS
330
126
102
}
330
126
100
AcDbXrecord
280
     1
102
MATERIAL
148
0.0
149
0.0
149
0.0
 93
        0
 94
      127
282
     0
 72
     1
 77
     1
171
     1
175
     1
179
     1
273
     0
  0
XRECORD
  5
125
102
{ACAD_REACTORS
330
124
102
}
330
124
100
AcDbXrecord
280
     1
102
MATERIAL
148
0.0
149
0.0
149
0.0
 93
        0
 94
      127
282
     0
 72
     1
 77
     1
171
     1
175
     1
179
     1
273
     0
  0
XRECORD
  5
129
102
{ACAD_REACTORS
330
128
102
}
330
128
100
AcDbXrecord
280
     1
102
MATERIAL
148
0.0
149
0.0
149
0.0
 93
        0
 94
      127
282
     0
 72
     1
 77
     1
171
     1
175
     1
179
     1
273
     0
  0
XRECORD
  5
10D
102
{ACAD_REACTORS
330
10C
102
}
330
10C
100
AcDbXrecord
280
     1
102
RTVSPropertyOp0
 70
     1
102
RTVSPropertyOp1
 70
     1
102
RTVSPropertyOp2
 70
     1
102
RTVSPropertyOp3
 70
     1
102
RTVSPropertyOp4
 70
     1
102
RTVSPropertyOp5
 70
     1
102
RTVSPropertyOp6
 70
     1
102
RTVSPropertyOp7
 70
     1
102
RTVSPropertyOp8
 70
     1
102
RTVSPropertyOp9
 70
     1
102
RTVSPropertyOp10
 70
     1
102
RTVSPropertyOp11
 70
     1
102
RTVSPropertyOp12
 70
     1
102
RTVSPropertyOp13
 70
     1
102
RTVSPropertyOp14
 70
     1
102
RTVSPropertyOp15
 70
     1
102
RTVSPropertyOp16
 70
     1
102
RTVSPropertyOp17
 70
     1
102
RTVSPropertyOp18
 70
     1
102
RTVSPropertyOp19
 70
     1
102
RTVSPropertyOp20
 70
     1
102
RTVSPropertyOp21
 70
     1
102
RTVSPropertyOp22
 70
     1
102
RTVSPropertyOp23
 70
     1
102
RTVSPropertyOp24
 70
     1
102
RTVSPropertyOp25
 70
     1
102
RTVSPropertyOp26
 70
     1
102
RTVSPropertyOp27
 70
     1
  0
XRECORD
  5
111
102
{ACAD_REACTORS
330
110
102
}
330
110
100
AcDbXrecord
280
     1
102
RTVSPropertyOp0
 70
     1
102
RTVSPropertyOp1
 70
     1
102
RTVSPropertyOp2
 70
     1
102
RTVSPropertyOp3
 70
     1
102
RTVSPropertyOp4
 70
     1
102
RTVSPropertyOp5
 70
     1
102
RTVSPropertyOp6
 70
     1
102
RTVSPropertyOp7
 70
     1
102
RTVSPropertyOp8
 70
     1
102
RTVSPropertyOp9
 70
     1
102
RTVSPropertyOp10
 70
     1
102
RTVSPropertyOp11
 70
     1
102
RTVSPropertyOp12
 70
     1
102
RTVSPropertyOp13
 70
     1
102
RTVSPropertyOp14
 70
     1
102
RTVSPropertyOp15
 70
     1
102
RTVSPropertyOp16
 70
     1
102
RTVSPropertyOp17
 70
     1
102
RTVSPropertyOp18
 70
     1
102
RTVSPropertyOp19
 70
     1
102
RTVSPropertyOp20
 70
     1
102
RTVSPropertyOp21
 70
     1
102
RTVSPropertyOp22
 70
     1
102
RTVSPropertyOp23
 70
     1
102
RTVSPropertyOp24
 70
     1
102
RTVSPropertyOp25
 70
     1
102
RTVSPropertyOp26
 70
     1
102
RTVSPropertyOp27
 70
     1
  0
XRECORD
  5
10F
102
{ACAD_REACTORS
330
10E
102
}
330
10E
100
AcDbXrecord
280
     1
102
RTVSPropertyOp0
 70
     1
102
RTVSPropertyOp1
 70
     1
102
RTVSPropertyOp2
 70
     1
102
RTVSPropertyOp3
 70
     1
102
RTVSPropertyOp4
 70
     1
102
RTVSPropertyOp5
 70
     1
102
RTVSPropertyOp6
 70
     1
102
RTVSPropertyOp7
 70
     1
102
RTVSPropertyOp8
 70
     1
102
RTVSPropertyOp9
 70
     1
102
RTVSPropertyOp10
 70
     1
102
RTVSPropertyOp11
 70
     1
102
RTVSPropertyOp12
 70
     1
102
RTVSPropertyOp13
 70
     1
102
RTVSPropertyOp14
 70
     1
102
RTVSPropertyOp15
 70
     1
102
RTVSPropertyOp16
 70
     1
102
RTVSPropertyOp17
 70
     1
102
RTVSPropertyOp18
 70
     1
102
RTVSPropertyOp19
 70
     1
102
RTVSPropertyOp20
 70
     1
102
RTVSPropertyOp21
 70
     1
102
RTVSPropertyOp22
 70
     1
102
RTVSPropertyOp23
 70
     1
102
RTVSPropertyOp24
 70
     1
102
RTVSPropertyOp25
 70
     1
102
RTVSPropertyOp26
 70
     1
102
RTVSPropertyOp27
 70
     1
  0
XRECORD
  5
113
102
{ACAD_REACTORS
330
112
102
}
330
112
100
AcDbXrecord
280
     1
102
RTVSPropertyOp0
 70
     1
102
RTVSPropertyOp1
 70
     1
102
RTVSPropertyOp2
 70
     1
102
RTVSPropertyOp3
 70
     1
102
RTVSPropertyOp4
 70
     1
102
RTVSPropertyOp5
 70
     1
102
RTVSPropertyOp6
 70
     1
102
RTVSPropertyOp7
 70
     1
102
RTVSPropertyOp8
 70
     1
102
RTVSPropertyOp9
 70
     1
102
RTVSPropertyOp10
 70
     1
102
RTVSPropertyOp11
 70
     1
102
RTVSPropertyOp12
 70
     1
102
RTVSPropertyOp13
 70
     1
102
RTVSPropertyOp14
 70
     1
102
RTVSPropertyOp15
 70
     1
102
RTVSPropertyOp16
 70
     1
102
RTVSPropertyOp17
 70
     1
102
RTVSPropertyOp18
 70
     1
102
RTVSPropertyOp19
 70
     1
102
RTVSPropertyOp20
 70
     1
102
RTVSPropertyOp21
 70
     1
102
RTVSPropertyOp22
 70
     1
102
RTVSPropertyOp23
 70
     1
102
RTVSPropertyOp24
 70
     1
102
RTVSPropertyOp25
 70
     1
102
RTVSPropertyOp26
 70
     1
102
RTVSPropertyOp27
 70
     1
  0
XRECORD
  5
11B
102
{ACAD_REACTORS
330
11A
102
}
330
11A
100
AcDbXrecord
280
     1
102
RTVSPropertyOp0
 70
     1
102
RTVSPropertyOp1
 70
     1
102
RTVSPropertyOp2
 70
     1
102
RTVSPropertyOp3
 70
     1
102
RTVSPropertyOp4
 70
     1
102
RTVSPropertyOp5
 70
     1
102
RTVSPropertyOp6
 70
     1
102
RTVSPropertyOp7
 70
     1
102
RTVSPropertyOp8
 70
     1
102
RTVSPropertyOp9
 70
     1
102
RTVSPropertyOp10
 70
     1
102
RTVSPropertyOp11
 70
     1
102
RTVSPropertyOp12
 70
     1
102
RTVSPropertyOp13
 70
     1
102
RTVSPropertyOp14
 70
     1
102
RTVSPropertyOp15
 70
     1
102
RTVSPropertyOp16
 70
     1
102
RTVSPropertyOp17
 70
     1
102
RTVSPropertyOp18
 70
     1
102
RTVSPropertyOp19
 70
     1
102
RTVSPropertyOp20
 70
     1
102
RTVSPropertyOp21
 70
     1
102
RTVSPropertyOp22
 70
     1
102
RTVSPropertyOp23
 70
     1
102
RTVSPropertyOp24
 70
     1
102
RTVSPropertyOp25
 70
     1
102
RTVSPropertyOp26
 70
     1
102
RTVSPropertyOp27
 70
     1
  0
XRECORD
  5
123
102
{ACAD_REACTORS
330
122
102
}
330
122
100
AcDbXrecord
280
     1
102
RTVSPropertyOp0
 70
     1
102
RTVSPropertyOp1
 70
     1
102
RTVSPropertyOp2
 70
     1
102
RTVSPropertyOp3
 70
     1
102
RTVSPropertyOp4
 70
     1
102
RTVSPropertyOp5
 70
     1
102
RTVSPropertyOp6
 70
     1
102
RTVSPropertyOp7
 70
     1
102
RTVSPropertyOp8
 70
     1
102
RTVSPropertyOp9
 70
     1
102
RTVSPropertyOp10
 70
     1
102
RTVSPropertyOp11
 70
     1
102
RTVSPropertyOp12
 70
     1
102
RTVSPropertyOp13
 70
     1
102
RTVSPropertyOp14
 70
     1
102
RTVSPropertyOp15
 70
     1
102
RTVSPropertyOp16
 70
     1
102
RTVSPropertyOp17
 70
     1
102
RTVSPropertyOp18
 70
     1
102
RTVSPropertyOp19
 70
     1
102
RTVSPropertyOp20
 70
     1
102
RTVSPropertyOp21
 70
     1
102
RTVSPropertyOp22
 70
     1
102
RTVSPropertyOp23
 70
     1
102
RTVSPropertyOp24
 70
     1
102
RTVSPropertyOp25
 70
     1
102
RTVSPropertyOp26
 70
     1
102
RTVSPropertyOp27
 70
     1
  0
XRECORD
  5
117
102
{ACAD_REACTORS
330
116
102
}
330
116
100
AcDbXrecord
280
     1
102
RTVSPropertyOp0
 70
     1
102
RTVSPropertyOp1
 70
     1
102
RTVSPropertyOp2
 70
     1
102
RTVSPropertyOp3
 70
     1
102
RTVSPropertyOp4
 70
     1
102
RTVSPropertyOp5
 70
     1
102
RTVSPropertyOp6
 70
     1
102
RTVSPropertyOp7
 70
     1
102
RTVSPropertyOp8
 70
     1
102
RTVSPropertyOp9
 70
     1
102
RTVSPropertyOp10
 70
     1
102
RTVSPropertyOp11
 70
     1
102
RTVSPropertyOp12
 70
     1
102
RTVSPropertyOp13
 70
     1
102
RTVSPropertyOp14
 70
     1
102
RTVSPropertyOp15
 70
     1
102
RTVSPropertyOp16
 70
     1
102
RTVSPropertyOp17
 70
     1
102
RTVSPropertyOp18
 70
     1
102
RTVSPropertyOp19
 70
     1
102
RTVSPropertyOp20
 70
     1
102
RTVSPropertyOp21
 70
     1
102
RTVSPropertyOp22
 70
     1
102
RTVSPropertyOp23
 70
     1
102
RTVSPropertyOp24
 70
     1
102
RTVSPropertyOp25
 70
     1
102
RTVSPropertyOp26
 70
     1
102
RTVSPropertyOp27
 70
     1
  0
XRECORD
  5
119
102
{ACAD_REACTORS
330
118
102
}
330
118
100
AcDbXrecord
280
     1
102
RTVSPropertyOp0
 70
     1
102
RTVSPropertyOp1
 70
     1
102
RTVSPropertyOp2
 70
     1
102
RTVSPropertyOp3
 70
     1
102
RTVSPropertyOp4
 70
     1
102
RTVSPropertyOp5
 70
     1
102
RTVSPropertyOp6
 70
     1
102
RTVSPropertyOp7
 70
     1
102
RTVSPropertyOp8
 70
     1
102
RTVSPropertyOp9
 70
     1
102
RTVSPropertyOp10
 70
     1
102
RTVSPropertyOp11
 70
     1
102
RTVSPropertyOp12
 70
     1
102
RTVSPropertyOp13
 70
     1
102
RTVSPropertyOp14
 70
     1
102
RTVSPropertyOp15
 70
     1
102
RTVSPropertyOp16
 70
     1
102
RTVSPropertyOp17
 70
     1
102
RTVSPropertyOp18
 70
     1
102
RTVSPropertyOp19
 70
     1
102
RTVSPropertyOp20
 70
     1
102
RTVSPropertyOp21
 70
     1
102
RTVSPropertyOp22
 70
     1
102
RTVSPropertyOp23
 70
     1
102
RTVSPropertyOp24
 70
     1
102
RTVSPropertyOp25
 70
     1
102
RTVSPropertyOp26
 70
     1
102
RTVSPropertyOp27
 70
     1
  0
XRECORD
  5
121
102
{ACAD_REACTORS
330
120
102
}
330
120
100
AcDbXrecord
280
     1
102
RTVSPropertyOp0
 70
     1
102
RTVSPropertyOp1
 70
     1
102
RTVSPropertyOp2
 70
     1
102
RTVSPropertyOp3
 70
     1
102
RTVSPropertyOp4
 70
     1
102
RTVSPropertyOp5
 70
     1
102
RTVSPropertyOp6
 70
     1
102
RTVSPropertyOp7
 70
     1
102
RTVSPropertyOp8
 70
     1
102
RTVSPropertyOp9
 70
     1
102
RTVSPropertyOp10
 70
     1
102
RTVSPropertyOp11
 70
     1
102
RTVSPropertyOp12
 70
     1
102
RTVSPropertyOp13
 70
     1
102
RTVSPropertyOp14
 70
     1
102
RTVSPropertyOp15
 70
     1
102
RTVSPropertyOp16
 70
     1
102
RTVSPropertyOp17
 70
     1
102
RTVSPropertyOp18
 70
     1
102
RTVSPropertyOp19
 70
     1
102
RTVSPropertyOp20
 70
     1
102
RTVSPropertyOp21
 70
     1
102
RTVSPropertyOp22
 70
     1
102
RTVSPropertyOp23
 70
     1
102
RTVSPropertyOp24
 70
     1
102
RTVSPropertyOp25
 70
     1
102
RTVSPropertyOp26
 70
     1
102
RTVSPropertyOp27
 70
     1
  0
XRECORD
  5
105
102
{ACAD_REACTORS
330
104
102
}
330
104
100
AcDbXrecord
280
     1
102
RTVSPropertyOp0
 70
     1
102
RTVSPropertyOp1
 70
     1
102
RTVSPropertyOp2
 70
     1
102
RTVSPropertyOp3
 70
     1
102
RTVSPropertyOp4
 70
     1
102
RTVSPropertyOp5
 70
     1
102
RTVSPropertyOp6
 70
     1
102
RTVSPropertyOp7
 70
     1
102
RTVSPropertyOp8
 70
     1
102
RTVSPropertyOp9
 70
     1
102
RTVSPropertyOp10
 70
     1
102
RTVSPropertyOp11
 70
     1
102
RTVSPropertyOp12
 70
     1
102
RTVSPropertyOp13
 70
     1
102
RTVSPropertyOp14
 70
     1
102
RTVSPropertyOp15
 70
     1
102
RTVSPropertyOp16
 70
     1
102
RTVSPropertyOp17
 70
     1
102
RTVSPropertyOp18
 70
     1
102
RTVSPropertyOp19
 70
     1
102
RTVSPropertyOp20
 70
     1
102
RTVSPropertyOp21
 70
     1
102
RTVSPropertyOp22
 70
     1
102
RTVSPropertyOp23
 70
     1
102
RTVSPropertyOp24
 70
     1
102
RTVSPropertyOp25
 70
     1
102
RTVSPropertyOp26
 70
     1
102
RTVSPropertyOp27
 70
     1
  0
XRECORD
  5
107
102
{ACAD_REACTORS
330
106
102
}
330
106
100
AcDbXrecord
280
     1
102
RTVSPropertyOp0
 70
     1
102
RTVSPropertyOp1
 70
     1
102
RTVSPropertyOp2
 70
     1
102
RTVSPropertyOp3
 70
     1
102
RTVSPropertyOp4
 70
     1
102
RTVSPropertyOp5
 70
     1
102
RTVSPropertyOp6
 70
     1
102
RTVSPropertyOp7
 70
     1
102
RTVSPropertyOp8
 70
     1
102
RTVSPropertyOp9
 70
     1
102
RTVSPropertyOp10
 70
     1
102
RTVSPropertyOp11
 70
     1
102
RTVSPropertyOp12
 70
     1
102
RTVSPropertyOp13
 70
     1
102
RTVSPropertyOp14
 70
     1
102
RTVSPropertyOp15
 70
     1
102
RTVSPropertyOp16
 70
     1
102
RTVSPropertyOp17
 70
     1
102
RTVSPropertyOp18
 70
     1
102
RTVSPropertyOp19
 70
     1
102
RTVSPropertyOp20
 70
     1
102
RTVSPropertyOp21
 70
     1
102
RTVSPropertyOp22
 70
     1
102
RTVSPropertyOp23
 70
     1
102
RTVSPropertyOp24
 70
     1
102
RTVSPropertyOp25
 70
     1
102
RTVSPropertyOp26
 70
     1
102
RTVSPropertyOp27
 70
     1
  0
XRECORD
  5
109
102
{ACAD_REACTORS
330
108
102
}
330
108
100
AcDbXrecord
280
     1
102
RTVSPropertyOp0
 70
     1
102
RTVSPropertyOp1
 70
     1
102
RTVSPropertyOp2
 70
     1
102
RTVSPropertyOp3
 70
     1
102
RTVSPropertyOp4
 70
     1
102
RTVSPropertyOp5
 70
     1
102
RTVSPropertyOp6
 70
     1
102
RTVSPropertyOp7
 70
     1
102
RTVSPropertyOp8
 70
     1
102
RTVSPropertyOp9
 70
     1
102
RTVSPropertyOp10
 70
     1
102
RTVSPropertyOp11
 70
     1
102
RTVSPropertyOp12
 70
     1
102
RTVSPropertyOp13
 70
     1
102
RTVSPropertyOp14
 70
     1
102
RTVSPropertyOp15
 70
     1
102
RTVSPropertyOp16
 70
     1
102
RTVSPropertyOp17
 70
     1
102
RTVSPropertyOp18
 70
     1
102
RTVSPropertyOp19
 70
     1
102
RTVSPropertyOp20
 70
     1
102
RTVSPropertyOp21
 70
     1
102
RTVSPropertyOp22
 70
     1
102
RTVSPropertyOp23
 70
     1
102
RTVSPropertyOp24
 70
     1
102
RTVSPropertyOp25
 70
     1
102
RTVSPropertyOp26
 70
     1
102
RTVSPropertyOp27
 70
     1
  0
XRECORD
  5
10B
102
{ACAD_REACTORS
330
10A
102
}
330
10A
100
AcDbXrecord
280
     1
102
RTVSPropertyOp0
 70
     1
102
RTVSPropertyOp1
 70
     1
102
RTVSPropertyOp2
 70
     1
102
RTVSPropertyOp3
 70
     1
102
RTVSPropertyOp4
 70
     1
102
RTVSPropertyOp5
 70
     1
102
RTVSPropertyOp6
 70
     1
102
RTVSPropertyOp7
 70
     1
102
RTVSPropertyOp8
 70
     1
102
RTVSPropertyOp9
 70
     1
102
RTVSPropertyOp10
 70
     1
102
RTVSPropertyOp11
 70
     1
102
RTVSPropertyOp12
 70
     1
102
RTVSPropertyOp13
 70
     1
102
RTVSPropertyOp14
 70
     1
102
RTVSPropertyOp15
 70
     1
102
RTVSPropertyOp16
 70
     1
102
RTVSPropertyOp17
 70
     1
102
RTVSPropertyOp18
 70
     1
102
RTVSPropertyOp19
 70
     1
102
RTVSPropertyOp20
 70
     1
102
RTVSPropertyOp21
 70
     1
102
RTVSPropertyOp22
 70
     1
102
RTVSPropertyOp23
 70
     1
102
RTVSPropertyOp24
 70
     1
102
RTVSPropertyOp25
 70
     1
102
RTVSPropertyOp26
 70
     1
102
RTVSPropertyOp27
 70
     1
  0
XRECORD
  5
11F
102
{ACAD_REACTORS
330
11E
102
}
330
11E
100
AcDbXrecord
280
     1
102
RTVSPropertyOp0
 70
     1
102
RTVSPropertyOp1
 70
     1
102
RTVSPropertyOp2
 70
     1
102
RTVSPropertyOp3
 70
     1
102
RTVSPropertyOp4
 70
     1
102
RTVSPropertyOp5
 70
     1
102
RTVSPropertyOp6
 70
     1
102
RTVSPropertyOp7
 70
     1
102
RTVSPropertyOp8
 70
     1
102
RTVSPropertyOp9
 70
     1
102
RTVSPropertyOp10
 70
     1
102
RTVSPropertyOp11
 70
     1
102
RTVSPropertyOp12
 70
     1
102
RTVSPropertyOp13
 70
     1
102
RTVSPropertyOp14
 70
     1
102
RTVSPropertyOp15
 70
     1
102
RTVSPropertyOp16
 70
     1
102
RTVSPropertyOp17
 70
     1
102
RTVSPropertyOp18
 70
     1
102
RTVSPropertyOp19
 70
     1
102
RTVSPropertyOp20
 70
     1
102
RTVSPropertyOp21
 70
     1
102
RTVSPropertyOp22
 70
     1
102
RTVSPropertyOp23
 70
     1
102
RTVSPropertyOp24
 70
     1
102
RTVSPropertyOp25
 70
     1
102
RTVSPropertyOp26
 70
     1
102
RTVSPropertyOp27
 70
     1
  0
XRECORD
  5
115
102
{ACAD_REACTORS
330
114
102
}
330
114
100
AcDbXrecord
280
     1
102
RTVSPropertyOp0
 70
     1
102
RTVSPropertyOp1
 70
     1
102
RTVSPropertyOp2
 70
     1
102
RTVSPropertyOp3
 70
     1
102
RTVSPropertyOp4
 70
     1
102
RTVSPropertyOp5
 70
     1
102
RTVSPropertyOp6
 70
     1
102
RTVSPropertyOp7
 70
     1
102
RTVSPropertyOp8
 70
     1
102
RTVSPropertyOp9
 70
     1
102
RTVSPropertyOp10
 70
     1
102
RTVSPropertyOp11
 70
     1
102
RTVSPropertyOp12
 70
     1
102
RTVSPropertyOp13
 70
     1
102
RTVSPropertyOp14
 70
     1
102
RTVSPropertyOp15
 70
     1
102
RTVSPropertyOp16
 70
     1
102
RTVSPropertyOp17
 70
     1
102
RTVSPropertyOp18
 70
     1
102
RTVSPropertyOp19
 70
     1
102
RTVSPropertyOp20
 70
     1
102
RTVSPropertyOp21
 70
     1
102
RTVSPropertyOp22
 70
     1
102
RTVSPropertyOp23
 70
     1
102
RTVSPropertyOp24
 70
     1
102
RTVSPropertyOp25
 70
     1
102
RTVSPropertyOp26
 70
     1
102
RTVSPropertyOp27
 70
     1
  0
XRECORD
  5
11D
102
{ACAD_REACTORS
330
11C
102
}
330
11C
100
AcDbXrecord
280
     1
102
RTVSPropertyOp0
 70
     1
102
RTVSPropertyOp1
 70
     1
102
RTVSPropertyOp2
 70
     1
102
RTVSPropertyOp3
 70
     1
102
RTVSPropertyOp4
 70
     1
102
RTVSPropertyOp5
 70
     1
102
RTVSPropertyOp6
 70
     1
102
RTVSPropertyOp7
 70
     1
102
RTVSPropertyOp8
 70
     1
102
RTVSPropertyOp9
 70
     1
102
RTVSPropertyOp10
 70
     1
102
RTVSPropertyOp11
 70
     1
102
RTVSPropertyOp12
 70
     1
102
RTVSPropertyOp13
 70
     1
102
RTVSPropertyOp14
 70
     1
102
RTVSPropertyOp15
 70
     1
102
RTVSPropertyOp16
 70
     1
102
RTVSPropertyOp17
 70
     1
102
RTVSPropertyOp18
 70
     1
102
RTVSPropertyOp19
 70
     1
102
RTVSPropertyOp20
 70
     1
102
RTVSPropertyOp21
 70
     1
102
RTVSPropertyOp22
 70
     1
102
RTVSPropertyOp23
 70
     1
102
RTVSPropertyOp24
 70
     1
102
RTVSPropertyOp25
 70
     1
102
RTVSPropertyOp26
 70
     1
102
RTVSPropertyOp27
 70
     1
  0
ENDSEC
  0
EOF
