  0
SECTION
  2
HEADER
  9
$ACADVER
  1
AC1015
  9
$ACADMAINTVER
 70
     6
  9
$DWGCODEPAGE
  3
ANSI_1250
  9
$INSBASE
 10
0.0
 20
0.0
 30
0.0
  9
$EXTMIN
 10
-25.2283
 20
-11.046
 30
0.0
  9
$EXTMAX
 10
25.2222
 20
11.0508
 30
0.0
  9
$LIMMIN
 10
0.0
 20
0.0
  9
$LIMMAX
 10
12.0
 20
9.0
  9
$ORTHOMODE
 70
     0
  9
$REGENMODE
 70
     1
  9
$FILLMODE
 70
     1
  9
$QTEXTMODE
 70
     0
  9
$MIRRTEXT
 70
     1
  9
$LTSCALE
 40
1.0
  9
$ATTMODE
 70
     1
  9
$TEXTSIZE
 40
0.2
  9
$TRACEWID
 40
0.05
  9
$TEXTSTYLE
  7
Standard
  9
$CLAYER
  8
0
  9
$CELTYPE
  6
ByLayer
  9
$CECOLOR
 62
   256
  9
$CELTSCALE
 40
1.0
  9
$DISPSILH
 70
     0
  9
$DIMSCALE
 40
1.0
  9
$DIMASZ
 40
0.18
  9
$DIMEXO
 40
0.0625
  9
$DIMDLI
 40
0.38
  9
$DIMRND
 40
0.0
  9
$DIMDLE
 40
0.0
  9
$DIMEXE
 40
0.18
  9
$DIMTP
 40
0.0
  9
$DIMTM
 40
0.0
  9
$DIMTXT
 40
0.18
  9
$DIMCEN
 40
0.09
  9
$DIMTSZ
 40
0.0
  9
$DIMTOL
 70
     0
  9
$DIMLIM
 70
     0
  9
$DIMTIH
 70
     1
  9
$DIMTOH
 70
     1
  9
$DIMSE1
 70
     0
  9
$DIMSE2
 70
     0
  9
$DIMTAD
 70
     0
  9
$DIMZIN
 70
     0
  9
$DIMBLK
  1

  9
$DIMASO
 70
     1
  9
$DIMSHO
 70
     1
  9
$DIMPOST
  1

  9
$DIMAPOST
  1

  9
$DIMALT
 70
     0
  9
$DIMALTD
 70
     2
  9
$DIMALTF
 40
25.4
  9
$DIMLFAC
 40
1.0
  9
$DIMTOFL
 70
     0
  9
$DIMTVP
 40
0.0
  9
$DIMTIX
 70
     0
  9
$DIMSOXD
 70
     0
  9
$DIMSAH
 70
     0
  9
$DIMBLK1
  1

  9
$DIMBLK2
  1

  9
$DIMSTYLE
  2
Standard
  9
$DIMCLRD
 70
     0
  9
$DIMCLRE
 70
     0
  9
$DIMCLRT
 70
     0
  9
$DIMTFAC
 40
1.0
  9
$DIMGAP
 40
0.09
  9
$DIMJUST
 70
     0
  9
$DIMSD1
 70
     0
  9
$DIMSD2
 70
     0
  9
$DIMTOLJ
 70
     1
  9
$DIMTZIN
 70
     0
  9
$DIMALTZ
 70
     0
  9
$DIMALTTZ
 70
     0
  9
$DIMUPT
 70
     0
  9
$DIMDEC
 70
     4
  9
$DIMTDEC
 70
     4
  9
$DIMALTU
 70
     2
  9
$DIMALTTD
 70
     2
  9
$DIMTXSTY
  7
Standard
  9
$DIMAUNIT
 70
     0
  9
$DIMADEC
 70
     0
  9
$DIMALTRND
 40
0.0
  9
$DIMAZIN
 70
     0
  9
$DIMDSEP
 70
    46
  9
$DIMATFIT
 70
     3
  9
$DIMFRAC
 70
     0
  9
$DIMLDRBLK
  1

  9
$DIMLUNIT
 70
     2
  9
$DIMLWD
 70
    -2
  9
$DIMLWE
 70
    -2
  9
$DIMTMOVE
 70
     0
  9
$LUNITS
 70
     2
  9
$LUPREC
 70
     4
  9
$SKETCHINC
 40
0.1
  9
$FILLETRAD
 40
0.5
  9
$AUNITS
 70
     0
  9
$AUPREC
 70
     0
  9
$MENU
  1
.
  9
$ELEVATION
 40
0.0
  9
$PELEVATION
 40
0.0
  9
$THICKNESS
 40
0.0
  9
$LIMCHECK
 70
     0
  9
$CHAMFERA
 40
0.5
  9
$CHAMFERB
 40
0.5
  9
$CHAMFERC
 40
1.0
  9
$CHAMFERD
 40
0.0
  9
$SKPOLY
 70
     0
  9
$TDCREATE
 40
2458023.419870833
  9
$TDUCREATE
 40
2458023.3365375
  9
$TDUPDATE
 40
2458023.419870845
  9
$TDUUPDATE
 40
2458023.336537512
  9
$TDINDWG
 40
0.0000000116
  9
$TDUSRTIMER
 40
0.0000000116
  9
$USRTIMER
 70
     1
  9
$ANGBASE
 50
0.0
  9
$ANGDIR
 70
     0
  9
$PDMODE
 70
     0
  9
$PDSIZE
 40
0.0
  9
$PLINEWID
 40
0.0
  9
$SPLFRAME
 70
     0
  9
$SPLINETYPE
 70
     6
  9
$SPLINESEGS
 70
     8
  9
$HANDSEED
  5
11D
  9
$SURFTAB1
 70
     6
  9
$SURFTAB2
 70
     6
  9
$SURFTYPE
 70
     6
  9
$SURFU
 70
     6
  9
$SURFV
 70
     6
  9
$UCSBASE
  2

  9
$UCSNAME
  2

  9
$UCSORG
 10
0.0
 20
0.0
 30
0.0
  9
$UCSXDIR
 10
1.0
 20
0.0
 30
0.0
  9
$UCSYDIR
 10
0.0
 20
1.0
 30
0.0
  9
$UCSORTHOREF
  2

  9
$UCSORTHOVIEW
 70
     0
  9
$UCSORGTOP
 10
0.0
 20
0.0
 30
0.0
  9
$UCSORGBOTTOM
 10
0.0
 20
0.0
 30
0.0
  9
$UCSORGLEFT
 10
0.0
 20
0.0
 30
0.0
  9
$UCSORGRIGHT
 10
0.0
 20
0.0
 30
0.0
  9
$UCSORGFRONT
 10
0.0
 20
0.0
 30
0.0
  9
$UCSORGBACK
 10
0.0
 20
0.0
 30
0.0
  9
$PUCSBASE
  2

  9
$PUCSNAME
  2

  9
$PUCSORG
 10
0.0
 20
0.0
 30
0.0
  9
$PUCSXDIR
 10
1.0
 20
0.0
 30
0.0
  9
$PUCSYDIR
 10
0.0
 20
1.0
 30
0.0
  9
$PUCSORTHOREF
  2

  9
$PUCSORTHOVIEW
 70
     0
  9
$PUCSORGTOP
 10
0.0
 20
0.0
 30
0.0
  9
$PUCSORGBOTTOM
 10
0.0
 20
0.0
 30
0.0
  9
$PUCSORGLEFT
 10
0.0
 20
0.0
 30
0.0
  9
$PUCSORGRIGHT
 10
0.0
 20
0.0
 30
0.0
  9
$PUCSORGFRONT
 10
0.0
 20
0.0
 30
0.0
  9
$PUCSORGBACK
 10
0.0
 20
0.0
 30
0.0
  9
$USERI1
 70
     0
  9
$USERI2
 70
     0
  9
$USERI3
 70
     0
  9
$USERI4
 70
     0
  9
$USERI5
 70
     0
  9
$USERR1
 40
0.0
  9
$USERR2
 40
0.0
  9
$USERR3
 40
0.0
  9
$USERR4
 40
0.0
  9
$USERR5
 40
0.0
  9
$WORLDVIEW
 70
     1
  9
$SHADEDGE
 70
     3
  9
$SHADEDIF
 70
    70
  9
$TILEMODE
 70
     1
  9
$MAXACTVP
 70
    64
  9
$PINSBASE
 10
0.0
 20
0.0
 30
0.0
  9
$PLIMCHECK
 70
     0
  9
$PEXTMIN
 10
1.000000000000000E+20
 20
1.000000000000000E+20
 30
1.000000000000000E+20
  9
$PEXTMAX
 10
-1.000000000000000E+20
 20
-1.000000000000000E+20
 30
-1.000000000000000E+20
  9
$PLIMMIN
 10
0.0
 20
0.0
  9
$PLIMMAX
 10
12.0
 20
9.0
  9
$UNITMODE
 70
     0
  9
$VISRETAIN
 70
     1
  9
$PLINEGEN
 70
     0
  9
$PSLTSCALE
 70
     1
  9
$TREEDEPTH
 70
  3020
  9
$CMLSTYLE
  2
Standard
  9
$CMLJUST
 70
     0
  9
$CMLSCALE
 40
1.0
  9
$PROXYGRAPHICS
 70
     1
  9
$MEASUREMENT
 70
     0
  9
$CELWEIGHT
370
    -1
  9
$ENDCAPS
280
     0
  9
$JOINSTYLE
280
     0
  9
$LWDISPLAY
290
     0
  9
$INSUNITS
 70
     4
  9
$HYPERLINKBASE
  1

  9
$STYLESHEET
  1

  9
$XEDIT
290
     1
  9
$CEPSNTYPE
380
     0
  9
$PSTYLEMODE
290
     1
  9
$FINGERPRINTGUID
  2
{E436CF8E-41A4-47AF-B8A6-5D754CC6D082}
  9
$VERSIONGUID
  2
{FAEB1C32-E019-11D5-929B-00C0DF256EC4}
  9
$EXTNAMES
290
     1
  9
$PSVPSCALE
 40
0.0
  9
$OLESTARTUP
290
     0
  0
ENDSEC
  0
SECTION
  2
CLASSES
  0
CLASS
  1
ACDBDICTIONARYWDFLT
  2
AcDbDictionaryWithDefault
  3
ObjectDBX Classes
 90
        0
280
     0
281
     0
  0
CLASS
  1
VISUALSTYLE
  2
AcDbVisualStyle
  3
ObjectDBX Classes
 90
     4095
280
     0
281
     0
  0
CLASS
  1
MATERIAL
  2
AcDbMaterial
  3
ObjectDBX Classes
 90
     1153
280
     0
281
     0
  0
CLASS
  1
DICTIONARYVAR
  2
AcDbDictionaryVar
  3
ObjectDBX Classes
 90
        0
280
     0
281
     0
  0
CLASS
  1
ACDBPLACEHOLDER
  2
AcDbPlaceHolder
  3
ObjectDBX Classes
 90
        0
280
     0
281
     0
  0
CLASS
  1
LAYOUT
  2
AcDbLayout
  3
ObjectDBX Classes
 90
        0
280
     0
281
     0
  0
ENDSEC
  0
SECTION
  2
TABLES
  0
TABLE
  2
VPORT
  5
8
330
0
100
AcDbSymbolTable
 70
     1
  0
VPORT
  5
29
330
8
100
AcDbSymbolTableRecord
100
AcDbViewportTableRecord
  2
*Active
 70
     0
 10
0.0
 20
0.0
 11
1.0
 21
1.0
 12
10.42990654205607
 22
4.5
 13
0.0
 23
0.0
 14
0.5
 24
0.5
 15
0.5
 25
0.5
 16
0.0
 26
0.0
 36
1.0
 17
0.0
 27
0.0
 37
0.0
 40
9.0
 41
1.972972972850329
 42
50.0
 43
0.0
 44
0.0
 50
0.0
 51
0.0
 71
     0
 72
   100
 73
     1
 74
     3
 75
     0
 76
     0
 77
     0
 78
     0
281
     0
 65
     1
110
0.0
120
0.0
130
0.0
111
1.0
121
0.0
131
0.0
112
0.0
122
1.0
132
0.0
 79
     0
146
0.0
  0
ENDTAB
  0
TABLE
  2
LTYPE
  5
5
330
0
100
AcDbSymbolTable
 70
     8
  0
LTYPE
  5
14
330
5
100
AcDbSymbolTableRecord
100
AcDbLinetypeTableRecord
  2
ByBlock
 70
     0
  3

 72
    65
 73
     0
 40
0.0
  0
LTYPE
  5
15
330
5
100
AcDbSymbolTableRecord
100
AcDbLinetypeTableRecord
  2
ByLayer
 70
     0
  3

 72
    65
 73
     0
 40
0.0
  0
LTYPE
  5
16
330
5
100
AcDbSymbolTableRecord
100
AcDbLinetypeTableRecord
  2
Continuous
 70
     0
  3
Solid line
 72
    65
 73
     0
 40
0.0
  0
LTYPE
  5
42
330
5
100
AcDbSymbolTableRecord
100
AcDbLinetypeTableRecord
  2
New Line1
 70
     0
  3

 72
    65
 73
     4
 40
1.2
 49
0.5
 74
     4
 75
     0
340
0
 46
1.0
 50
0.0
 44
0.0
 45
0.0
 49
-0.3
 74
     4
 75
     0
340
0
 46
1.0
 50
0.0
 44
0.0
 45
0.0
 49
0.1
 74
     4
 75
     0
340
0
 46
1.0
 50
0.0
 44
0.0
 45
0.0
 49
-0.3
 74
     4
 75
     0
340
0
 46
1.0
 50
0.0
 44
0.0
 45
0.0
  0
LTYPE
  5
59
330
5
100
AcDbSymbolTableRecord
100
AcDbLinetypeTableRecord
  2
New Line2
 70
     0
  3

 72
    65
 73
     4
 40
1.2
 49
0.5
 74
     4
 75
     0
340
0
 46
1.0
 50
0.0
 44
0.0
 45
0.0
 49
-0.3
 74
     4
 75
     0
340
0
 46
1.0
 50
0.0
 44
0.0
 45
0.0
 49
0.1
 74
     4
 75
     0
340
0
 46
1.0
 50
0.0
 44
0.0
 45
0.0
 49
-0.3
 74
     4
 75
     0
340
0
 46
1.0
 50
0.0
 44
0.0
 45
0.0
  0
LTYPE
  5
5B
330
5
100
AcDbSymbolTableRecord
100
AcDbLinetypeTableRecord
  2
New Line3
 70
     0
  3

 72
    65
 73
     4
 40
1.2
 49
0.5
 74
     4
 75
     0
340
0
 46
1.0
 50
0.0
 44
0.0
 45
0.0
 49
-0.3
 74
     4
 75
     0
340
0
 46
1.0
 50
0.0
 44
0.0
 45
0.0
 49
0.1
 74
     4
 75
     0
340
0
 46
1.0
 50
0.0
 44
0.0
 45
0.0
 49
-0.3
 74
     4
 75
     0
340
0
 46
1.0
 50
0.0
 44
0.0
 45
0.0
  0
LTYPE
  5
5D
330
5
100
AcDbSymbolTableRecord
100
AcDbLinetypeTableRecord
  2
New Line4
 70
     0
  3

 72
    65
 73
     4
 40
1.2
 49
0.5
 74
     4
 75
     0
340
0
 46
1.0
 50
0.0
 44
0.0
 45
0.0
 49
-0.3
 74
     4
 75
     0
340
0
 46
1.0
 50
0.0
 44
0.0
 45
0.0
 49
0.1
 74
     4
 75
     0
340
0
 46
1.0
 50
0.0
 44
0.0
 45
0.0
 49
-0.3
 74
     4
 75
     0
340
0
 46
1.0
 50
0.0
 44
0.0
 45
0.0
  0
LTYPE
  5
5F
330
5
100
AcDbSymbolTableRecord
100
AcDbLinetypeTableRecord
  2
New Line5
 70
     0
  3

 72
    65
 73
     4
 40
1.2
 49
0.5
 74
     4
 75
     0
340
0
 46
1.0
 50
0.0
 44
0.0
 45
0.0
 49
-0.3
 74
     4
 75
     0
340
0
 46
1.0
 50
0.0
 44
0.0
 45
0.0
 49
0.1
 74
     4
 75
     0
340
0
 46
1.0
 50
0.0
 44
0.0
 45
0.0
 49
-0.3
 74
     4
 75
     0
340
0
 46
1.0
 50
0.0
 44
0.0
 45
0.0
  0
LTYPE
  5
61
330
5
100
AcDbSymbolTableRecord
100
AcDbLinetypeTableRecord
  2
New Line6
 70
     0
  3

 72
    65
 73
     4
 40
1.2
 49
0.5
 74
     4
 75
     0
340
0
 46
1.0
 50
0.0
 44
0.0
 45
0.0
 49
-0.3
 74
     4
 75
     0
340
0
 46
1.0
 50
0.0
 44
0.0
 45
0.0
 49
0.1
 74
     4
 75
     0
340
0
 46
1.0
 50
0.0
 44
0.0
 45
0.0
 49
-0.3
 74
     4
 75
     0
340
0
 46
1.0
 50
0.0
 44
0.0
 45
0.0
  0
LTYPE
  5
63
330
5
100
AcDbSymbolTableRecord
100
AcDbLinetypeTableRecord
  2
New Line7
 70
     0
  3

 72
    65
 73
     4
 40
1.2
 49
0.5
 74
     4
 75
     0
340
0
 46
1.0
 50
0.0
 44
0.0
 45
0.0
 49
-0.3
 74
     4
 75
     0
340
0
 46
1.0
 50
0.0
 44
0.0
 45
0.0
 49
0.1
 74
     4
 75
     0
340
0
 46
1.0
 50
0.0
 44
0.0
 45
0.0
 49
-0.3
 74
     4
 75
     0
340
0
 46
1.0
 50
0.0
 44
0.0
 45
0.0
  0
ENDTAB
  0
TABLE
  2
LAYER
  5
2
330
0
100
AcDbSymbolTable
 70
     2
  0
LAYER
  5
10
330
2
100
AcDbSymbolTableRecord
100
AcDbLayerTableRecord
  2
0
 70
     0
 62
     7
  6
Continuous
370
    -3
390
F
  0
LAYER
  5
40
330
2
100
AcDbSymbolTableRecord
100
AcDbLayerTableRecord
  2
Ilustrace
 70
     0
 62
     7
  6
Continuous
370
    -3
390
F
  0
ENDTAB
  0
TABLE
  2
STYLE
  5
3
330
0
100
AcDbSymbolTable
 70
     1
  0
STYLE
  5
11
330
3
100
AcDbSymbolTableRecord
100
AcDbTextStyleTableRecord
  2
Standard
 70
     0
 40
0.0
 41
1.0
 50
0.0
 71
     0
 42
0.2
  3
txt
  4

  0
ENDTAB
  0
TABLE
  2
VIEW
  5
6
330
0
100
AcDbSymbolTable
 70
     0
  0
ENDTAB
  0
TABLE
  2
UCS
  5
7
330
0
100
AcDbSymbolTable
 70
     0
  0
ENDTAB
  0
TABLE
  2
APPID
  5
9
330
0
100
AcDbSymbolTable
 70
     2
  0
APPID
  5
12
330
9
100
AcDbSymbolTableRecord
100
AcDbRegAppTableRecord
  2
ACAD
 70
     0
  0
APPID
  5
3F
330
9
100
AcDbSymbolTableRecord
100
AcDbRegAppTableRecord
  2
ODA
 70
     0
  0
ENDTAB
  0
TABLE
  2
DIMSTYLE
  5
A
330
0
100
AcDbSymbolTable
 70
     1
100
AcDbDimStyleTable
  0
DIMSTYLE
105
27
330
A
100
AcDbSymbolTableRecord
100
AcDbDimStyleTableRecord
  2
Standard
 70
     0
340
11
  0
ENDTAB
  0
TABLE
  2
BLOCK_RECORD
  5
1
330
0
100
AcDbSymbolTable
 70
     1
  0
BLOCK_RECORD
  5
1F
330
1
100
AcDbSymbolTableRecord
100
AcDbBlockTableRecord
  2
*Model_Space
340
22
  0
BLOCK_RECORD
  5
1B
330
1
100
AcDbSymbolTableRecord
100
AcDbBlockTableRecord
  2
*Paper_Space
340
1E
  0
BLOCK_RECORD
  5
23
330
1
100
AcDbSymbolTableRecord
100
AcDbBlockTableRecord
  2
*Paper_Space0
340
26
  0
ENDTAB
  0
ENDSEC
  0
SECTION
  2
BLOCKS
  0
BLOCK
  5
20
330
1F
100
AcDbEntity
  8
0
100
AcDbBlockBegin
  2
*Model_Space
 70
     0
 10
0.0
 20
0.0
 30
0.0
  3
*Model_Space
  1

  0
ENDBLK
  5
21
330
1F
100
AcDbEntity
  8
0
100
AcDbBlockEnd
  0
BLOCK
  5
1C
330
1B
100
AcDbEntity
 67
     1
  8
0
100
AcDbBlockBegin
  2
*Paper_Space
 70
     0
 10
0.0
 20
0.0
 30
0.0
  3
*Paper_Space
  1

  0
ENDBLK
  5
1D
330
1B
100
AcDbEntity
 67
     1
  8
0
100
AcDbBlockEnd
  0
BLOCK
  5
24
330
23
100
AcDbEntity
  8
0
100
AcDbBlockBegin
  2
*Paper_Space0
 70
     0
 10
0.0
 20
0.0
 30
0.0
  3
*Paper_Space0
  1

  0
ENDBLK
  5
25
330
23
100
AcDbEntity
  8
0
100
AcDbBlockEnd
  0
ENDSEC
  0
SECTION
  2
ENTITIES
  0
SPLINE
  5
41
330
1F
100
AcDbEntity
  8
Ilustrace
  6
New Line1
 62
   250
370
    13
100
AcDbSpline
210
0.0
220
0.0
230
1.0
 70
    24
 71
     3
 72
     8
 73
     4
 74
     0
 42
0.0000000001
 43
0.0000000001
 40
0.0
 40
0.0
 40
0.0
 40
0.0
 40
1.0
 40
1.0
 40
1.0
 40
1.0
 10
-18.9852
 20
-0.6101
 30
0.0
 10
-18.9852
 20
-0.6101
 30
0.0
 10
-20.0128
 20
11.0459
 30
0.0
 10
-20.0128
 20
11.0459
 30
0.0
  0
SPLINE
  5
43
330
1F
100
AcDbEntity
  8
Ilustrace
 62
   250
100
AcDbSpline
210
0.0
220
0.0
230
1.0
 70
    11
 71
     3
 72
   104
 73
   100
 74
     0
 42
0.0000000001
 43
0.0000000001
 40
0.0
 40
0.0
 40
0.0
 40
0.0
 40
0.0384615384615385
 40
0.0384615384615385
 40
0.0384615384615385
 40
0.0384615384615385
 40
0.0769230769230769
 40
0.0769230769230769
 40
0.0769230769230769
 40
0.0769230769230769
 40
0.1153846153846154
 40
0.1153846153846154
 40
0.1153846153846154
 40
0.1153846153846154
 40
0.1538461538461539
 40
0.1538461538461539
 40
0.1538461538461539
 40
0.1538461538461539
 40
0.1923076923076923
 40
0.1923076923076923
 40
0.1923076923076923
 40
0.1923076923076923
 40
0.2307692307692308
 40
0.2307692307692308
 40
0.2307692307692308
 40
0.2307692307692308
 40
0.2692307692307692
 40
0.2692307692307692
 40
0.2692307692307692
 40
0.2692307692307692
 40
0.3076923076923077
 40
0.3076923076923077
 40
0.3076923076923077
 40
0.3076923076923077
 40
0.3461538461538461
 40
0.3461538461538461
 40
0.3461538461538461
 40
0.3461538461538461
 40
0.3846153846153846
 40
0.3846153846153846
 40
0.3846153846153846
 40
0.3846153846153846
 40
0.4230769230769231
 40
0.4230769230769231
 40
0.4230769230769231
 40
0.4230769230769231
 40
0.4615384615384616
 40
0.4615384615384616
 40
0.4615384615384616
 40
0.4615384615384616
 40
0.5
 40
0.5
 40
0.5
 40
0.5
 40
0.5384615384615384
 40
0.5384615384615384
 40
0.5384615384615384
 40
0.5384615384615384
 40
0.5769230769230769
 40
0.5769230769230769
 40
0.5769230769230769
 40
0.5769230769230769
 40
0.6153846153846154
 40
0.6153846153846154
 40
0.6153846153846154
 40
0.6153846153846154
 40
0.6538461538461539
 40
0.6538461538461539
 40
0.6538461538461539
 40
0.6538461538461539
 40
0.6923076923076923
 40
0.6923076923076923
 40
0.6923076923076923
 40
0.6923076923076923
 40
0.7307692307692307
 40
0.7307692307692307
 40
0.7307692307692307
 40
0.7307692307692307
 40
0.7692307692307693
 40
0.7692307692307693
 40
0.7692307692307693
 40
0.7692307692307693
 40
0.8076923076923077
 40
0.8076923076923077
 40
0.8076923076923077
 40
0.8076923076923077
 40
0.8461538461538461
 40
0.8461538461538461
 40
0.8461538461538461
 40
0.8461538461538461
 40
0.8846153846153846
 40
0.8846153846153846
 40
0.8846153846153846
 40
0.8846153846153846
 40
0.9230769230769231
 40
0.9230769230769231
 40
0.9230769230769231
 40
0.9230769230769231
 40
1.0
 40
1.0
 40
1.0
 40
1.0
 10
-19.4644
 20
2.1226
 30
0.0
 10
-19.4644
 20
2.1226
 30
0.0
 10
-19.8183
 20
2.337
 30
0.0
 10
-19.8183
 20
2.337
 30
0.0
 10
-19.8183
 20
2.337
 30
0.0
 10
-19.7588
 20
2.4364
 30
0.0
 10
-19.7156
 20
2.5434
 30
0.0
 10
-19.6898
 20
2.6572
 30
0.0
 10
-19.6898
 20
2.6572
 30
0.0
 10
-19.6641
 20
2.7718
 30
0.0
 10
-19.6563
 20
2.8901
 30
0.0
 10
-19.667
 20
3.0125
 30
0.0
 10
-19.667
 20
3.0125
 30
0.0
 10
-19.678
 20
3.1381
 30
0.0
 10
-19.7073
 20
3.2582
 30
0.0
 10
-19.7542
 20
3.3717
 30
0.0
 10
-19.7542
 20
3.3717
 30
0.0
 10
-19.8012
 20
3.485
 30
0.0
 10
-19.8654
 20
3.5885
 30
0.0
 10
-19.9475
 20
3.6813
 30
0.0
 10
-19.9475
 20
3.6813
 30
0.0
 10
-20.0291
 20
3.7747
 30
0.0
 10
-20.1281
 20
3.8538
 30
0.0
 10
-20.2443
 20
3.9189
 30
0.0
 10
-20.2443
 20
3.9189
 30
0.0
 10
-20.3602
 20
3.9835
 30
0.0
 10
-20.4929
 20
4.0303
 30
0.0
 10
-20.6428
 20
4.0593
 30
0.0
 10
-20.6428
 20
4.0593
 30
0.0
 10
-20.7921
 20
4.0878
 30
0.0
 10
-20.9575
 20
4.0947
 30
0.0
 10
-21.1393
 20
4.0795
 30
0.0
 10
-21.1393
 20
4.0795
 30
0.0
 10
-21.2675
 20
4.0683
 30
0.0
 10
-21.3882
 20
4.0448
 30
0.0
 10
-21.5018
 20
4.0082
 30
0.0
 10
-21.5018
 20
4.0082
 30
0.0
 10
-21.6161
 20
3.9723
 30
0.0
 10
-21.7211
 20
3.9247
 30
0.0
 10
-21.8166
 20
3.8664
 30
0.0
 10
-21.8166
 20
3.8664
 30
0.0
 10
-21.9121
 20
3.8074
 30
0.0
 10
-21.9956
 20
3.7384
 30
0.0
 10
-22.0686
 20
3.6593
 30
0.0
 10
-22.0686
 20
3.6593
 30
0.0
 10
-22.0686
 20
3.6593
 30
0.0
 10
-22.422
 20
3.8699
 30
0.0
 10
-22.422
 20
3.8699
 30
0.0
 10
-22.422
 20
3.8699
 30
0.0
 10
-22.422
 20
3.8699
 30
0.0
 10
-22.5432
 20
3.6528
 30
0.0
 10
-22.5432
 20
3.6528
 30
0.0
 10
-22.5432
 20
3.6528
 30
0.0
 10
-22.5432
 20
3.6528
 30
0.0
 10
-22.2102
 20
3.4522
 30
0.0
 10
-22.2102
 20
3.4522
 30
0.0
 10
-22.2102
 20
3.4522
 30
0.0
 10
-22.2715
 20
3.3527
 30
0.0
 10
-22.3149
 20
3.2469
 30
0.0
 10
-22.3401
 20
3.1344
 30
0.0
 10
-22.3401
 20
3.1344
 30
0.0
 10
-22.3653
 20
3.0211
 30
0.0
 10
-22.3726
 20
2.905
 30
0.0
 10
-22.362
 20
2.7844
 30
0.0
 10
-22.362
 20
2.7844
 30
0.0
 10
-22.3464
 20
2.6125
 30
0.0
 10
-22.3003
 20
2.4569
 30
0.0
 10
-22.2237
 20
2.3161
 30
0.0
 10
-22.2237
 20
2.3161
 30
0.0
 10
-22.1472
 20
2.1761
 30
0.0
 10
-22.044
 20
2.0573
 30
0.0
 10
-21.9152
 20
1.9594
 30
0.0
 10
-21.9152
 20
1.9594
 30
0.0
 10
-21.7866
 20
1.861
 30
0.0
 10
-21.6362
 20
1.7897
 30
0.0
 10
-21.464
 20
1.7437
 30
0.0
 10
-21.464
 20
1.7437
 30
0.0
 10
-21.2919
 20
1.6985
 30
0.0
 10
-21.103
 20
1.6838
 30
0.0
 10
-20.8962
 20
1.7013
 30
0.0
 10
-20.8962
 20
1.7013
 30
0.0
 10
-20.766
 20
1.7127
 30
0.0
 10
-20.6429
 20
1.7377
 30
0.0
 10
-20.528
 20
1.775
 30
0.0
 10
-20.528
 20
1.775
 30
0.0
 10
-20.4131
 20
1.8124
 30
0.0
 10
-20.3077
 20
1.8612
 30
0.0
 10
-20.2123
 20
1.9208
 30
0.0
 10
-20.2123
 20
1.9208
 30
0.0
 10
-20.1169
 20
1.9811
 30
0.0
 10
-20.0327
 20
2.0508
 30
0.0
 10
-19.9599
 20
2.1299
 30
0.0
 10
-19.9599
 20
2.1299
 30
0.0
 10
-19.9599
 20
2.1299
 30
0.0
 10
-19.6026
 20
1.9196
 30
0.0
 10
-19.6026
 20
1.9196
 30
0.0
 10
-19.6026
 20
1.9196
 30
0.0
 10
-19.6026
 20
1.9196
 30
0.0
 10
-19.4644
 20
2.1226
 30
0.0
 10
-19.4644
 20
2.1226
 30
0.0
  0
SPLINE
  5
44
330
1F
100
AcDbEntity
  8
Ilustrace
 62
   250
100
AcDbSpline
210
0.0
220
0.0
230
1.0
 70
    11
 71
     3
 72
    52
 73
    48
 74
     0
 42
0.0000000001
 43
0.0000000001
 40
0.0
 40
0.0
 40
0.0
 40
0.0
 40
0.0769230769230769
 40
0.0769230769230769
 40
0.0769230769230769
 40
0.0769230769230769
 40
0.1538461538461539
 40
0.1538461538461539
 40
0.1538461538461539
 40
0.1538461538461539
 40
0.2307692307692308
 40
0.2307692307692308
 40
0.2307692307692308
 40
0.2307692307692308
 40
0.3076923076923077
 40
0.3076923076923077
 40
0.3076923076923077
 40
0.3076923076923077
 40
0.3846153846153846
 40
0.3846153846153846
 40
0.3846153846153846
 40
0.3846153846153846
 40
0.4615384615384616
 40
0.4615384615384616
 40
0.4615384615384616
 40
0.4615384615384616
 40
0.5384615384615384
 40
0.5384615384615384
 40
0.5384615384615384
 40
0.5384615384615384
 40
0.6153846153846154
 40
0.6153846153846154
 40
0.6153846153846154
 40
0.6153846153846154
 40
0.6923076923076923
 40
0.6923076923076923
 40
0.6923076923076923
 40
0.6923076923076923
 40
0.7692307692307693
 40
0.7692307692307693
 40
0.7692307692307693
 40
0.7692307692307693
 40
0.8461538461538461
 40
0.8461538461538461
 40
0.8461538461538461
 40
0.8461538461538461
 40
1.0
 40
1.0
 40
1.0
 40
1.0
 10
-20.2631
 20
2.302
 30
0.0
 10
-20.2631
 20
2.302
 30
0.0
 10
-20.2585
 20
2.2946
 30
0.0
 10
-20.2585
 20
2.2946
 30
0.0
 10
-20.2585
 20
2.2946
 30
0.0
 10
-20.3216
 20
2.2501
 30
0.0
 10
-20.3876
 20
2.2106
 30
0.0
 10
-20.456
 20
2.176
 30
0.0
 10
-20.456
 20
2.176
 30
0.0
 10
-20.525
 20
2.1415
 30
0.0
 10
-20.5985
 20
2.113
 30
0.0
 10
-20.6782
 20
2.0903
 30
0.0
 10
-20.6782
 20
2.0903
 30
0.0
 10
-20.7575
 20
2.0679
 30
0.0
 10
-20.8457
 20
2.0524
 30
0.0
 10
-20.9417
 20
2.044
 30
0.0
 10
-20.9417
 20
2.044
 30
0.0
 10
-21.0526
 20
2.0343
 30
0.0
 10
-21.1605
 20
2.0365
 30
0.0
 10
-21.2675
 20
2.0498
 30
0.0
 10
-21.2675
 20
2.0498
 30
0.0
 10
-21.3739
 20
2.0639
 30
0.0
 10
-21.4748
 20
2.0895
 30
0.0
 10
-21.569
 20
2.1267
 30
0.0
 10
-21.569
 20
2.1267
 30
0.0
 10
-21.6638
 20
2.1645
 30
0.0
 10
-21.7486
 20
2.2142
 30
0.0
 10
-21.8229
 20
2.2766
 30
0.0
 10
-21.8229
 20
2.2766
 30
0.0
 10
-21.8978
 20
2.3388
 30
0.0
 10
-21.9583
 20
2.4134
 30
0.0
 10
-22.0048
 20
2.5002
 30
0.0
 10
-22.0048
 20
2.5002
 30
0.0
 10
-22.052
 20
2.5876
 30
0.0
 10
-22.0802
 20
2.6877
 30
0.0
 10
-22.0908
 20
2.8004
 30
0.0
 10
-22.0908
 20
2.8004
 30
0.0
 10
-22.0987
 20
2.899
 30
0.0
 10
-22.0906
 20
2.9907
 30
0.0
 10
-22.0654
 20
3.0747
 30
0.0
 10
-22.0654
 20
3.0747
 30
0.0
 10
-22.041
 20
3.1592
 30
0.0
 10
-22.003
 20
3.2365
 30
0.0
 10
-21.9521
 20
3.3073
 30
0.0
 10
-21.9521
 20
3.3073
 30
0.0
 10
-21.9521
 20
3.3073
 30
0.0
 10
-20.2631
 20
2.302
 30
0.0
 10
-20.2631
 20
2.302
 30
0.0
  0
SPLINE
  5
45
330
1F
100
AcDbEntity
  8
Ilustrace
 62
   250
100
AcDbSpline
210
0.0
220
0.0
230
1.0
 70
    11
 71
     3
 72
    48
 73
    44
 74
     0
 42
0.0000000001
 43
0.0000000001
 40
0.0
 40
0.0
 40
0.0
 40
0.0
 40
0.0833333333333333
 40
0.0833333333333333
 40
0.0833333333333333
 40
0.0833333333333333
 40
0.1666666666666667
 40
0.1666666666666667
 40
0.1666666666666667
 40
0.1666666666666667
 40
0.25
 40
0.25
 40
0.25
 40
0.25
 40
0.3333333333333333
 40
0.3333333333333333
 40
0.3333333333333333
 40
0.3333333333333333
 40
0.4166666666666667
 40
0.4166666666666667
 40
0.4166666666666667
 40
0.4166666666666667
 40
0.5
 40
0.5
 40
0.5
 40
0.5
 40
0.5833333333333334
 40
0.5833333333333334
 40
0.5833333333333334
 40
0.5833333333333334
 40
0.6666666666666666
 40
0.6666666666666666
 40
0.6666666666666666
 40
0.6666666666666666
 40
0.75
 40
0.75
 40
0.75
 40
0.75
 40
0.8333333333333334
 40
0.8333333333333334
 40
0.8333333333333334
 40
0.8333333333333334
 40
1.0
 40
1.0
 40
1.0
 40
1.0
 10
-21.761
 20
3.4837
 30
0.0
 10
-21.761
 20
3.4837
 30
0.0
 10
-21.762
 20
3.4952
 30
0.0
 10
-21.762
 20
3.4952
 30
0.0
 10
-21.762
 20
3.4952
 30
0.0
 10
-21.6558
 20
3.5721
 30
0.0
 10
-21.5466
 20
3.629
 30
0.0
 10
-21.4343
 20
3.6667
 30
0.0
 10
-21.4343
 20
3.6667
 30
0.0
 10
-21.3227
 20
3.7044
 30
0.0
 10
-21.2105
 20
3.7279
 30
0.0
 10
-21.0976
 20
3.7365
 30
0.0
 10
-21.0976
 20
3.7365
 30
0.0
 10
-20.9804
 20
3.7467
 30
0.0
 10
-20.8671
 20
3.7443
 30
0.0
 10
-20.7574
 20
3.7299
 30
0.0
 10
-20.7574
 20
3.7299
 30
0.0
 10
-20.6478
 20
3.7155
 30
0.0
 10
-20.5454
 20
3.6887
 30
0.0
 10
-20.4505
 20
3.6502
 30
0.0
 10
-20.4505
 20
3.6502
 30
0.0
 10
-20.3556
 20
3.6112
 30
0.0
 10
-20.2714
 20
3.5608
 30
0.0
 10
-20.1983
 20
3.4983
 30
0.0
 10
-20.1983
 20
3.4983
 30
0.0
 10
-20.1247
 20
3.4353
 30
0.0
 10
-20.065
 20
3.3613
 30
0.0
 10
-20.0199
 20
3.2757
 30
0.0
 10
-20.0199
 20
3.2757
 30
0.0
 10
-19.9747
 20
3.19
 30
0.0
 10
-19.9474
 20
3.0931
 30
0.0
 10
-19.9372
 20
2.9849
 30
0.0
 10
-19.9372
 20
2.9849
 30
0.0
 10
-19.928
 20
2.8799
 30
0.0
 10
-19.9361
 20
2.7864
 30
0.0
 10
-19.9608
 20
2.7056
 30
0.0
 10
-19.9608
 20
2.7056
 30
0.0
 10
-19.9855
 20
2.6242
 30
0.0
 10
-20.0258
 20
2.55
 30
0.0
 10
-20.0802
 20
2.4816
 30
0.0
 10
-20.0802
 20
2.4816
 30
0.0
 10
-20.0802
 20
2.4816
 30
0.0
 10
-21.761
 20
3.4837
 30
0.0
 10
-21.761
 20
3.4837
 30
0.0
  0
SPLINE
  5
46
330
1F
100
AcDbEntity
  8
Ilustrace
 62
   250
100
AcDbSpline
210
0.0
220
0.0
230
1.0
 70
    11
 71
     3
 72
    48
 73
    44
 74
     0
 42
0.0000000001
 43
0.0000000001
 40
0.0
 40
0.0
 40
0.0
 40
0.0
 40
0.0833333333333333
 40
0.0833333333333333
 40
0.0833333333333333
 40
0.0833333333333333
 40
0.1666666666666667
 40
0.1666666666666667
 40
0.1666666666666667
 40
0.1666666666666667
 40
0.25
 40
0.25
 40
0.25
 40
0.25
 40
0.3333333333333333
 40
0.3333333333333333
 40
0.3333333333333333
 40
0.3333333333333333
 40
0.4166666666666667
 40
0.4166666666666667
 40
0.4166666666666667
 40
0.4166666666666667
 40
0.5
 40
0.5
 40
0.5
 40
0.5
 40
0.5833333333333334
 40
0.5833333333333334
 40
0.5833333333333334
 40
0.5833333333333334
 40
0.6666666666666666
 40
0.6666666666666666
 40
0.6666666666666666
 40
0.6666666666666666
 40
0.75
 40
0.75
 40
0.75
 40
0.75
 40
0.8333333333333334
 40
0.8333333333333334
 40
0.8333333333333334
 40
0.8333333333333334
 40
1.0
 40
1.0
 40
1.0
 40
1.0
 10
-19.9611
 20
5.8849
 30
0.0
 10
-19.9611
 20
5.8849
 30
0.0
 10
-20.6492
 20
5.8247
 30
0.0
 10
-20.6492
 20
5.8247
 30
0.0
 10
-20.6492
 20
5.8247
 30
0.0
 10
-20.6492
 20
5.8247
 30
0.0
 10
-20.68
 20
6.1764
 30
0.0
 10
-20.68
 20
6.1764
 30
0.0
 10
-20.68
 20
6.1764
 30
0.0
 10
-20.68
 20
6.1764
 30
0.0
 10
-20.9429
 20
6.1534
 30
0.0
 10
-20.9429
 20
6.1534
 30
0.0
 10
-20.9429
 20
6.1534
 30
0.0
 10
-20.9429
 20
6.1534
 30
0.0
 10
-20.9121
 20
5.8017
 30
0.0
 10
-20.9121
 20
5.8017
 30
0.0
 10
-20.9121
 20
5.8017
 30
0.0
 10
-20.9121
 20
5.8017
 30
0.0
 10
-22.4738
 20
5.665
 30
0.0
 10
-22.4738
 20
5.665
 30
0.0
 10
-22.4738
 20
5.665
 30
0.0
 10
-22.4738
 20
5.665
 30
0.0
 10
-22.4417
 20
5.2979
 30
0.0
 10
-22.4417
 20
5.2979
 30
0.0
 10
-22.4417
 20
5.2979
 30
0.0
 10
-22.4417
 20
5.2979
 30
0.0
 10
-20.7393
 20
4.3171
 30
0.0
 10
-20.7393
 20
4.3171
 30
0.0
 10
-20.7393
 20
4.3171
 30
0.0
 10
-20.7393
 20
4.3171
 30
0.0
 10
-20.519
 20
4.3364
 30
0.0
 10
-20.519
 20
4.3364
 30
0.0
 10
-20.519
 20
4.3364
 30
0.0
 10
-20.519
 20
4.3364
 30
0.0
 10
-20.6211
 20
5.5038
 30
0.0
 10
-20.6211
 20
5.5038
 30
0.0
 10
-20.6211
 20
5.5038
 30
0.0
 10
-20.6211
 20
5.5038
 30
0.0
 10
-19.9331
 20
5.564
 30
0.0
 10
-19.9331
 20
5.564
 30
0.0
 10
-19.9331
 20
5.564
 30
0.0
 10
-19.9331
 20
5.564
 30
0.0
 10
-19.9611
 20
5.8849
 30
0.0
 10
-19.9611
 20
5.8849
 30
0.0
  0
SPLINE
  5
47
330
1F
100
AcDbEntity
  8
Ilustrace
 62
   250
100
AcDbSpline
210
0.0
220
0.0
230
1.0
 70
    11
 71
     3
 72
    36
 73
    32
 74
     0
 42
0.0000000001
 43
0.0000000001
 40
0.0
 40
0.0
 40
0.0
 40
0.0
 40
0.1111111111111111
 40
0.1111111111111111
 40
0.1111111111111111
 40
0.1111111111111111
 40
0.2222222222222222
 40
0.2222222222222222
 40
0.2222222222222222
 40
0.2222222222222222
 40
0.3333333333333333
 40
0.3333333333333333
 40
0.3333333333333333
 40
0.3333333333333333
 40
0.4444444444444444
 40
0.4444444444444444
 40
0.4444444444444444
 40
0.4444444444444444
 40
0.5555555555555556
 40
0.5555555555555556
 40
0.5555555555555556
 40
0.5555555555555556
 40
0.6666666666666666
 40
0.6666666666666666
 40
0.6666666666666666
 40
0.6666666666666666
 40
0.7777777777777778
 40
0.7777777777777778
 40
0.7777777777777778
 40
0.7777777777777778
 40
1.0
 40
1.0
 40
1.0
 40
1.0
 10
-20.812
 20
4.6575
 30
0.0
 10
-20.812
 20
4.6575
 30
0.0
 10
-20.8198
 20
4.6568
 30
0.0
 10
-20.8198
 20
4.6568
 30
0.0
 10
-20.8198
 20
4.6568
 30
0.0
 10
-20.8198
 20
4.6568
 30
0.0
 10
-21.7279
 20
5.1967
 30
0.0
 10
-21.7279
 20
5.1967
 30
0.0
 10
-21.7279
 20
5.1967
 30
0.0
 10
-21.7881
 20
5.2257
 30
0.0
 10
-21.8491
 20
5.2548
 30
0.0
 10
-21.9107
 20
5.2833
 30
0.0
 10
-21.9107
 20
5.2833
 30
0.0
 10
-21.9729
 20
5.3109
 30
0.0
 10
-22.0417
 20
5.3413
 30
0.0
 10
-22.1172
 20
5.3729
 30
0.0
 10
-22.1172
 20
5.3729
 30
0.0
 10
-22.1172
 20
5.3729
 30
0.0
 10
-22.1182
 20
5.3846
 30
0.0
 10
-22.1182
 20
5.3846
 30
0.0
 10
-22.1182
 20
5.3846
 30
0.0
 10
-21.9861
 20
5.3883
 30
0.0
 10
-21.8543
 20
5.3959
 30
0.0
 10
-21.7229
 20
5.4074
 30
0.0
 10
-21.7229
 20
5.4074
 30
0.0
 10
-21.7229
 20
5.4074
 30
0.0
 10
-20.884
 20
5.4808
 30
0.0
 10
-20.884
 20
5.4808
 30
0.0
 10
-20.884
 20
5.4808
 30
0.0
 10
-20.884
 20
5.4808
 30
0.0
 10
-20.812
 20
4.6575
 30
0.0
 10
-20.812
 20
4.6575
 30
0.0
  0
SPLINE
  5
48
330
1F
100
AcDbEntity
  8
Ilustrace
 62
   250
100
AcDbSpline
210
0.0
220
0.0
230
1.0
 70
    11
 71
     3
 72
    56
 73
    52
 74
     0
 42
0.0000000001
 43
0.0000000001
 40
0.0
 40
0.0
 40
0.0
 40
0.0
 40
0.0714285714285714
 40
0.0714285714285714
 40
0.0714285714285714
 40
0.0714285714285714
 40
0.1428571428571428
 40
0.1428571428571428
 40
0.1428571428571428
 40
0.1428571428571428
 40
0.2142857142857143
 40
0.2142857142857143
 40
0.2142857142857143
 40
0.2142857142857143
 40
0.2857142857142857
 40
0.2857142857142857
 40
0.2857142857142857
 40
0.2857142857142857
 40
0.3571428571428572
 40
0.3571428571428572
 40
0.3571428571428572
 40
0.3571428571428572
 40
0.4285714285714285
 40
0.4285714285714285
 40
0.4285714285714285
 40
0.4285714285714285
 40
0.5
 40
0.5
 40
0.5
 40
0.5
 40
0.5714285714285714
 40
0.5714285714285714
 40
0.5714285714285714
 40
0.5714285714285714
 40
0.6428571428571429
 40
0.6428571428571429
 40
0.6428571428571429
 40
0.6428571428571429
 40
0.7142857142857143
 40
0.7142857142857143
 40
0.7142857142857143
 40
0.7142857142857143
 40
0.7857142857142857
 40
0.7857142857142857
 40
0.7857142857142857
 40
0.7857142857142857
 40
0.8571428571428571
 40
0.8571428571428571
 40
0.8571428571428571
 40
0.8571428571428571
 40
1.0
 40
1.0
 40
1.0
 40
1.0
 10
-22.6435
 20
7.1149
 30
0.0
 10
-22.6323
 20
6.9867
 30
0.0
 10
-22.5938
 20
6.8719
 30
0.0
 10
-22.5276
 20
6.7699
 30
0.0
 10
-22.5276
 20
6.7699
 30
0.0
 10
-22.4616
 20
6.6678
 30
0.0
 10
-22.3704
 20
6.5831
 30
0.0
 10
-22.2528
 20
6.5141
 30
0.0
 10
-22.2528
 20
6.5141
 30
0.0
 10
-22.135
 20
6.4451
 30
0.0
 10
-21.9932
 20
6.3966
 30
0.0
 10
-21.827
 20
6.3676
 30
0.0
 10
-21.827
 20
6.3676
 30
0.0
 10
-21.6609
 20
6.3393
 30
0.0
 10
-21.4722
 20
6.3337
 30
0.0
 10
-21.2602
 20
6.3516
 30
0.0
 10
-21.2602
 20
6.3516
 30
0.0
 10
-20.9829
 20
6.3798
 30
0.0
 10
-20.7515
 20
6.437
 30
0.0
 10
-20.5656
 20
6.524
 30
0.0
 10
-20.5656
 20
6.524
 30
0.0
 10
-20.3798
 20
6.6111
 30
0.0
 10
-20.2427
 20
6.7211
 30
0.0
 10
-20.1543
 20
6.8535
 30
0.0
 10
-20.1543
 20
6.8535
 30
0.0
 10
-20.0659
 20
6.9858
 30
0.0
 10
-20.0283
 20
7.1346
 30
0.0
 10
-20.042
 20
7.2996
 30
0.0
 10
-20.042
 20
7.2996
 30
0.0
 10
-20.0589
 20
7.4844
 30
0.0
 10
-20.1242
 20
7.6371
 30
0.0
 10
-20.2374
 20
7.7584
 30
0.0
 10
-20.2374
 20
7.7584
 30
0.0
 10
-20.3506
 20
7.8796
 30
0.0
 10
-20.5087
 20
7.9658
 30
0.0
 10
-20.7118
 20
8.0169
 30
0.0
 10
-20.7118
 20
8.0169
 30
0.0
 10
-20.915
 20
8.0686
 30
0.0
 10
-21.1589
 20
8.0815
 30
0.0
 10
-21.4444
 20
8.0573
 30
0.0
 10
-21.4444
 20
8.0573
 30
0.0
 10
-21.7117
 20
8.0332
 30
0.0
 10
-21.9376
 20
7.9803
 30
0.0
 10
-22.1214
 20
7.8987
 30
0.0
 10
-22.1214
 20
7.8987
 30
0.0
 10
-22.305
 20
7.817
 30
0.0
 10
-22.4417
 20
7.7096
 30
0.0
 10
-22.5308
 20
7.5773
 30
0.0
 10
-22.5308
 20
7.5773
 30
0.0
 10
-22.6205
 20
7.4447
 30
0.0
 10
-22.6583
 20
7.2908
 30
0.0
 10
-22.6435
 20
7.1149
 30
0.0
  0
SPLINE
  5
49
330
1F
100
AcDbEntity
  8
Ilustrace
 62
   250
100
AcDbSpline
210
0.0
220
0.0
230
1.0
 70
    11
 71
     3
 72
    56
 73
    52
 74
     0
 42
0.0000000001
 43
0.0000000001
 40
0.0
 40
0.0
 40
0.0
 40
0.0
 40
0.0714285714285714
 40
0.0714285714285714
 40
0.0714285714285714
 40
0.0714285714285714
 40
0.1428571428571428
 40
0.1428571428571428
 40
0.1428571428571428
 40
0.1428571428571428
 40
0.2142857142857143
 40
0.2142857142857143
 40
0.2142857142857143
 40
0.2142857142857143
 40
0.2857142857142857
 40
0.2857142857142857
 40
0.2857142857142857
 40
0.2857142857142857
 40
0.3571428571428572
 40
0.3571428571428572
 40
0.3571428571428572
 40
0.3571428571428572
 40
0.4285714285714285
 40
0.4285714285714285
 40
0.4285714285714285
 40
0.4285714285714285
 40
0.5
 40
0.5
 40
0.5
 40
0.5
 40
0.5714285714285714
 40
0.5714285714285714
 40
0.5714285714285714
 40
0.5714285714285714
 40
0.6428571428571429
 40
0.6428571428571429
 40
0.6428571428571429
 40
0.6428571428571429
 40
0.7142857142857143
 40
0.7142857142857143
 40
0.7142857142857143
 40
0.7142857142857143
 40
0.7857142857142857
 40
0.7857142857142857
 40
0.7857142857142857
 40
0.7857142857142857
 40
0.8571428571428571
 40
0.8571428571428571
 40
0.8571428571428571
 40
0.8571428571428571
 40
1.0
 40
1.0
 40
1.0
 40
1.0
 10
-22.3786
 20
7.1147
 30
0.0
 10
-22.3858
 20
7.2036
 30
0.0
 10
-22.3687
 20
7.2824
 30
0.0
 10
-22.326
 20
7.351
 30
0.0
 10
-22.326
 20
7.351
 30
0.0
 10
-22.2832
 20
7.4197
 30
0.0
 10
-22.2189
 20
7.4786
 30
0.0
 10
-22.1324
 20
7.5277
 30
0.0
 10
-22.1324
 20
7.5277
 30
0.0
 10
-22.0464
 20
7.5768
 30
0.0
 10
-21.9408
 20
7.6171
 30
0.0
 10
-21.8177
 20
7.6481
 30
0.0
 10
-21.8177
 20
7.6481
 30
0.0
 10
-21.6938
 20
7.679
 30
0.0
 10
-21.5542
 20
7.7009
 30
0.0
 10
-21.3989
 20
7.7145
 30
0.0
 10
-21.3989
 20
7.7145
 30
0.0
 10
-21.1837
 20
7.7334
 30
0.0
 10
-20.9965
 20
7.731
 30
0.0
 10
-20.8373
 20
7.7072
 30
0.0
 10
-20.8373
 20
7.7072
 30
0.0
 10
-20.6776
 20
7.6842
 30
0.0
 10
-20.5521
 20
7.638
 30
0.0
 10
-20.4604
 20
7.5701
 30
0.0
 10
-20.4604
 20
7.5701
 30
0.0
 10
-20.3688
 20
7.5021
 30
0.0
 10
-20.318
 20
7.4105
 30
0.0
 10
-20.3066
 20
7.2959
 30
0.0
 10
-20.3066
 20
7.2959
 30
0.0
 10
-20.2982
 20
7.1922
 30
0.0
 10
-20.3303
 20
7.0991
 30
0.0
 10
-20.4034
 20
7.0154
 30
0.0
 10
-20.4034
 20
7.0154
 30
0.0
 10
-20.4767
 20
6.9324
 30
0.0
 10
-20.5875
 20
6.8636
 30
0.0
 10
-20.736
 20
6.8085
 30
0.0
 10
-20.736
 20
6.8085
 30
0.0
 10
-20.885
 20
6.7533
 30
0.0
 10
-21.0681
 20
6.7158
 30
0.0
 10
-21.2864
 20
6.6961
 30
0.0
 10
-21.2864
 20
6.6961
 30
0.0
 10
-21.5152
 20
6.6767
 30
0.0
 10
-21.7085
 20
6.6824
 30
0.0
 10
-21.8682
 20
6.7126
 30
0.0
 10
-21.8682
 20
6.7126
 30
0.0
 10
-22.0274
 20
6.7429
 30
0.0
 10
-22.1499
 20
6.7926
 30
0.0
 10
-22.2365
 20
6.8622
 30
0.0
 10
-22.2365
 20
6.8622
 30
0.0
 10
-22.3224
 20
6.932
 30
0.0
 10
-22.37
 20
7.016
 30
0.0
 10
-22.3786
 20
7.1147
 30
0.0
  0
SPLINE
  5
4A
330
1F
100
AcDbEntity
  8
Ilustrace
 62
   250
370
    20
100
AcDbSpline
210
0.0
220
0.0
230
1.0
 70
    24
 71
     3
 72
     8
 73
     4
 74
     0
 42
0.0000000001
 43
0.0000000001
 40
0.0
 40
0.0
 40
0.0
 40
0.0
 40
1.0
 40
1.0
 40
1.0
 40
1.0
 10
13.0185
 20
5.5789
 30
0.0
 10
13.0185
 20
5.5789
 30
0.0
 10
25.2222
 20
5.5789
 30
0.0
 10
25.2222
 20
5.5789
 30
0.0
  0
SPLINE
  5
4B
330
1F
100
AcDbEntity
  8
Ilustrace
 62
   250
100
AcDbSpline
210
0.0
220
0.0
230
1.0
 70
    11
 71
     3
 72
   140
 73
   136
 74
     0
 42
0.0000000001
 43
0.0000000001
 40
0.0
 40
0.0
 40
0.0
 40
0.0
 40
0.0285714285714286
 40
0.0285714285714286
 40
0.0285714285714286
 40
0.0285714285714286
 40
0.0571428571428571
 40
0.0571428571428571
 40
0.0571428571428571
 40
0.0571428571428571
 40
0.0857142857142857
 40
0.0857142857142857
 40
0.0857142857142857
 40
0.0857142857142857
 40
0.1142857142857143
 40
0.1142857142857143
 40
0.1142857142857143
 40
0.1142857142857143
 40
0.1428571428571428
 40
0.1428571428571428
 40
0.1428571428571428
 40
0.1428571428571428
 40
0.1714285714285714
 40
0.1714285714285714
 40
0.1714285714285714
 40
0.1714285714285714
 40
0.2
 40
0.2
 40
0.2
 40
0.2
 40
0.2285714285714286
 40
0.2285714285714286
 40
0.2285714285714286
 40
0.2285714285714286
 40
0.2571428571428571
 40
0.2571428571428571
 40
0.2571428571428571
 40
0.2571428571428571
 40
0.2857142857142857
 40
0.2857142857142857
 40
0.2857142857142857
 40
0.2857142857142857
 40
0.3142857142857143
 40
0.3142857142857143
 40
0.3142857142857143
 40
0.3142857142857143
 40
0.3428571428571429
 40
0.3428571428571429
 40
0.3428571428571429
 40
0.3428571428571429
 40
0.3714285714285714
 40
0.3714285714285714
 40
0.3714285714285714
 40
0.3714285714285714
 40
0.4
 40
0.4
 40
0.4
 40
0.4
 40
0.4285714285714285
 40
0.4285714285714285
 40
0.4285714285714285
 40
0.4285714285714285
 40
0.4571428571428571
 40
0.4571428571428571
 40
0.4571428571428571
 40
0.4571428571428571
 40
0.4857142857142857
 40
0.4857142857142857
 40
0.4857142857142857
 40
0.4857142857142857
 40
0.5142857142857142
 40
0.5142857142857142
 40
0.5142857142857142
 40
0.5142857142857142
 40
0.5428571428571428
 40
0.5428571428571428
 40
0.5428571428571428
 40
0.5428571428571428
 40
0.5714285714285714
 40
0.5714285714285714
 40
0.5714285714285714
 40
0.5714285714285714
 40
0.6
 40
0.6
 40
0.6
 40
0.6
 40
0.6285714285714286
 40
0.6285714285714286
 40
0.6285714285714286
 40
0.6285714285714286
 40
0.6571428571428571
 40
0.6571428571428571
 40
0.6571428571428571
 40
0.6571428571428571
 40
0.6857142857142857
 40
0.6857142857142857
 40
0.6857142857142857
 40
0.6857142857142857
 40
0.7142857142857143
 40
0.7142857142857143
 40
0.7142857142857143
 40
0.7142857142857143
 40
0.7428571428571429
 40
0.7428571428571429
 40
0.7428571428571429
 40
0.7428571428571429
 40
0.7714285714285715
 40
0.7714285714285715
 40
0.7714285714285715
 40
0.7714285714285715
 40
0.8
 40
0.8
 40
0.8
 40
0.8
 40
0.8285714285714286
 40
0.8285714285714286
 40
0.8285714285714286
 40
0.8285714285714286
 40
0.8571428571428571
 40
0.8571428571428571
 40
0.8571428571428571
 40
0.8571428571428571
 40
0.8857142857142857
 40
0.8857142857142857
 40
0.8857142857142857
 40
0.8857142857142857
 40
0.9142857142857143
 40
0.9142857142857143
 40
0.9142857142857143
 40
0.9142857142857143
 40
0.9428571428571428
 40
0.9428571428571428
 40
0.9428571428571428
 40
0.9428571428571428
 40
1.0
 40
1.0
 40
1.0
 40
1.0
 10
16.8325
 20
7.8412
 30
0.0
 10
16.8325
 20
7.8412
 30
0.0
 10
15.971
 20
7.8412
 30
0.0
 10
15.971
 20
7.8412
 30
0.0
 10
15.971
 20
7.8412
 30
0.0
 10
15.971
 20
7.8412
 30
0.0
 10
15.971
 20
7.5696
 30
0.0
 10
15.971
 20
7.5696
 30
0.0
 10
15.971
 20
7.5696
 30
0.0
 10
15.971
 20
7.5696
 30
0.0
 10
16.4988
 20
7.5696
 30
0.0
 10
16.4988
 20
7.5696
 30
0.0
 10
16.4988
 20
7.5696
 30
0.0
 10
16.4988
 20
7.5696
 30
0.0
 10
16.4988
 20
6.7896
 30
0.0
 10
16.4988
 20
6.7896
 30
0.0
 10
16.4988
 20
6.7896
 30
0.0
 10
16.46
 20
6.7695
 30
0.0
 10
16.4031
 20
6.7534
 30
0.0
 10
16.3274
 20
6.7398
 30
0.0
 10
16.3274
 20
6.7398
 30
0.0
 10
16.2524
 20
6.7268
 30
0.0
 10
16.1592
 20
6.7204
 30
0.0
 10
16.0486
 20
6.7197
 30
0.0
 10
16.0486
 20
6.7197
 30
0.0
 10
15.8947
 20
6.7197
 30
0.0
 10
15.7563
 20
6.7437
 30
0.0
 10
15.6321
 20
6.7915
 30
0.0
 10
15.6321
 20
6.7915
 30
0.0
 10
15.5086
 20
6.8387
 30
0.0
 10
15.4025
 20
6.9079
 30
0.0
 10
15.3139
 20
6.9985
 30
0.0
 10
15.3139
 20
6.9985
 30
0.0
 10
15.226
 20
7.0897
 30
0.0
 10
15.1581
 20
7.2003
 30
0.0
 10
15.1108
 20
7.3303
 30
0.0
 10
15.1108
 20
7.3303
 30
0.0
 10
15.0636
 20
7.4609
 30
0.0
 10
15.0404
 20
7.609
 30
0.0
 10
15.0397
 20
7.7752
 30
0.0
 10
15.0397
 20
7.7752
 30
0.0
 10
15.0404
 20
7.9395
 30
0.0
 10
15.0649
 20
8.0863
 30
0.0
 10
15.1147
 20
8.2163
 30
0.0
 10
15.1147
 20
8.2163
 30
0.0
 10
15.1639
 20
8.3457
 30
0.0
 10
15.2344
 20
8.4563
 30
0.0
 10
15.3269
 20
8.5468
 30
0.0
 10
15.3269
 20
8.5468
 30
0.0
 10
15.4193
 20
8.638
 30
0.0
 10
15.5293
 20
8.7072
 30
0.0
 10
15.6586
 20
8.7551
 30
0.0
 10
15.6586
 20
8.7551
 30
0.0
 10
15.7873
 20
8.8023
 30
0.0
 10
15.9316
 20
8.8268
 30
0.0
 10
16.0913
 20
8.8268
 30
0.0
 10
16.0913
 20
8.8268
 30
0.0
 10
16.1793
 20
8.8268
 30
0.0
 10
16.2575
 20
8.8217
 30
0.0
 10
16.3274
 20
8.8126
 30
0.0
 10
16.3274
 20
8.8126
 30
0.0
 10
16.3972
 20
8.8029
 30
0.0
 10
16.46
 20
8.79
 30
0.0
 10
16.5162
 20
8.7732
 30
0.0
 10
16.5162
 20
8.7732
 30
0.0
 10
16.5725
 20
8.7563
 30
0.0
 10
16.6236
 20
8.7363
 30
0.0
 10
16.6695
 20
8.7143
 30
0.0
 10
16.6695
 20
8.7143
 30
0.0
 10
16.6695
 20
8.7143
 30
0.0
 10
16.7549
 20
8.9898
 30
0.0
 10
16.7549
 20
8.9898
 30
0.0
 10
16.7549
 20
8.9898
 30
0.0
 10
16.7167
 20
9.0086
 30
0.0
 10
16.6663
 20
9.0267
 30
0.0
 10
16.6023
 20
9.0454
 30
0.0
 10
16.6023
 20
9.0454
 30
0.0
 10
16.5382
 20
9.0636
 30
0.0
 10
16.4638
 20
9.0791
 30
0.0
 10
16.3785
 20
9.0914
 30
0.0
 10
16.3785
 20
9.0914
 30
0.0
 10
16.2938
 20
9.103
 30
0.0
 10
16.2006
 20
9.1095
 30
0.0
 10
16.0991
 20
9.1101
 30
0.0
 10
16.0991
 20
9.1101
 30
0.0
 10
15.8792
 20
9.1095
 30
0.0
 10
15.6819
 20
9.0752
 30
0.0
 10
15.508
 20
9.0086
 30
0.0
 10
15.508
 20
9.0086
 30
0.0
 10
15.3333
 20
8.942
 30
0.0
 10
15.1846
 20
8.8482
 30
0.0
 10
15.0623
 20
8.7272
 30
0.0
 10
15.0623
 20
8.7272
 30
0.0
 10
14.9395
 20
8.6063
 30
0.0
 10
14.8457
 20
8.464
 30
0.0
 10
14.781
 20
8.2997
 30
0.0
 10
14.781
 20
8.2997
 30
0.0
 10
14.7157
 20
8.1355
 30
0.0
 10
14.6833
 20
7.9557
 30
0.0
 10
14.6827
 20
7.7597
 30
0.0
 10
14.6827
 20
7.7597
 30
0.0
 10
14.6833
 20
7.6232
 30
0.0
 10
14.6982
 20
7.4952
 30
0.0
 10
14.7273
 20
7.3742
 30
0.0
 10
14.7273
 20
7.3742
 30
0.0
 10
14.7564
 20
7.2539
 30
0.0
 10
14.7985
 20
7.144
 30
0.0
 10
14.8528
 20
7.0444
 30
0.0
 10
14.8528
 20
7.0444
 30
0.0
 10
14.9071
 20
6.9448
 30
0.0
 10
14.9718
 20
6.8588
 30
0.0
 10
15.0475
 20
6.7857
 30
0.0
 10
15.0475
 20
6.7857
 30
0.0
 10
15.1755
 20
6.6641
 30
0.0
 10
15.321
 20
6.5762
 30
0.0
 10
15.484
 20
6.5212
 30
0.0
 10
15.484
 20
6.5212
 30
0.0
 10
15.647
 20
6.4662
 30
0.0
 10
15.8274
 20
6.4397
 30
0.0
 10
16.0254
 20
6.4403
 30
0.0
 10
16.0254
 20
6.4403
 30
0.0
 10
16.1437
 20
6.441
 30
0.0
 10
16.2543
 20
6.4494
 30
0.0
 10
16.3578
 20
6.4649
 30
0.0
 10
16.3578
 20
6.4649
 30
0.0
 10
16.4613
 20
6.4804
 30
0.0
 10
16.5537
 20
6.4992
 30
0.0
 10
16.6346
 20
6.5205
 30
0.0
 10
16.6346
 20
6.5205
 30
0.0
 10
16.7154
 20
6.5425
 30
0.0
 10
16.7814
 20
6.5639
 30
0.0
 10
16.8325
 20
6.5839
 30
0.0
 10
16.8325
 20
6.5839
 30
0.0
 10
16.8325
 20
6.5839
 30
0.0
 10
16.8325
 20
7.8412
 30
0.0
 10
16.8325
 20
7.8412
 30
0.0
  0
SPLINE
  5
4C
330
1F
100
AcDbEntity
  8
Ilustrace
 62
   250
100
AcDbSpline
210
0.0
220
0.0
230
1.0
 70
    11
 71
     3
 72
   124
 73
   120
 74
     0
 42
0.0000000001
 43
0.0000000001
 40
0.0
 40
0.0
 40
0.0
 40
0.0
 40
0.032258064516129
 40
0.032258064516129
 40
0.032258064516129
 40
0.032258064516129
 40
0.0645161290322581
 40
0.0645161290322581
 40
0.0645161290322581
 40
0.0645161290322581
 40
0.0967741935483871
 40
0.0967741935483871
 40
0.0967741935483871
 40
0.0967741935483871
 40
0.1290322580645161
 40
0.1290322580645161
 40
0.1290322580645161
 40
0.1290322580645161
 40
0.1612903225806452
 40
0.1612903225806452
 40
0.1612903225806452
 40
0.1612903225806452
 40
0.1935483870967742
 40
0.1935483870967742
 40
0.1935483870967742
 40
0.1935483870967742
 40
0.2258064516129032
 40
0.2258064516129032
 40
0.2258064516129032
 40
0.2258064516129032
 40
0.2580645161290323
 40
0.2580645161290323
 40
0.2580645161290323
 40
0.2580645161290323
 40
0.2903225806451613
 40
0.2903225806451613
 40
0.2903225806451613
 40
0.2903225806451613
 40
0.3225806451612903
 40
0.3225806451612903
 40
0.3225806451612903
 40
0.3225806451612903
 40
0.3548387096774194
 40
0.3548387096774194
 40
0.3548387096774194
 40
0.3548387096774194
 40
0.3870967741935484
 40
0.3870967741935484
 40
0.3870967741935484
 40
0.3870967741935484
 40
0.4193548387096774
 40
0.4193548387096774
 40
0.4193548387096774
 40
0.4193548387096774
 40
0.4516129032258064
 40
0.4516129032258064
 40
0.4516129032258064
 40
0.4516129032258064
 40
0.4838709677419355
 40
0.4838709677419355
 40
0.4838709677419355
 40
0.4838709677419355
 40
0.5161290322580645
 40
0.5161290322580645
 40
0.5161290322580645
 40
0.5161290322580645
 40
0.5483870967741935
 40
0.5483870967741935
 40
0.5483870967741935
 40
0.5483870967741935
 40
0.5806451612903226
 40
0.5806451612903226
 40
0.5806451612903226
 40
0.5806451612903226
 40
0.6129032258064516
 40
0.6129032258064516
 40
0.6129032258064516
 40
0.6129032258064516
 40
0.6451612903225806
 40
0.6451612903225806
 40
0.6451612903225806
 40
0.6451612903225806
 40
0.6774193548387096
 40
0.6774193548387096
 40
0.6774193548387096
 40
0.6774193548387096
 40
0.7096774193548387
 40
0.7096774193548387
 40
0.7096774193548387
 40
0.7096774193548387
 40
0.7419354838709677
 40
0.7419354838709677
 40
0.7419354838709677
 40
0.7419354838709677
 40
0.7741935483870968
 40
0.7741935483870968
 40
0.7741935483870968
 40
0.7741935483870968
 40
0.8064516129032258
 40
0.8064516129032258
 40
0.8064516129032258
 40
0.8064516129032258
 40
0.8387096774193549
 40
0.8387096774193549
 40
0.8387096774193549
 40
0.8387096774193549
 40
0.8709677419354839
 40
0.8709677419354839
 40
0.8709677419354839
 40
0.8709677419354839
 40
0.9032258064516129
 40
0.9032258064516129
 40
0.9032258064516129
 40
0.9032258064516129
 40
0.9354838709677419
 40
0.9354838709677419
 40
0.9354838709677419
 40
0.9354838709677419
 40
1.0
 40
1.0
 40
1.0
 40
1.0
 10
19.4868
 20
9.0286
 30
0.0
 10
19.4557
 20
9.0286
 30
0.0
 10
19.4189
 20
9.0273
 30
0.0
 10
19.3775
 20
9.0247
 30
0.0
 10
19.3775
 20
9.0247
 30
0.0
 10
19.3354
 20
9.0222
 30
0.0
 10
19.2889
 20
9.017
 30
0.0
 10
19.2384
 20
9.0092
 30
0.0
 10
19.2384
 20
9.0092
 30
0.0
 10
19.0787
 20
8.9898
 30
0.0
 10
18.9306
 20
8.9484
 30
0.0
 10
18.7941
 20
8.8857
 30
0.0
 10
18.7941
 20
8.8857
 30
0.0
 10
18.6577
 20
8.823
 30
0.0
 10
18.5367
 20
8.7402
 30
0.0
 10
18.4313
 20
8.6367
 30
0.0
 10
18.4313
 20
8.6367
 30
0.0
 10
18.3466
 20
8.5539
 30
0.0
 10
18.2722
 20
8.4556
 30
0.0
 10
18.2088
 20
8.3418
 30
0.0
 10
18.2088
 20
8.3418
 30
0.0
 10
18.1448
 20
8.2286
 30
0.0
 10
18.095
 20
8.1012
 30
0.0
 10
18.0588
 20
7.9602
 30
0.0
 10
18.0588
 20
7.9602
 30
0.0
 10
18.0232
 20
7.8192
 30
0.0
 10
18.0051
 20
7.6653
 30
0.0
 10
18.0044
 20
7.4997
 30
0.0
 10
18.0044
 20
7.4997
 30
0.0
 10
18.0051
 20
7.3354
 30
0.0
 10
18.0264
 20
7.1873
 30
0.0
 10
18.0678
 20
7.0554
 30
0.0
 10
18.0678
 20
7.0554
 30
0.0
 10
18.1099
 20
6.9228
 30
0.0
 10
18.17
 20
6.8103
 30
0.0
 10
18.2483
 20
6.7165
 30
0.0
 10
18.2483
 20
6.7165
 30
0.0
 10
18.3259
 20
6.6227
 30
0.0
 10
18.4197
 20
6.5503
 30
0.0
 10
18.5283
 20
6.5005
 30
0.0
 10
18.5283
 20
6.5005
 30
0.0
 10
18.637
 20
6.4507
 30
0.0
 10
18.7585
 20
6.4255
 30
0.0
 10
18.8931
 20
6.4248
 30
0.0
 10
18.8931
 20
6.4248
 30
0.0
 10
19.025
 20
6.4261
 30
0.0
 10
19.1434
 20
6.4507
 30
0.0
 10
19.2475
 20
6.4985
 30
0.0
 10
19.2475
 20
6.4985
 30
0.0
 10
19.351
 20
6.5471
 30
0.0
 10
19.4396
 20
6.613
 30
0.0
 10
19.512
 20
6.6964
 30
0.0
 10
19.512
 20
6.6964
 30
0.0
 10
19.5844
 20
6.7799
 30
0.0
 10
19.6401
 20
6.875
 30
0.0
 10
19.6776
 20
6.9817
 30
0.0
 10
19.6776
 20
6.9817
 30
0.0
 10
19.7157
 20
7.0877
 30
0.0
 10
19.7351
 20
7.1996
 30
0.0
 10
19.7351
 20
7.3173
 30
0.0
 10
19.7351
 20
7.3173
 30
0.0
 10
19.7345
 20
7.4402
 30
0.0
 10
19.7157
 20
7.5515
 30
0.0
 10
19.6789
 20
7.6511
 30
0.0
 10
19.6789
 20
7.6511
 30
0.0
 10
19.642
 20
7.7507
 30
0.0
 10
19.5896
 20
7.8367
 30
0.0
 10
19.5224
 20
7.9085
 30
0.0
 10
19.5224
 20
7.9085
 30
0.0
 10
19.4545
 20
7.9796
 30
0.0
 10
19.3743
 20
8.0352
 30
0.0
 10
19.2818
 20
8.0734
 30
0.0
 10
19.2818
 20
8.0734
 30
0.0
 10
19.1893
 20
8.1122
 30
0.0
 10
19.0864
 20
8.1316
 30
0.0
 10
18.9746
 20
8.1322
 30
0.0
 10
18.9746
 20
8.1322
 30
0.0
 10
18.8814
 20
8.1316
 30
0.0
 10
18.7961
 20
8.118
 30
0.0
 10
18.7184
 20
8.0921
 30
0.0
 10
18.7184
 20
8.0921
 30
0.0
 10
18.6408
 20
8.0656
 30
0.0
 10
18.5716
 20
8.0307
 30
0.0
 10
18.5115
 20
7.9861
 30
0.0
 10
18.5115
 20
7.9861
 30
0.0
 10
18.452
 20
7.9421
 30
0.0
 10
18.4015
 20
7.8923
 30
0.0
 10
18.3614
 20
7.8373
 30
0.0
 10
18.3614
 20
7.8373
 30
0.0
 10
18.3614
 20
7.8373
 30
0.0
 10
18.3537
 20
7.8373
 30
0.0
 10
18.3537
 20
7.8373
 30
0.0
 10
18.3537
 20
7.8373
 30
0.0
 10
18.3679
 20
7.9427
 30
0.0
 10
18.3964
 20
8.0443
 30
0.0
 10
18.4397
 20
8.1419
 30
0.0
 10
18.4397
 20
8.1419
 30
0.0
 10
18.4824
 20
8.2389
 30
0.0
 10
18.5393
 20
8.3282
 30
0.0
 10
18.6117
 20
8.409
 30
0.0
 10
18.6117
 20
8.409
 30
0.0
 10
18.6842
 20
8.4892
 30
0.0
 10
18.7715
 20
8.5578
 30
0.0
 10
18.8743
 20
8.6134
 30
0.0
 10
18.8743
 20
8.6134
 30
0.0
 10
18.9771
 20
8.669
 30
0.0
 10
19.0962
 20
8.7078
 30
0.0
 10
19.2307
 20
8.7298
 30
0.0
 10
19.2307
 20
8.7298
 30
0.0
 10
19.2792
 20
8.7376
 30
0.0
 10
19.3257
 20
8.7434
 30
0.0
 10
19.3691
 20
8.7466
 30
0.0
 10
19.3691
 20
8.7466
 30
0.0
 10
19.4124
 20
8.7505
 30
0.0
 10
19.4519
 20
8.7512
 30
0.0
 10
19.4868
 20
8.7492
 30
0.0
 10
19.4868
 20
8.7492
 30
0.0
 10
19.4868
 20
8.7492
 30
0.0
 10
19.4868
 20
9.0286
 30
0.0
 10
19.4868
 20
9.0286
 30
0.0
  0
SPLINE
  5
4D
330
1F
100
AcDbEntity
  8
Ilustrace
 62
   250
100
AcDbSpline
210
0.0
220
0.0
230
1.0
 70
    11
 71
     3
 72
    64
 73
    60
 74
     0
 42
0.0000000001
 43
0.0000000001
 40
0.0
 40
0.0
 40
0.0
 40
0.0
 40
0.0625
 40
0.0625
 40
0.0625
 40
0.0625
 40
0.125
 40
0.125
 40
0.125
 40
0.125
 40
0.1875
 40
0.1875
 40
0.1875
 40
0.1875
 40
0.25
 40
0.25
 40
0.25
 40
0.25
 40
0.3125
 40
0.3125
 40
0.3125
 40
0.3125
 40
0.375
 40
0.375
 40
0.375
 40
0.375
 40
0.4375
 40
0.4375
 40
0.4375
 40
0.4375
 40
0.5
 40
0.5
 40
0.5
 40
0.5
 40
0.5625
 40
0.5625
 40
0.5625
 40
0.5625
 40
0.625
 40
0.625
 40
0.625
 40
0.625
 40
0.6875
 40
0.6875
 40
0.6875
 40
0.6875
 40
0.75
 40
0.75
 40
0.75
 40
0.75
 40
0.8125
 40
0.8125
 40
0.8125
 40
0.8125
 40
0.875
 40
0.875
 40
0.875
 40
0.875
 40
1.0
 40
1.0
 40
1.0
 40
1.0
 10
18.9008
 20
6.6887
 30
0.0
 10
18.8103
 20
6.6893
 30
0.0
 10
18.7307
 20
6.7074
 30
0.0
 10
18.6615
 20
6.7437
 30
0.0
 10
18.6615
 20
6.7437
 30
0.0
 10
18.593
 20
6.7799
 30
0.0
 10
18.5348
 20
6.8303
 30
0.0
 10
18.4876
 20
6.8956
 30
0.0
 10
18.4876
 20
6.8956
 30
0.0
 10
18.4403
 20
6.961
 30
0.0
 10
18.4048
 20
7.0379
 30
0.0
 10
18.3802
 20
7.1259
 30
0.0
 10
18.3802
 20
7.1259
 30
0.0
 10
18.3556
 20
7.2138
 30
0.0
 10
18.3433
 20
7.3102
 30
0.0
 10
18.342
 20
7.4143
 30
0.0
 10
18.342
 20
7.4143
 30
0.0
 10
18.342
 20
7.4454
 30
0.0
 10
18.3459
 20
7.4725
 30
0.0
 10
18.3524
 20
7.4971
 30
0.0
 10
18.3524
 20
7.4971
 30
0.0
 10
18.3589
 20
7.5211
 30
0.0
 10
18.3673
 20
7.5424
 30
0.0
 10
18.377
 20
7.5618
 30
0.0
 10
18.377
 20
7.5618
 30
0.0
 10
18.4087
 20
7.6245
 30
0.0
 10
18.4494
 20
7.6789
 30
0.0
 10
18.5005
 20
7.7254
 30
0.0
 10
18.5005
 20
7.7254
 30
0.0
 10
18.5509
 20
7.7713
 30
0.0
 10
18.6079
 20
7.8076
 30
0.0
 10
18.6712
 20
7.8334
 30
0.0
 10
18.6712
 20
7.8334
 30
0.0
 10
18.7346
 20
7.8587
 30
0.0
 10
18.8006
 20
7.8722
 30
0.0
 10
18.8698
 20
7.8722
 30
0.0
 10
18.8698
 20
7.8722
 30
0.0
 10
18.9752
 20
7.8716
 30
0.0
 10
19.0664
 20
7.8483
 30
0.0
 10
19.1447
 20
7.8024
 30
0.0
 10
19.1447
 20
7.8024
 30
0.0
 10
19.2223
 20
7.7565
 30
0.0
 10
19.2824
 20
7.6905
 30
0.0
 10
19.3251
 20
7.6045
 30
0.0
 10
19.3251
 20
7.6045
 30
0.0
 10
19.3678
 20
7.5185
 30
0.0
 10
19.3891
 20
7.415
 30
0.0
 10
19.3898
 20
7.294
 30
0.0
 10
19.3898
 20
7.294
 30
0.0
 10
19.3891
 20
7.1731
 30
0.0
 10
19.3684
 20
7.067
 30
0.0
 10
19.3277
 20
6.9765
 30
0.0
 10
19.3277
 20
6.9765
 30
0.0
 10
19.2869
 20
6.8859
 30
0.0
 10
19.23
 20
6.8161
 30
0.0
 10
19.1569
 20
6.7657
 30
0.0
 10
19.1569
 20
6.7657
 30
0.0
 10
19.0839
 20
6.7152
 30
0.0
 10
18.9985
 20
6.6893
 30
0.0
 10
18.9008
 20
6.6887
 30
0.0
  0
SPLINE
  5
4E
330
1F
100
AcDbEntity
  8
Ilustrace
 62
   250
100
AcDbSpline
210
0.0
220
0.0
230
1.0
 70
    11
 71
     3
 72
    20
 73
    16
 74
     0
 42
0.0000000001
 43
0.0000000001
 40
0.0
 40
0.0
 40
0.0
 40
0.0
 40
0.2
 40
0.2
 40
0.2
 40
0.2
 40
0.4
 40
0.4
 40
0.4
 40
0.4
 40
0.6
 40
0.6
 40
0.6
 40
0.6
 40
1.0
 40
1.0
 40
1.0
 40
1.0
 10
20.1193
 20
6.3162
 30
0.0
 10
20.1193
 20
6.3162
 30
0.0
 10
21.2059
 20
9.1295
 30
0.0
 10
21.2059
 20
9.1295
 30
0.0
 10
21.2059
 20
9.1295
 30
0.0
 10
21.2059
 20
9.1295
 30
0.0
 10
20.9381
 20
9.1295
 30
0.0
 10
20.9381
 20
9.1295
 30
0.0
 10
20.9381
 20
9.1295
 30
0.0
 10
20.9381
 20
9.1295
 30
0.0
 10
19.8593
 20
6.3162
 30
0.0
 10
19.8593
 20
6.3162
 30
0.0
 10
19.8593
 20
6.3162
 30
0.0
 10
19.8593
 20
6.3162
 30
0.0
 10
20.1193
 20
6.3162
 30
0.0
 10
20.1193
 20
6.3162
 30
0.0
  0
SPLINE
  5
4F
330
1F
100
AcDbEntity
  8
Ilustrace
 62
   250
100
AcDbSpline
210
0.0
220
0.0
230
1.0
 70
    11
 71
     3
 72
    48
 73
    44
 74
     0
 42
0.0000000001
 43
0.0000000001
 40
0.0
 40
0.0
 40
0.0
 40
0.0
 40
0.0833333333333333
 40
0.0833333333333333
 40
0.0833333333333333
 40
0.0833333333333333
 40
0.1666666666666667
 40
0.1666666666666667
 40
0.1666666666666667
 40
0.1666666666666667
 40
0.25
 40
0.25
 40
0.25
 40
0.25
 40
0.3333333333333333
 40
0.3333333333333333
 40
0.3333333333333333
 40
0.3333333333333333
 40
0.4166666666666667
 40
0.4166666666666667
 40
0.4166666666666667
 40
0.4166666666666667
 40
0.5
 40
0.5
 40
0.5
 40
0.5
 40
0.5833333333333334
 40
0.5833333333333334
 40
0.5833333333333334
 40
0.5833333333333334
 40
0.6666666666666666
 40
0.6666666666666666
 40
0.6666666666666666
 40
0.6666666666666666
 40
0.75
 40
0.75
 40
0.75
 40
0.75
 40
0.8333333333333334
 40
0.8333333333333334
 40
0.8333333333333334
 40
0.8333333333333334
 40
1.0
 40
1.0
 40
1.0
 40
1.0
 10
22.7464
 20
6.4675
 30
0.0
 10
22.7464
 20
6.4675
 30
0.0
 10
22.7464
 20
7.1582
 30
0.0
 10
22.7464
 20
7.1582
 30
0.0
 10
22.7464
 20
7.1582
 30
0.0
 10
22.7464
 20
7.1582
 30
0.0
 10
23.0995
 20
7.1582
 30
0.0
 10
23.0995
 20
7.1582
 30
0.0
 10
23.0995
 20
7.1582
 30
0.0
 10
23.0995
 20
7.1582
 30
0.0
 10
23.0995
 20
7.4221
 30
0.0
 10
23.0995
 20
7.4221
 30
0.0
 10
23.0995
 20
7.4221
 30
0.0
 10
23.0995
 20
7.4221
 30
0.0
 10
22.7464
 20
7.4221
 30
0.0
 10
22.7464
 20
7.4221
 30
0.0
 10
22.7464
 20
7.4221
 30
0.0
 10
22.7464
 20
7.4221
 30
0.0
 10
22.7464
 20
8.9898
 30
0.0
 10
22.7464
 20
8.9898
 30
0.0
 10
22.7464
 20
8.9898
 30
0.0
 10
22.7464
 20
8.9898
 30
0.0
 10
22.3778
 20
8.9898
 30
0.0
 10
22.3778
 20
8.9898
 30
0.0
 10
22.3778
 20
8.9898
 30
0.0
 10
22.3778
 20
8.9898
 30
0.0
 10
21.2524
 20
7.3794
 30
0.0
 10
21.2524
 20
7.3794
 30
0.0
 10
21.2524
 20
7.3794
 30
0.0
 10
21.2524
 20
7.3794
 30
0.0
 10
21.2524
 20
7.1582
 30
0.0
 10
21.2524
 20
7.1582
 30
0.0
 10
21.2524
 20
7.1582
 30
0.0
 10
21.2524
 20
7.1582
 30
0.0
 10
22.4243
 20
7.1582
 30
0.0
 10
22.4243
 20
7.1582
 30
0.0
 10
22.4243
 20
7.1582
 30
0.0
 10
22.4243
 20
7.1582
 30
0.0
 10
22.4243
 20
6.4675
 30
0.0
 10
22.4243
 20
6.4675
 30
0.0
 10
22.4243
 20
6.4675
 30
0.0
 10
22.4243
 20
6.4675
 30
0.0
 10
22.7464
 20
6.4675
 30
0.0
 10
22.7464
 20
6.4675
 30
0.0
  0
SPLINE
  5
50
330
1F
100
AcDbEntity
  8
Ilustrace
 62
   250
100
AcDbSpline
210
0.0
220
0.0
230
1.0
 70
    11
 71
     3
 72
    36
 73
    32
 74
     0
 42
0.0000000001
 43
0.0000000001
 40
0.0
 40
0.0
 40
0.0
 40
0.0
 40
0.1111111111111111
 40
0.1111111111111111
 40
0.1111111111111111
 40
0.1111111111111111
 40
0.2222222222222222
 40
0.2222222222222222
 40
0.2222222222222222
 40
0.2222222222222222
 40
0.3333333333333333
 40
0.3333333333333333
 40
0.3333333333333333
 40
0.3333333333333333
 40
0.4444444444444444
 40
0.4444444444444444
 40
0.4444444444444444
 40
0.4444444444444444
 40
0.5555555555555556
 40
0.5555555555555556
 40
0.5555555555555556
 40
0.5555555555555556
 40
0.6666666666666666
 40
0.6666666666666666
 40
0.6666666666666666
 40
0.6666666666666666
 40
0.7777777777777778
 40
0.7777777777777778
 40
0.7777777777777778
 40
0.7777777777777778
 40
1.0
 40
1.0
 40
1.0
 40
1.0
 10
21.5978
 20
7.4221
 30
0.0
 10
21.5978
 20
7.4221
 30
0.0
 10
21.5978
 20
7.4299
 30
0.0
 10
21.5978
 20
7.4299
 30
0.0
 10
21.5978
 20
7.4299
 30
0.0
 10
21.5978
 20
7.4299
 30
0.0
 10
22.2148
 20
8.2875
 30
0.0
 10
22.2148
 20
8.2875
 30
0.0
 10
22.2148
 20
8.2875
 30
0.0
 10
22.249
 20
8.345
 30
0.0
 10
22.2833
 20
8.4032
 30
0.0
 10
22.317
 20
8.4621
 30
0.0
 10
22.317
 20
8.4621
 30
0.0
 10
22.3499
 20
8.5216
 30
0.0
 10
22.3862
 20
8.5875
 30
0.0
 10
22.4243
 20
8.66
 30
0.0
 10
22.4243
 20
8.66
 30
0.0
 10
22.4243
 20
8.66
 30
0.0
 10
22.436
 20
8.66
 30
0.0
 10
22.436
 20
8.66
 30
0.0
 10
22.436
 20
8.66
 30
0.0
 10
22.4282
 20
8.528
 30
0.0
 10
22.4243
 20
8.3961
 30
0.0
 10
22.4243
 20
8.2642
 30
0.0
 10
22.4243
 20
8.2642
 30
0.0
 10
22.4243
 20
8.2642
 30
0.0
 10
22.4243
 20
7.4221
 30
0.0
 10
22.4243
 20
7.4221
 30
0.0
 10
22.4243
 20
7.4221
 30
0.0
 10
22.4243
 20
7.4221
 30
0.0
 10
21.5978
 20
7.4221
 30
0.0
 10
21.5978
 20
7.4221
 30
0.0
  0
SPLINE
  5
51
330
1F
100
AcDbEntity
  8
Ilustrace
 62
   250
100
AcDbSpline
210
0.0
220
0.0
230
1.0
 70
    11
 71
     3
 72
    20
 73
    16
 74
     0
 42
0.0000000001
 43
0.0000000001
 40
0.0
 40
0.0
 40
0.0
 40
0.0
 40
0.2
 40
0.2
 40
0.2
 40
0.2
 40
0.4
 40
0.4
 40
0.4
 40
0.4
 40
0.6
 40
0.6
 40
0.6
 40
0.6
 40
1.0
 40
1.0
 40
1.0
 40
1.0
 10
23.3828
 20
9.1528
 30
0.0
 10
23.3828
 20
9.1528
 30
0.0
 10
23.4449
 20
8.2215
 30
0.0
 10
23.4449
 20
8.2215
 30
0.0
 10
23.4449
 20
8.2215
 30
0.0
 10
23.4449
 20
8.2215
 30
0.0
 10
23.6544
 20
8.2215
 30
0.0
 10
23.6544
 20
8.2215
 30
0.0
 10
23.6544
 20
8.2215
 30
0.0
 10
23.6544
 20
8.2215
 30
0.0
 10
23.7204
 20
9.1528
 30
0.0
 10
23.7204
 20
9.1528
 30
0.0
 10
23.7204
 20
9.1528
 30
0.0
 10
23.7204
 20
9.1528
 30
0.0
 10
23.3828
 20
9.1528
 30
0.0
 10
23.3828
 20
9.1528
 30
0.0
  0
SPLINE
  5
52
330
1F
100
AcDbEntity
  8
Ilustrace
 62
   250
100
AcDbSpline
210
0.0
220
0.0
230
1.0
 70
    11
 71
     3
 72
    20
 73
    16
 74
     0
 42
0.0000000001
 43
0.0000000001
 40
0.0
 40
0.0
 40
0.0
 40
0.0
 40
0.2
 40
0.2
 40
0.2
 40
0.2
 40
0.4
 40
0.4
 40
0.4
 40
0.4
 40
0.6
 40
0.6
 40
0.6
 40
0.6
 40
1.0
 40
1.0
 40
1.0
 40
1.0
 10
23.961
 20
9.1528
 30
0.0
 10
23.961
 20
9.1528
 30
0.0
 10
24.027
 20
8.2215
 30
0.0
 10
24.027
 20
8.2215
 30
0.0
 10
24.027
 20
8.2215
 30
0.0
 10
24.027
 20
8.2215
 30
0.0
 10
24.2326
 20
8.2215
 30
0.0
 10
24.2326
 20
8.2215
 30
0.0
 10
24.2326
 20
8.2215
 30
0.0
 10
24.2326
 20
8.2215
 30
0.0
 10
24.2986
 20
9.1528
 30
0.0
 10
24.2986
 20
9.1528
 30
0.0
 10
24.2986
 20
9.1528
 30
0.0
 10
24.2986
 20
9.1528
 30
0.0
 10
23.961
 20
9.1528
 30
0.0
 10
23.961
 20
9.1528
 30
0.0
  0
SPLINE
  5
53
330
1F
100
AcDbEntity
  8
Ilustrace
 62
   250
370
    15
100
AcDbSpline
210
0.0
220
0.0
230
1.0
 70
    24
 71
     3
 72
     8
 73
     4
 74
     0
 42
0.0000000001
 43
0.0000000001
 40
0.0
 40
0.0
 40
0.0
 40
0.0
 40
1.0
 40
1.0
 40
1.0
 40
1.0
 10
12.0083
 20
-6.0491
 30
0.0
 10
12.0083
 20
-6.0491
 30
0.0
 10
12.0083
 20
10.1478
 30
0.0
 10
12.0083
 20
10.1478
 30
0.0
  0
SPLINE
  5
54
330
1F
100
AcDbEntity
  8
Ilustrace
 62
   250
100
AcDbSpline
210
0.0
220
0.0
230
1.0
 70
    11
 71
     3
 72
   124
 73
   120
 74
     0
 42
0.0000000001
 43
0.0000000001
 40
0.0
 40
0.0
 40
0.0
 40
0.0
 40
0.032258064516129
 40
0.032258064516129
 40
0.032258064516129
 40
0.032258064516129
 40
0.0645161290322581
 40
0.0645161290322581
 40
0.0645161290322581
 40
0.0645161290322581
 40
0.0967741935483871
 40
0.0967741935483871
 40
0.0967741935483871
 40
0.0967741935483871
 40
0.1290322580645161
 40
0.1290322580645161
 40
0.1290322580645161
 40
0.1290322580645161
 40
0.1612903225806452
 40
0.1612903225806452
 40
0.1612903225806452
 40
0.1612903225806452
 40
0.1935483870967742
 40
0.1935483870967742
 40
0.1935483870967742
 40
0.1935483870967742
 40
0.2258064516129032
 40
0.2258064516129032
 40
0.2258064516129032
 40
0.2258064516129032
 40
0.2580645161290323
 40
0.2580645161290323
 40
0.2580645161290323
 40
0.2580645161290323
 40
0.2903225806451613
 40
0.2903225806451613
 40
0.2903225806451613
 40
0.2903225806451613
 40
0.3225806451612903
 40
0.3225806451612903
 40
0.3225806451612903
 40
0.3225806451612903
 40
0.3548387096774194
 40
0.3548387096774194
 40
0.3548387096774194
 40
0.3548387096774194
 40
0.3870967741935484
 40
0.3870967741935484
 40
0.3870967741935484
 40
0.3870967741935484
 40
0.4193548387096774
 40
0.4193548387096774
 40
0.4193548387096774
 40
0.4193548387096774
 40
0.4516129032258064
 40
0.4516129032258064
 40
0.4516129032258064
 40
0.4516129032258064
 40
0.4838709677419355
 40
0.4838709677419355
 40
0.4838709677419355
 40
0.4838709677419355
 40
0.5161290322580645
 40
0.5161290322580645
 40
0.5161290322580645
 40
0.5161290322580645
 40
0.5483870967741935
 40
0.5483870967741935
 40
0.5483870967741935
 40
0.5483870967741935
 40
0.5806451612903226
 40
0.5806451612903226
 40
0.5806451612903226
 40
0.5806451612903226
 40
0.6129032258064516
 40
0.6129032258064516
 40
0.6129032258064516
 40
0.6129032258064516
 40
0.6451612903225806
 40
0.6451612903225806
 40
0.6451612903225806
 40
0.6451612903225806
 40
0.6774193548387096
 40
0.6774193548387096
 40
0.6774193548387096
 40
0.6774193548387096
 40
0.7096774193548387
 40
0.7096774193548387
 40
0.7096774193548387
 40
0.7096774193548387
 40
0.7419354838709677
 40
0.7419354838709677
 40
0.7419354838709677
 40
0.7419354838709677
 40
0.7741935483870968
 40
0.7741935483870968
 40
0.7741935483870968
 40
0.7741935483870968
 40
0.8064516129032258
 40
0.8064516129032258
 40
0.8064516129032258
 40
0.8064516129032258
 40
0.8387096774193549
 40
0.8387096774193549
 40
0.8387096774193549
 40
0.8387096774193549
 40
0.8709677419354839
 40
0.8709677419354839
 40
0.8709677419354839
 40
0.8709677419354839
 40
0.9032258064516129
 40
0.9032258064516129
 40
0.9032258064516129
 40
0.9032258064516129
 40
0.9354838709677419
 40
0.9354838709677419
 40
0.9354838709677419
 40
0.9354838709677419
 40
1.0
 40
1.0
 40
1.0
 40
1.0
 10
11.6272
 20
1.8554
 30
0.0
 10
11.6291
 20
1.8962
 30
0.0
 10
11.6291
 20
1.9434
 30
0.0
 10
11.6259
 20
1.9964
 30
0.0
 10
11.6259
 20
1.9964
 30
0.0
 10
11.6233
 20
2.0495
 30
0.0
 10
11.6175
 20
2.1077
 30
0.0
 10
11.6078
 20
2.1697
 30
0.0
 10
11.6078
 20
2.1697
 30
0.0
 10
11.5975
 20
2.2609
 30
0.0
 10
11.5774
 20
2.3502
 30
0.0
 10
11.5489
 20
2.4375
 30
0.0
 10
11.5489
 20
2.4375
 30
0.0
 10
11.5198
 20
2.5248
 30
0.0
 10
11.4817
 20
2.6082
 30
0.0
 10
11.4351
 20
2.6871
 30
0.0
 10
11.4351
 20
2.6871
 30
0.0
 10
11.3886
 20
2.7661
 30
0.0
 10
11.3336
 20
2.8378
 30
0.0
 10
11.2702
 20
2.9032
 30
0.0
 10
11.2702
 20
2.9032
 30
0.0
 10
11.19
 20
2.9866
 30
0.0
 10
11.0936
 20
3.061
 30
0.0
 10
10.9798
 20
3.1263
 30
0.0
 10
10.9798
 20
3.1263
 30
0.0
 10
10.8666
 20
3.1916
 30
0.0
 10
10.736
 20
3.2427
 30
0.0
 10
10.5879
 20
3.2802
 30
0.0
 10
10.5879
 20
3.2802
 30
0.0
 10
10.4398
 20
3.3177
 30
0.0
 10
10.2742
 20
3.3371
 30
0.0
 10
10.0905
 20
3.3378
 30
0.0
 10
10.0905
 20
3.3378
 30
0.0
 10
9.9269
 20
3.3378
 30
0.0
 10
9.7801
 20
3.3184
 30
0.0
 10
9.6488
 20
3.2802
 30
0.0
 10
9.6488
 20
3.2802
 30
0.0
 10
9.5175
 20
3.2421
 30
0.0
 10
9.4056
 20
3.1864
 30
0.0
 10
9.3125
 20
3.114
 30
0.0
 10
9.3125
 20
3.114
 30
0.0
 10
9.2194
 20
3.0416
 30
0.0
 10
9.1482
 20
2.9543
 30
0.0
 10
9.0984
 20
2.8514
 30
0.0
 10
9.0984
 20
2.8514
 30
0.0
 10
9.0486
 20
2.7486
 30
0.0
 10
9.024
 20
2.6328
 30
0.0
 10
9.0234
 20
2.5035
 30
0.0
 10
9.0234
 20
2.5035
 30
0.0
 10
9.024
 20
2.3741
 30
0.0
 10
9.0486
 20
2.2564
 30
0.0
 10
9.0965
 20
2.151
 30
0.0
 10
9.0965
 20
2.151
 30
0.0
 10
9.1437
 20
2.0456
 30
0.0
 10
9.2097
 20
1.955
 30
0.0
 10
9.2924
 20
1.8794
 30
0.0
 10
9.2924
 20
1.8794
 30
0.0
 10
9.3759
 20
1.803
 30
0.0
 10
9.4709
 20
1.7448
 30
0.0
 10
9.5783
 20
1.7041
 30
0.0
 10
9.5783
 20
1.7041
 30
0.0
 10
9.6857
 20
1.6633
 30
0.0
 10
9.7995
 20
1.6426
 30
0.0
 10
9.9198
 20
1.642
 30
0.0
 10
9.9198
 20
1.642
 30
0.0
 10
10.0278
 20
1.6426
 30
0.0
 10
10.1287
 20
1.6601
 30
0.0
 10
10.2218
 20
1.6944
 30
0.0
 10
10.2218
 20
1.6944
 30
0.0
 10
10.3156
 20
1.7293
 30
0.0
 10
10.3971
 20
1.7791
 30
0.0
 10
10.4676
 20
1.8438
 30
0.0
 10
10.4676
 20
1.8438
 30
0.0
 10
10.5374
 20
1.9085
 30
0.0
 10
10.5924
 20
1.9867
 30
0.0
 10
10.6319
 20
2.0773
 30
0.0
 10
10.6319
 20
2.0773
 30
0.0
 10
10.6713
 20
2.1685
 30
0.0
 10
10.6914
 20
2.27
 30
0.0
 10
10.692
 20
2.3832
 30
0.0
 10
10.692
 20
2.3832
 30
0.0
 10
10.6914
 20
2.5112
 30
0.0
 10
10.6681
 20
2.6257
 30
0.0
 10
10.6222
 20
2.726
 30
0.0
 10
10.6222
 20
2.726
 30
0.0
 10
10.5762
 20
2.8256
 30
0.0
 10
10.5103
 20
2.9109
 30
0.0
 10
10.4242
 20
2.9808
 30
0.0
 10
10.4242
 20
2.9808
 30
0.0
 10
10.4242
 20
2.9808
 30
0.0
 10
10.4242
 20
2.9924
 30
0.0
 10
10.4242
 20
2.9924
 30
0.0
 10
10.4242
 20
2.9924
 30
0.0
 10
10.5717
 20
2.9685
 30
0.0
 10
10.7011
 20
2.9277
 30
0.0
 10
10.8117
 20
2.8708
 30
0.0
 10
10.8117
 20
2.8708
 30
0.0
 10
10.9229
 20
2.8133
 30
0.0
 10
11.016
 20
2.7428
 30
0.0
 10
11.0917
 20
2.6587
 30
0.0
 10
11.0917
 20
2.6587
 30
0.0
 10
11.1615
 20
2.5863
 30
0.0
 10
11.2159
 20
2.5054
 30
0.0
 10
11.256
 20
2.4155
 30
0.0
 10
11.256
 20
2.4155
 30
0.0
 10
11.2961
 20
2.3256
 30
0.0
 10
11.3226
 20
2.2305
 30
0.0
 10
11.3362
 20
2.1309
 30
0.0
 10
11.3362
 20
2.1309
 30
0.0
 10
11.342
 20
2.0734
 30
0.0
 10
11.3465
 20
2.0216
 30
0.0
 10
11.3491
 20
1.977
 30
0.0
 10
11.3491
 20
1.977
 30
0.0
 10
11.3517
 20
1.9324
 30
0.0
 10
11.3517
 20
1.8916
 30
0.0
 10
11.3478
 20
1.8554
 30
0.0
 10
11.3478
 20
1.8554
 30
0.0
 10
11.3478
 20
1.8554
 30
0.0
 10
11.6272
 20
1.8554
 30
0.0
 10
11.6272
 20
1.8554
 30
0.0
  0
SPLINE
  5
55
330
1F
100
AcDbEntity
  8
Ilustrace
 62
   250
100
AcDbSpline
210
0.0
220
0.0
230
1.0
 70
    11
 71
     3
 72
    64
 73
    60
 74
     0
 42
0.0000000001
 43
0.0000000001
 40
0.0
 40
0.0
 40
0.0
 40
0.0
 40
0.0625
 40
0.0625
 40
0.0625
 40
0.0625
 40
0.125
 40
0.125
 40
0.125
 40
0.125
 40
0.1875
 40
0.1875
 40
0.1875
 40
0.1875
 40
0.25
 40
0.25
 40
0.25
 40
0.25
 40
0.3125
 40
0.3125
 40
0.3125
 40
0.3125
 40
0.375
 40
0.375
 40
0.375
 40
0.375
 40
0.4375
 40
0.4375
 40
0.4375
 40
0.4375
 40
0.5
 40
0.5
 40
0.5
 40
0.5
 40
0.5625
 40
0.5625
 40
0.5625
 40
0.5625
 40
0.625
 40
0.625
 40
0.625
 40
0.625
 40
0.6875
 40
0.6875
 40
0.6875
 40
0.6875
 40
0.75
 40
0.75
 40
0.75
 40
0.75
 40
0.8125
 40
0.8125
 40
0.8125
 40
0.8125
 40
0.875
 40
0.875
 40
0.875
 40
0.875
 40
1.0
 40
1.0
 40
1.0
 40
1.0
 10
9.2834
 20
2.4724
 30
0.0
 10
9.284
 20
2.5623
 30
0.0
 10
9.3034
 20
2.6406
 30
0.0
 10
9.3416
 20
2.7059
 30
0.0
 10
9.3416
 20
2.7059
 30
0.0
 10
9.3797
 20
2.7712
 30
0.0
 10
9.4334
 20
2.8256
 30
0.0
 10
9.502
 20
2.8676
 30
0.0
 10
9.502
 20
2.8676
 30
0.0
 10
9.5705
 20
2.9103
 30
0.0
 10
9.6514
 20
2.9413
 30
0.0
 10
9.7432
 20
2.962
 30
0.0
 10
9.7432
 20
2.962
 30
0.0
 10
9.8357
 20
2.9827
 30
0.0
 10
9.936
 20
2.9924
 30
0.0
 10
10.044
 20
2.9924
 30
0.0
 10
10.044
 20
2.9924
 30
0.0
 10
10.0724
 20
2.9924
 30
0.0
 10
10.097
 20
2.9898
 30
0.0
 10
10.1164
 20
2.984
 30
0.0
 10
10.1164
 20
2.984
 30
0.0
 10
10.1364
 20
2.9788
 30
0.0
 10
10.1552
 20
2.9711
 30
0.0
 10
10.172
 20
2.9614
 30
0.0
 10
10.172
 20
2.9614
 30
0.0
 10
10.2231
 20
2.9316
 30
0.0
 10
10.2684
 20
2.8922
 30
0.0
 10
10.3078
 20
2.8437
 30
0.0
 10
10.3078
 20
2.8437
 30
0.0
 10
10.3473
 20
2.7958
 30
0.0
 10
10.3783
 20
2.7395
 30
0.0
 10
10.401
 20
2.6755
 30
0.0
 10
10.401
 20
2.6755
 30
0.0
 10
10.4236
 20
2.6115
 30
0.0
 10
10.4352
 20
2.541
 30
0.0
 10
10.4359
 20
2.4647
 30
0.0
 10
10.4359
 20
2.4647
 30
0.0
 10
10.4352
 20
2.3657
 30
0.0
 10
10.412
 20
2.2803
 30
0.0
 10
10.3667
 20
2.2079
 30
0.0
 10
10.3667
 20
2.2079
 30
0.0
 10
10.3214
 20
2.1355
 30
0.0
 10
10.2593
 20
2.0792
 30
0.0
 10
10.1791
 20
2.0398
 30
0.0
 10
10.1791
 20
2.0398
 30
0.0
 10
10.0989
 20
2.0003
 30
0.0
 10
10.0058
 20
1.9803
 30
0.0
 10
9.9004
 20
1.9796
 30
0.0
 10
9.9004
 20
1.9796
 30
0.0
 10
9.7788
 20
1.9803
 30
0.0
 10
9.6721
 20
2.0016
 30
0.0
 10
9.5802
 20
2.0436
 30
0.0
 10
9.5802
 20
2.0436
 30
0.0
 10
9.4878
 20
2.0857
 30
0.0
 10
9.4153
 20
2.1432
 30
0.0
 10
9.3629
 20
2.217
 30
0.0
 10
9.3629
 20
2.217
 30
0.0
 10
9.3105
 20
2.2907
 30
0.0
 10
9.284
 20
2.3761
 30
0.0
 10
9.2834
 20
2.4724
 30
0.0
  0
SPLINE
  5
56
330
1F
100
AcDbEntity
  8
Ilustrace
 62
   250
100
AcDbSpline
210
0.0
220
0.0
230
1.0
 70
    11
 71
     3
 72
   132
 73
   128
 74
     0
 42
0.0000000001
 43
0.0000000001
 40
0.0
 40
0.0
 40
0.0
 40
0.0
 40
0.0303030303030303
 40
0.0303030303030303
 40
0.0303030303030303
 40
0.0303030303030303
 40
0.0606060606060606
 40
0.0606060606060606
 40
0.0606060606060606
 40
0.0606060606060606
 40
0.0909090909090909
 40
0.0909090909090909
 40
0.0909090909090909
 40
0.0909090909090909
 40
0.1212121212121212
 40
0.1212121212121212
 40
0.1212121212121212
 40
0.1212121212121212
 40
0.1515151515151515
 40
0.1515151515151515
 40
0.1515151515151515
 40
0.1515151515151515
 40
0.1818181818181818
 40
0.1818181818181818
 40
0.1818181818181818
 40
0.1818181818181818
 40
0.2121212121212121
 40
0.2121212121212121
 40
0.2121212121212121
 40
0.2121212121212121
 40
0.2424242424242424
 40
0.2424242424242424
 40
0.2424242424242424
 40
0.2424242424242424
 40
0.2727272727272727
 40
0.2727272727272727
 40
0.2727272727272727
 40
0.2727272727272727
 40
0.303030303030303
 40
0.303030303030303
 40
0.303030303030303
 40
0.303030303030303
 40
0.3333333333333333
 40
0.3333333333333333
 40
0.3333333333333333
 40
0.3333333333333333
 40
0.3636363636363636
 40
0.3636363636363636
 40
0.3636363636363636
 40
0.3636363636363636
 40
0.3939393939393939
 40
0.3939393939393939
 40
0.3939393939393939
 40
0.3939393939393939
 40
0.4242424242424243
 40
0.4242424242424243
 40
0.4242424242424243
 40
0.4242424242424243
 40
0.4545454545454545
 40
0.4545454545454545
 40
0.4545454545454545
 40
0.4545454545454545
 40
0.4848484848484849
 40
0.4848484848484849
 40
0.4848484848484849
 40
0.4848484848484849
 40
0.5151515151515151
 40
0.5151515151515151
 40
0.5151515151515151
 40
0.5151515151515151
 40
0.5454545454545454
 40
0.5454545454545454
 40
0.5454545454545454
 40
0.5454545454545454
 40
0.5757575757575758
 40
0.5757575757575758
 40
0.5757575757575758
 40
0.5757575757575758
 40
0.6060606060606061
 40
0.6060606060606061
 40
0.6060606060606061
 40
0.6060606060606061
 40
0.6363636363636364
 40
0.6363636363636364
 40
0.6363636363636364
 40
0.6363636363636364
 40
0.6666666666666666
 40
0.6666666666666666
 40
0.6666666666666666
 40
0.6666666666666666
 40
0.696969696969697
 40
0.696969696969697
 40
0.696969696969697
 40
0.696969696969697
 40
0.7272727272727273
 40
0.7272727272727273
 40
0.7272727272727273
 40
0.7272727272727273
 40
0.7575757575757576
 40
0.7575757575757576
 40
0.7575757575757576
 40
0.7575757575757576
 40
0.7878787878787878
 40
0.7878787878787878
 40
0.7878787878787878
 40
0.7878787878787878
 40
0.8181818181818182
 40
0.8181818181818182
 40
0.8181818181818182
 40
0.8181818181818182
 40
0.8484848484848485
 40
0.8484848484848485
 40
0.8484848484848485
 40
0.8484848484848485
 40
0.8787878787878788
 40
0.8787878787878788
 40
0.8787878787878788
 40
0.8787878787878788
 40
0.9090909090909091
 40
0.9090909090909091
 40
0.9090909090909091
 40
0.9090909090909091
 40
0.9393939393939394
 40
0.9393939393939394
 40
0.9393939393939394
 40
0.9393939393939394
 40
1.0
 40
1.0
 40
1.0
 40
1.0
 10
9.0661
 20
5.1539
 30
0.0
 10
9.0661
 20
5.1539
 30
0.0
 10
9.0661
 20
3.947
 30
0.0
 10
9.0661
 20
3.947
 30
0.0
 10
9.0661
 20
3.947
 30
0.0
 10
9.0661
 20
3.947
 30
0.0
 10
10.2768
 20
3.784
 30
0.0
 10
10.2768
 20
3.784
 30
0.0
 10
10.2768
 20
3.784
 30
0.0
 10
10.2703
 20
3.8306
 30
0.0
 10
10.2651
 20
3.8823
 30
0.0
 10
10.2606
 20
3.9406
 30
0.0
 10
10.2606
 20
3.9406
 30
0.0
 10
10.2561
 20
3.9981
 30
0.0
 10
10.2535
 20
4.0641
 30
0.0
 10
10.2535
 20
4.1372
 30
0.0
 10
10.2535
 20
4.1372
 30
0.0
 10
10.2542
 20
4.304
 30
0.0
 10
10.2781
 20
4.4405
 30
0.0
 10
10.3247
 20
4.5466
 30
0.0
 10
10.3247
 20
4.5466
 30
0.0
 10
10.3719
 20
4.6533
 30
0.0
 10
10.4365
 20
4.7322
 30
0.0
 10
10.5193
 20
4.7833
 30
0.0
 10
10.5193
 20
4.7833
 30
0.0
 10
10.6028
 20
4.8344
 30
0.0
 10
10.6991
 20
4.8596
 30
0.0
 10
10.8084
 20
4.8589
 30
0.0
 10
10.8084
 20
4.8589
 30
0.0
 10
10.8931
 20
4.8596
 30
0.0
 10
10.9688
 20
4.8441
 30
0.0
 10
11.0361
 20
4.8124
 30
0.0
 10
11.0361
 20
4.8124
 30
0.0
 10
11.104
 20
4.7813
 30
0.0
 10
11.1609
 20
4.738
 30
0.0
 10
11.2088
 20
4.683
 30
0.0
 10
11.2088
 20
4.683
 30
0.0
 10
11.256
 20
4.628
 30
0.0
 10
11.2922
 20
4.5647
 30
0.0
 10
11.3174
 20
4.4929
 30
0.0
 10
11.3174
 20
4.4929
 30
0.0
 10
11.3426
 20
4.4211
 30
0.0
 10
11.3556
 20
4.3454
 30
0.0
 10
11.3556
 20
4.2652
 30
0.0
 10
11.3556
 20
4.2652
 30
0.0
 10
11.3549
 20
4.187
 30
0.0
 10
11.3478
 20
4.1132
 30
0.0
 10
11.3329
 20
4.044
 30
0.0
 10
11.3329
 20
4.044
 30
0.0
 10
11.3187
 20
3.9748
 30
0.0
 10
11.3012
 20
3.9127
 30
0.0
 10
11.2799
 20
3.8578
 30
0.0
 10
11.2799
 20
3.8578
 30
0.0
 10
11.2586
 20
3.8028
 30
0.0
 10
11.2372
 20
3.7575
 30
0.0
 10
11.2159
 20
3.722
 30
0.0
 10
11.2159
 20
3.722
 30
0.0
 10
11.2159
 20
3.722
 30
0.0
 10
11.4759
 20
3.6366
 30
0.0
 10
11.4759
 20
3.6366
 30
0.0
 10
11.4759
 20
3.6366
 30
0.0
 10
11.5024
 20
3.6786
 30
0.0
 10
11.527
 20
3.731
 30
0.0
 10
11.5509
 20
3.7937
 30
0.0
 10
11.5509
 20
3.7937
 30
0.0
 10
11.5742
 20
3.8565
 30
0.0
 10
11.5929
 20
3.9276
 30
0.0
 10
11.6078
 20
4.0072
 30
0.0
 10
11.6078
 20
4.0072
 30
0.0
 10
11.6227
 20
4.0874
 30
0.0
 10
11.6304
 20
4.1734
 30
0.0
 10
11.6311
 20
4.2652
 30
0.0
 10
11.6311
 20
4.2652
 30
0.0
 10
11.6304
 20
4.403
 30
0.0
 10
11.6084
 20
4.5284
 30
0.0
 10
11.5658
 20
4.6429
 30
0.0
 10
11.5658
 20
4.6429
 30
0.0
 10
11.5231
 20
4.7574
 30
0.0
 10
11.4629
 20
4.8564
 30
0.0
 10
11.3853
 20
4.9398
 30
0.0
 10
11.3853
 20
4.9398
 30
0.0
 10
11.3077
 20
5.0239
 30
0.0
 10
11.2165
 20
5.0885
 30
0.0
 10
11.1124
 20
5.1345
 30
0.0
 10
11.1124
 20
5.1345
 30
0.0
 10
11.0076
 20
5.1804
 30
0.0
 10
10.8931
 20
5.2037
 30
0.0
 10
10.7696
 20
5.2043
 30
0.0
 10
10.7696
 20
5.2043
 30
0.0
 10
10.6648
 20
5.2037
 30
0.0
 10
10.5704
 20
5.1868
 30
0.0
 10
10.487
 20
5.1545
 30
0.0
 10
10.487
 20
5.1545
 30
0.0
 10
10.4036
 20
5.1222
 30
0.0
 10
10.3318
 20
5.0795
 30
0.0
 10
10.271
 20
5.0252
 30
0.0
 10
10.271
 20
5.0252
 30
0.0
 10
10.2102
 20
4.9708
 30
0.0
 10
10.1617
 20
4.91
 30
0.0
 10
10.1255
 20
4.8434
 30
0.0
 10
10.1255
 20
4.8434
 30
0.0
 10
10.0776
 20
4.7652
 30
0.0
 10
10.0427
 20
4.6804
 30
0.0
 10
10.0213
 20
4.588
 30
0.0
 10
10.0213
 20
4.588
 30
0.0
 10
10.0
 20
4.4955
 30
0.0
 10
9.989
 20
4.3997
 30
0.0
 10
9.9896
 20
4.3001
 30
0.0
 10
9.9896
 20
4.3001
 30
0.0
 10
9.9896
 20
4.2549
 30
0.0
 10
9.9903
 20
4.2161
 30
0.0
 10
9.9922
 20
4.1844
 30
0.0
 10
9.9922
 20
4.1844
 30
0.0
 10
9.9942
 20
4.1527
 30
0.0
 10
9.9974
 20
4.1229
 30
0.0
 10
10.0013
 20
4.0945
 30
0.0
 10
10.0013
 20
4.0945
 30
0.0
 10
10.0013
 20
4.0945
 30
0.0
 10
9.3532
 20
4.1915
 30
0.0
 10
9.3532
 20
4.1915
 30
0.0
 10
9.3532
 20
4.1915
 30
0.0
 10
9.3532
 20
4.1915
 30
0.0
 10
9.3532
 20
5.1539
 30
0.0
 10
9.3532
 20
5.1539
 30
0.0
 10
9.3532
 20
5.1539
 30
0.0
 10
9.3532
 20
5.1539
 30
0.0
 10
9.0661
 20
5.1539
 30
0.0
 10
9.0661
 20
5.1539
 30
0.0
  0
SPLINE
  5
57
330
1F
100
AcDbEntity
  8
Ilustrace
 62
   250
370
    25
100
AcDbSpline
210
0.0
220
0.0
230
1.0
 70
    24
 71
     3
 72
     8
 73
     4
 74
     0
 42
0.0000000001
 43
0.0000000001
 40
0.0
 40
0.0
 40
0.0
 40
0.0
 40
1.0
 40
1.0
 40
1.0
 40
1.0
 10
12.8138
 20
10.9482
 30
0.0
 10
12.8138
 20
10.9482
 30
0.0
 10
1.4404
 20
10.9482
 30
0.0
 10
1.4404
 20
10.9482
 30
0.0
  0
SPLINE
  5
58
330
1F
100
AcDbEntity
  8
Ilustrace
  6
New Line2
 62
   250
370
    20
100
AcDbSpline
210
0.0
220
0.0
230
1.0
 70
    24
 71
     3
 72
     8
 73
     4
 74
     0
 42
0.0000000001
 43
0.0000000001
 40
0.0
 40
0.0
 40
0.0
 40
0.0
 40
1.0
 40
1.0
 40
1.0
 40
1.0
 10
14.9459
 20
2.4003
 30
0.0
 10
14.9459
 20
2.4003
 30
0.0
 10
14.9459
 20
6.2038
 30
0.0
 10
14.9459
 20
6.2038
 30
0.0
  0
SPLINE
  5
5A
330
1F
100
AcDbEntity
  8
Ilustrace
  6
New Line3
 62
   250
370
    20
100
AcDbSpline
210
0.0
220
0.0
230
1.0
 70
    24
 71
     3
 72
     8
 73
     4
 74
     0
 42
0.0000000001
 43
0.0000000001
 40
0.0
 40
0.0
 40
0.0
 40
0.0
 40
1.0
 40
1.0
 40
1.0
 40
1.0
 10
23.3131
 20
2.3342
 30
0.0
 10
23.3131
 20
2.3342
 30
0.0
 10
23.3131
 20
6.1477
 30
0.0
 10
23.3131
 20
6.1477
 30
0.0
  0
SPLINE
  5
5C
330
1F
100
AcDbEntity
  8
Ilustrace
  6
New Line4
 62
   250
370
    15
100
AcDbSpline
210
0.0
220
0.0
230
1.0
 70
    24
 71
     3
 72
     8
 73
     4
 74
     0
 42
0.0000000001
 43
0.0000000001
 40
0.0
 40
0.0
 40
0.0
 40
0.0
 40
1.0
 40
1.0
 40
1.0
 40
1.0
 10
-25.2222
 20
4.729
 30
0.0
 10
-25.2222
 20
4.729
 30
0.0
 10
-22.9154
 20
4.9308
 30
0.0
 10
-22.9154
 20
4.9308
 30
0.0
  0
SPLINE
  5
5E
330
1F
100
AcDbEntity
  8
Ilustrace
  6
New Line5
 62
   250
370
    15
100
AcDbSpline
210
0.0
220
0.0
230
1.0
 70
    24
 71
     3
 72
     8
 73
     4
 74
     0
 42
0.0000000001
 43
0.0000000001
 40
0.0
 40
0.0
 40
0.0
 40
0.0
 40
1.0
 40
1.0
 40
1.0
 40
1.0
 10
-18.3977
 20
5.4017
 30
0.0
 10
-18.3977
 20
5.4017
 30
0.0
 10
1.0435
 20
7.1026
 30
0.0
 10
1.0435
 20
7.1026
 30
0.0
  0
SPLINE
  5
60
330
1F
100
AcDbEntity
  8
Ilustrace
  6
New Line6
 62
   250
370
    18
100
AcDbSpline
210
0.0
220
0.0
230
1.0
 70
    24
 71
     3
 72
     8
 73
     4
 74
     0
 42
0.0000000001
 43
0.0000000001
 40
0.0
 40
0.0
 40
0.0
 40
0.0
 40
1.0
 40
1.0
 40
1.0
 40
1.0
 10
0.4929
 20
-4.4581
 30
0.0
 10
0.4929
 20
-4.4581
 30
0.0
 10
0.4929
 20
7.8839
 30
0.0
 10
0.4929
 20
7.8839
 30
0.0
  0
SPLINE
  5
62
330
1F
100
AcDbEntity
  8
Ilustrace
  6
New Line7
 62
   250
370
    20
100
AcDbSpline
210
0.0
220
0.0
230
1.0
 70
    24
 71
     3
 72
     8
 73
     4
 74
     0
 42
0.0000000001
 43
0.0000000001
 40
0.0
 40
0.0
 40
0.0
 40
0.0
 40
1.0
 40
1.0
 40
1.0
 40
1.0
 10
19.0768
 20
-4.5549
 30
0.0
 10
19.0768
 20
-4.5549
 30
0.0
 10
19.0768
 20
2.8634
 30
0.0
 10
19.0768
 20
2.8634
 30
0.0
  0
SPLINE
  5
64
330
1F
100
AcDbEntity
  8
Ilustrace
 62
   250
370
    18
100
AcDbSpline
210
0.0
220
0.0
230
1.0
 70
    24
 71
     3
 72
     8
 73
     4
 74
     0
 42
0.0000000001
 43
0.0000000001
 40
0.0
 40
0.0
 40
0.0
 40
0.0
 40
1.0
 40
1.0
 40
1.0
 40
1.0
 10
0.5438
 20
-11.046
 30
0.0
 10
0.5438
 20
-11.046
 30
0.0
 10
0.5438
 20
-4.917
 30
0.0
 10
0.5438
 20
-4.917
 30
0.0
  0
SPLINE
  5
65
330
1F
100
AcDbEntity
  8
Ilustrace
 62
   250
370
    18
100
AcDbSpline
210
0.0
220
0.0
230
1.0
 70
    24
 71
     3
 72
     8
 73
     4
 74
     0
 42
0.0000000001
 43
0.0000000001
 40
0.0
 40
0.0
 40
0.0
 40
0.0
 40
1.0
 40
1.0
 40
1.0
 40
1.0
 10
19.0796
 20
-11.046
 30
0.0
 10
19.0796
 20
-11.046
 30
0.0
 10
19.0796
 20
-4.7186
 30
0.0
 10
19.0796
 20
-4.7186
 30
0.0
  0
SPLINE
  5
66
330
1F
100
AcDbEntity
  8
Ilustrace
 62
   250
370
    15
100
AcDbSpline
210
0.0
220
0.0
230
1.0
 70
    24
 71
     3
 72
     8
 73
     4
 74
     0
 42
0.0000000001
 43
0.0000000001
 40
0.0
 40
0.0
 40
0.0
 40
0.0
 40
1.0
 40
1.0
 40
1.0
 40
1.0
 10
18.6025
 20
-10.567
 30
0.0
 10
18.6025
 20
-10.567
 30
0.0
 10
1.0429
 20
-10.567
 30
0.0
 10
1.0429
 20
-10.567
 30
0.0
  0
SPLINE
  5
67
330
1F
100
AcDbEntity
  8
Ilustrace
 62
   250
100
AcDbSpline
210
0.0
220
0.0
230
1.0
 70
    11
 71
     3
 72
   124
 73
   120
 74
     0
 42
0.0000000001
 43
0.0000000001
 40
0.0
 40
0.0
 40
0.0
 40
0.0
 40
0.032258064516129
 40
0.032258064516129
 40
0.032258064516129
 40
0.032258064516129
 40
0.0645161290322581
 40
0.0645161290322581
 40
0.0645161290322581
 40
0.0645161290322581
 40
0.0967741935483871
 40
0.0967741935483871
 40
0.0967741935483871
 40
0.0967741935483871
 40
0.1290322580645161
 40
0.1290322580645161
 40
0.1290322580645161
 40
0.1290322580645161
 40
0.1612903225806452
 40
0.1612903225806452
 40
0.1612903225806452
 40
0.1612903225806452
 40
0.1935483870967742
 40
0.1935483870967742
 40
0.1935483870967742
 40
0.1935483870967742
 40
0.2258064516129032
 40
0.2258064516129032
 40
0.2258064516129032
 40
0.2258064516129032
 40
0.2580645161290323
 40
0.2580645161290323
 40
0.2580645161290323
 40
0.2580645161290323
 40
0.2903225806451613
 40
0.2903225806451613
 40
0.2903225806451613
 40
0.2903225806451613
 40
0.3225806451612903
 40
0.3225806451612903
 40
0.3225806451612903
 40
0.3225806451612903
 40
0.3548387096774194
 40
0.3548387096774194
 40
0.3548387096774194
 40
0.3548387096774194
 40
0.3870967741935484
 40
0.3870967741935484
 40
0.3870967741935484
 40
0.3870967741935484
 40
0.4193548387096774
 40
0.4193548387096774
 40
0.4193548387096774
 40
0.4193548387096774
 40
0.4516129032258064
 40
0.4516129032258064
 40
0.4516129032258064
 40
0.4516129032258064
 40
0.4838709677419355
 40
0.4838709677419355
 40
0.4838709677419355
 40
0.4838709677419355
 40
0.5161290322580645
 40
0.5161290322580645
 40
0.5161290322580645
 40
0.5161290322580645
 40
0.5483870967741935
 40
0.5483870967741935
 40
0.5483870967741935
 40
0.5483870967741935
 40
0.5806451612903226
 40
0.5806451612903226
 40
0.5806451612903226
 40
0.5806451612903226
 40
0.6129032258064516
 40
0.6129032258064516
 40
0.6129032258064516
 40
0.6129032258064516
 40
0.6451612903225806
 40
0.6451612903225806
 40
0.6451612903225806
 40
0.6451612903225806
 40
0.6774193548387096
 40
0.6774193548387096
 40
0.6774193548387096
 40
0.6774193548387096
 40
0.7096774193548387
 40
0.7096774193548387
 40
0.7096774193548387
 40
0.7096774193548387
 40
0.7419354838709677
 40
0.7419354838709677
 40
0.7419354838709677
 40
0.7419354838709677
 40
0.7741935483870968
 40
0.7741935483870968
 40
0.7741935483870968
 40
0.7741935483870968
 40
0.8064516129032258
 40
0.8064516129032258
 40
0.8064516129032258
 40
0.8064516129032258
 40
0.8387096774193549
 40
0.8387096774193549
 40
0.8387096774193549
 40
0.8387096774193549
 40
0.8709677419354839
 40
0.8709677419354839
 40
0.8709677419354839
 40
0.8709677419354839
 40
0.9032258064516129
 40
0.9032258064516129
 40
0.9032258064516129
 40
0.9032258064516129
 40
0.9354838709677419
 40
0.9354838709677419
 40
0.9354838709677419
 40
0.9354838709677419
 40
1.0
 40
1.0
 40
1.0
 40
1.0
 10
7.3712
 20
-9.9216
 30
0.0
 10
7.412
 20
-9.9235
 30
0.0
 10
7.4592
 20
-9.9235
 30
0.0
 10
7.5122
 20
-9.9203
 30
0.0
 10
7.5122
 20
-9.9203
 30
0.0
 10
7.5653
 20
-9.9177
 30
0.0
 10
7.6235
 20
-9.9118
 30
0.0
 10
7.6855
 20
-9.9022
 30
0.0
 10
7.6855
 20
-9.9022
 30
0.0
 10
7.7767
 20
-9.8918
 30
0.0
 10
7.866
 20
-9.8718
 30
0.0
 10
7.9533
 20
-9.8433
 30
0.0
 10
7.9533
 20
-9.8433
 30
0.0
 10
8.0406
 20
-9.8142
 30
0.0
 10
8.1241
 20
-9.776
 30
0.0
 10
8.203
 20
-9.7295
 30
0.0
 10
8.203
 20
-9.7295
 30
0.0
 10
8.2819
 20
-9.6829
 30
0.0
 10
8.3537
 20
-9.6279
 30
0.0
 10
8.419
 20
-9.5645
 30
0.0
 10
8.419
 20
-9.5645
 30
0.0
 10
8.5024
 20
-9.4843
 30
0.0
 10
8.5768
 20
-9.388
 30
0.0
 10
8.6421
 20
-9.2741
 30
0.0
 10
8.6421
 20
-9.2741
 30
0.0
 10
8.7074
 20
-9.161
 30
0.0
 10
8.7585
 20
-9.0303
 30
0.0
 10
8.796
 20
-8.8822
 30
0.0
 10
8.796
 20
-8.8822
 30
0.0
 10
8.8336
 20
-8.7341
 30
0.0
 10
8.853
 20
-8.5685
 30
0.0
 10
8.8536
 20
-8.3848
 30
0.0
 10
8.8536
 20
-8.3848
 30
0.0
 10
8.8536
 20
-8.2212
 30
0.0
 10
8.8342
 20
-8.0744
 30
0.0
 10
8.796
 20
-7.9431
 30
0.0
 10
8.796
 20
-7.9431
 30
0.0
 10
8.7579
 20
-7.8118
 30
0.0
 10
8.7023
 20
-7.6999
 30
0.0
 10
8.6298
 20
-7.6068
 30
0.0
 10
8.6298
 20
-7.6068
 30
0.0
 10
8.5574
 20
-7.5137
 30
0.0
 10
8.4701
 20
-7.4425
 30
0.0
 10
8.3672
 20
-7.3927
 30
0.0
 10
8.3672
 20
-7.3927
 30
0.0
 10
8.2644
 20
-7.3429
 30
0.0
 10
8.1486
 20
-7.3183
 30
0.0
 10
8.0193
 20
-7.3177
 30
0.0
 10
8.0193
 20
-7.3177
 30
0.0
 10
7.8899
 20
-7.3183
 30
0.0
 10
7.7722
 20
-7.3429
 30
0.0
 10
7.6668
 20
-7.3908
 30
0.0
 10
7.6668
 20
-7.3908
 30
0.0
 10
7.5614
 20
-7.438
 30
0.0
 10
7.4708
 20
-7.5039
 30
0.0
 10
7.3952
 20
-7.5867
 30
0.0
 10
7.3952
 20
-7.5867
 30
0.0
 10
7.3188
 20
-7.6702
 30
0.0
 10
7.2606
 20
-7.7652
 30
0.0
 10
7.2199
 20
-7.8726
 30
0.0
 10
7.2199
 20
-7.8726
 30
0.0
 10
7.1791
 20
-7.98
 30
0.0
 10
7.1584
 20
-8.0938
 30
0.0
 10
7.1578
 20
-8.2141
 30
0.0
 10
7.1578
 20
-8.2141
 30
0.0
 10
7.1584
 20
-8.3221
 30
0.0
 10
7.1759
 20
-8.423
 30
0.0
 10
7.2102
 20
-8.5161
 30
0.0
 10
7.2102
 20
-8.5161
 30
0.0
 10
7.2451
 20
-8.6099
 30
0.0
 10
7.2949
 20
-8.6914
 30
0.0
 10
7.3596
 20
-8.7619
 30
0.0
 10
7.3596
 20
-8.7619
 30
0.0
 10
7.4243
 20
-8.8318
 30
0.0
 10
7.5025
 20
-8.8867
 30
0.0
 10
7.5931
 20
-8.9262
 30
0.0
 10
7.5931
 20
-8.9262
 30
0.0
 10
7.6842
 20
-8.9656
 30
0.0
 10
7.7858
 20
-8.9857
 30
0.0
 10
7.899
 20
-8.9863
 30
0.0
 10
7.899
 20
-8.9863
 30
0.0
 10
8.027
 20
-8.9857
 30
0.0
 10
8.1415
 20
-8.9624
 30
0.0
 10
8.2418
 20
-8.9165
 30
0.0
 10
8.2418
 20
-8.9165
 30
0.0
 10
8.3414
 20
-8.8706
 30
0.0
 10
8.4267
 20
-8.8046
 30
0.0
 10
8.4966
 20
-8.7186
 30
0.0
 10
8.4966
 20
-8.7186
 30
0.0
 10
8.4966
 20
-8.7186
 30
0.0
 10
8.5082
 20
-8.7186
 30
0.0
 10
8.5082
 20
-8.7186
 30
0.0
 10
8.5082
 20
-8.7186
 30
0.0
 10
8.4843
 20
-8.866
 30
0.0
 10
8.4436
 20
-8.9954
 30
0.0
 10
8.3866
 20
-9.106
 30
0.0
 10
8.3866
 20
-9.106
 30
0.0
 10
8.3291
 20
-9.2172
 30
0.0
 10
8.2586
 20
-9.3104
 30
0.0
 10
8.1745
 20
-9.386
 30
0.0
 10
8.1745
 20
-9.386
 30
0.0
 10
8.1021
 20
-9.4559
 30
0.0
 10
8.0212
 20
-9.5102
 30
0.0
 10
7.9313
 20
-9.5503
 30
0.0
 10
7.9313
 20
-9.5503
 30
0.0
 10
7.8414
 20
-9.5904
 30
0.0
 10
7.7463
 20
-9.6169
 30
0.0
 10
7.6467
 20
-9.6305
 30
0.0
 10
7.6467
 20
-9.6305
 30
0.0
 10
7.5892
 20
-9.6363
 30
0.0
 10
7.5374
 20
-9.6409
 30
0.0
 10
7.4928
 20
-9.6434
 30
0.0
 10
7.4928
 20
-9.6434
 30
0.0
 10
7.4482
 20
-9.646
 30
0.0
 10
7.4074
 20
-9.646
 30
0.0
 10
7.3712
 20
-9.6421
 30
0.0
 10
7.3712
 20
-9.6421
 30
0.0
 10
7.3712
 20
-9.6421
 30
0.0
 10
7.3712
 20
-9.9216
 30
0.0
 10
7.3712
 20
-9.9216
 30
0.0
  0
SPLINE
  5
68
330
1F
100
AcDbEntity
  8
Ilustrace
 62
   250
100
AcDbSpline
210
0.0
220
0.0
230
1.0
 70
    11
 71
     3
 72
    64
 73
    60
 74
     0
 42
0.0000000001
 43
0.0000000001
 40
0.0
 40
0.0
 40
0.0
 40
0.0
 40
0.0625
 40
0.0625
 40
0.0625
 40
0.0625
 40
0.125
 40
0.125
 40
0.125
 40
0.125
 40
0.1875
 40
0.1875
 40
0.1875
 40
0.1875
 40
0.25
 40
0.25
 40
0.25
 40
0.25
 40
0.3125
 40
0.3125
 40
0.3125
 40
0.3125
 40
0.375
 40
0.375
 40
0.375
 40
0.375
 40
0.4375
 40
0.4375
 40
0.4375
 40
0.4375
 40
0.5
 40
0.5
 40
0.5
 40
0.5
 40
0.5625
 40
0.5625
 40
0.5625
 40
0.5625
 40
0.625
 40
0.625
 40
0.625
 40
0.625
 40
0.6875
 40
0.6875
 40
0.6875
 40
0.6875
 40
0.75
 40
0.75
 40
0.75
 40
0.75
 40
0.8125
 40
0.8125
 40
0.8125
 40
0.8125
 40
0.875
 40
0.875
 40
0.875
 40
0.875
 40
1.0
 40
1.0
 40
1.0
 40
1.0
 10
7.9882
 20
-7.5777
 30
0.0
 10
8.0781
 20
-7.5783
 30
0.0
 10
8.1564
 20
-7.5977
 30
0.0
 10
8.2217
 20
-7.6359
 30
0.0
 10
8.2217
 20
-7.6359
 30
0.0
 10
8.287
 20
-7.674
 30
0.0
 10
8.3414
 20
-7.7277
 30
0.0
 10
8.3834
 20
-7.7963
 30
0.0
 10
8.3834
 20
-7.7963
 30
0.0
 10
8.4261
 20
-7.8648
 30
0.0
 10
8.4571
 20
-7.9457
 30
0.0
 10
8.4778
 20
-8.0375
 30
0.0
 10
8.4778
 20
-8.0375
 30
0.0
 10
8.4985
 20
-8.13
 30
0.0
 10
8.5082
 20
-8.2303
 30
0.0
 10
8.5082
 20
-8.3383
 30
0.0
 10
8.5082
 20
-8.3383
 30
0.0
 10
8.5082
 20
-8.3667
 30
0.0
 10
8.5057
 20
-8.3913
 30
0.0
 10
8.4998
 20
-8.4107
 30
0.0
 10
8.4998
 20
-8.4107
 30
0.0
 10
8.4947
 20
-8.4308
 30
0.0
 10
8.4869
 20
-8.4495
 30
0.0
 10
8.4772
 20
-8.4663
 30
0.0
 10
8.4772
 20
-8.4663
 30
0.0
 10
8.4474
 20
-8.5174
 30
0.0
 10
8.408
 20
-8.5627
 30
0.0
 10
8.3595
 20
-8.6021
 30
0.0
 10
8.3595
 20
-8.6021
 30
0.0
 10
8.3116
 20
-8.6416
 30
0.0
 10
8.2553
 20
-8.6726
 30
0.0
 10
8.1913
 20
-8.6953
 30
0.0
 10
8.1913
 20
-8.6953
 30
0.0
 10
8.1273
 20
-8.7179
 30
0.0
 10
8.0568
 20
-8.7296
 30
0.0
 10
7.9805
 20
-8.7302
 30
0.0
 10
7.9805
 20
-8.7302
 30
0.0
 10
7.8815
 20
-8.7296
 30
0.0
 10
7.7962
 20
-8.7063
 30
0.0
 10
7.7237
 20
-8.661
 30
0.0
 10
7.7237
 20
-8.661
 30
0.0
 10
7.6513
 20
-8.6157
 30
0.0
 10
7.595
 20
-8.5537
 30
0.0
 10
7.5555
 20
-8.4734
 30
0.0
 10
7.5555
 20
-8.4734
 30
0.0
 10
7.5161
 20
-8.3932
 30
0.0
 10
7.4961
 20
-8.3001
 30
0.0
 10
7.4954
 20
-8.1947
 30
0.0
 10
7.4954
 20
-8.1947
 30
0.0
 10
7.4961
 20
-8.0731
 30
0.0
 10
7.5174
 20
-7.9664
 30
0.0
 10
7.5594
 20
-7.8745
 30
0.0
 10
7.5594
 20
-7.8745
 30
0.0
 10
7.6015
 20
-7.7821
 30
0.0
 10
7.659
 20
-7.7096
 30
0.0
 10
7.7328
 20
-7.6572
 30
0.0
 10
7.7328
 20
-7.6572
 30
0.0
 10
7.8065
 20
-7.6048
 30
0.0
 10
7.8919
 20
-7.5783
 30
0.0
 10
7.9882
 20
-7.5777
 30
0.0
  0
SPLINE
  5
69
330
1F
100
AcDbEntity
  8
Ilustrace
 62
   250
100
AcDbSpline
210
0.0
220
0.0
230
1.0
 70
    11
 71
     3
 72
    36
 73
    32
 74
     0
 42
0.0000000001
 43
0.0000000001
 40
0.0
 40
0.0
 40
0.0
 40
0.0
 40
0.1111111111111111
 40
0.1111111111111111
 40
0.1111111111111111
 40
0.1111111111111111
 40
0.2222222222222222
 40
0.2222222222222222
 40
0.2222222222222222
 40
0.2222222222222222
 40
0.3333333333333333
 40
0.3333333333333333
 40
0.3333333333333333
 40
0.3333333333333333
 40
0.4444444444444444
 40
0.4444444444444444
 40
0.4444444444444444
 40
0.4444444444444444
 40
0.5555555555555556
 40
0.5555555555555556
 40
0.5555555555555556
 40
0.5555555555555556
 40
0.6666666666666666
 40
0.6666666666666666
 40
0.6666666666666666
 40
0.6666666666666666
 40
0.7777777777777778
 40
0.7777777777777778
 40
0.7777777777777778
 40
0.7777777777777778
 40
1.0
 40
1.0
 40
1.0
 40
1.0
 10
9.2106
 20
-7.3604
 30
0.0
 10
9.2106
 20
-7.3604
 30
0.0
 10
9.2106
 20
-7.6436
 30
0.0
 10
9.2106
 20
-7.6436
 30
0.0
 10
9.2106
 20
-7.6436
 30
0.0
 10
9.2106
 20
-7.6436
 30
0.0
 10
10.4447
 20
-7.6436
 30
0.0
 10
10.4447
 20
-7.6436
 30
0.0
 10
10.4447
 20
-7.6436
 30
0.0
 10
10.4447
 20
-7.6436
 30
0.0
 10
10.4447
 20
-7.6514
 30
0.0
 10
10.4447
 20
-7.6514
 30
0.0
 10
10.4447
 20
-7.6514
 30
0.0
 10
10.4447
 20
-7.6514
 30
0.0
 10
9.3503
 20
-9.8827
 30
0.0
 10
9.3503
 20
-9.8827
 30
0.0
 10
9.3503
 20
-9.8827
 30
0.0
 10
9.3503
 20
-9.8827
 30
0.0
 10
9.7035
 20
-9.8827
 30
0.0
 10
9.7035
 20
-9.8827
 30
0.0
 10
9.7035
 20
-9.8827
 30
0.0
 10
9.7035
 20
-9.8827
 30
0.0
 10
10.8017
 20
-7.5854
 30
0.0
 10
10.8017
 20
-7.5854
 30
0.0
 10
10.8017
 20
-7.5854
 30
0.0
 10
10.8017
 20
-7.5854
 30
0.0
 10
10.8017
 20
-7.3604
 30
0.0
 10
10.8017
 20
-7.3604
 30
0.0
 10
10.8017
 20
-7.3604
 30
0.0
 10
10.8017
 20
-7.3604
 30
0.0
 10
9.2106
 20
-7.3604
 30
0.0
 10
9.2106
 20
-7.3604
 30
0.0
  0
SPLINE
  5
6A
330
1F
100
AcDbEntity
  8
Ilustrace
 62
   250
100
AcDbSpline
210
0.0
220
0.0
230
1.0
 70
    11
 71
     3
 72
    44
 73
    40
 74
     0
 42
0.0000000001
 43
0.0000000001
 40
0.0
 40
0.0
 40
0.0
 40
0.0
 40
0.0909090909090909
 40
0.0909090909090909
 40
0.0909090909090909
 40
0.0909090909090909
 40
0.1818181818181818
 40
0.1818181818181818
 40
0.1818181818181818
 40
0.1818181818181818
 40
0.2727272727272727
 40
0.2727272727272727
 40
0.2727272727272727
 40
0.2727272727272727
 40
0.3636363636363636
 40
0.3636363636363636
 40
0.3636363636363636
 40
0.3636363636363636
 40
0.4545454545454545
 40
0.4545454545454545
 40
0.4545454545454545
 40
0.4545454545454545
 40
0.5454545454545454
 40
0.5454545454545454
 40
0.5454545454545454
 40
0.5454545454545454
 40
0.6363636363636364
 40
0.6363636363636364
 40
0.6363636363636364
 40
0.6363636363636364
 40
0.7272727272727273
 40
0.7272727272727273
 40
0.7272727272727273
 40
0.7272727272727273
 40
0.8181818181818182
 40
0.8181818181818182
 40
0.8181818181818182
 40
0.8181818181818182
 40
1.0
 40
1.0
 40
1.0
 40
1.0
 10
11.2828
 20
-10.3368
 30
0.0
 10
11.3107
 20
-10.2902
 30
0.0
 10
11.3404
 20
-10.2307
 30
0.0
 10
11.374
 20
-10.1589
 30
0.0
 10
11.374
 20
-10.1589
 30
0.0
 10
11.407
 20
-10.0865
 30
0.0
 10
11.4407
 20
-10.0076
 30
0.0
 10
11.4749
 20
-9.9203
 30
0.0
 10
11.4749
 20
-9.9203
 30
0.0
 10
11.5092
 20
-9.8336
 30
0.0
 10
11.5422
 20
-9.745
 30
0.0
 10
11.5733
 20
-9.6544
 30
0.0
 10
11.5733
 20
-9.6544
 30
0.0
 10
11.6043
 20
-9.5639
 30
0.0
 10
11.6314
 20
-9.4772
 30
0.0
 10
11.6554
 20
-9.3938
 30
0.0
 10
11.6554
 20
-9.3938
 30
0.0
 10
11.6554
 20
-9.3938
 30
0.0
 10
11.2751
 20
-9.4326
 30
0.0
 10
11.2751
 20
-9.4326
 30
0.0
 10
11.2751
 20
-9.4326
 30
0.0
 10
11.2641
 20
-9.5044
 30
0.0
 10
11.2499
 20
-9.5813
 30
0.0
 10
11.233
 20
-9.6648
 30
0.0
 10
11.233
 20
-9.6648
 30
0.0
 10
11.2156
 20
-9.7482
 30
0.0
 10
11.1962
 20
-9.8323
 30
0.0
 10
11.1748
 20
-9.917
 30
0.0
 10
11.1748
 20
-9.917
 30
0.0
 10
11.1535
 20
-10.0024
 30
0.0
 10
11.1315
 20
-10.0832
 30
0.0
 10
11.1089
 20
-10.1602
 30
0.0
 10
11.1089
 20
-10.1602
 30
0.0
 10
11.0862
 20
-10.2372
 30
0.0
 10
11.0636
 20
-10.3051
 30
0.0
 10
11.0423
 20
-10.3639
 30
0.0
 10
11.0423
 20
-10.3639
 30
0.0
 10
11.0423
 20
-10.3639
 30
0.0
 10
11.2828
 20
-10.3368
 30
0.0
 10
11.2828
 20
-10.3368
 30
0.0
  0
SPLINE
  5
6B
330
1F
100
AcDbEntity
  8
Ilustrace
 62
   250
100
AcDbSpline
210
0.0
220
0.0
230
1.0
 70
    11
 71
     3
 72
   132
 73
   128
 74
     0
 42
0.0000000001
 43
0.0000000001
 40
0.0
 40
0.0
 40
0.0
 40
0.0
 40
0.0303030303030303
 40
0.0303030303030303
 40
0.0303030303030303
 40
0.0303030303030303
 40
0.0606060606060606
 40
0.0606060606060606
 40
0.0606060606060606
 40
0.0606060606060606
 40
0.0909090909090909
 40
0.0909090909090909
 40
0.0909090909090909
 40
0.0909090909090909
 40
0.1212121212121212
 40
0.1212121212121212
 40
0.1212121212121212
 40
0.1212121212121212
 40
0.1515151515151515
 40
0.1515151515151515
 40
0.1515151515151515
 40
0.1515151515151515
 40
0.1818181818181818
 40
0.1818181818181818
 40
0.1818181818181818
 40
0.1818181818181818
 40
0.2121212121212121
 40
0.2121212121212121
 40
0.2121212121212121
 40
0.2121212121212121
 40
0.2424242424242424
 40
0.2424242424242424
 40
0.2424242424242424
 40
0.2424242424242424
 40
0.2727272727272727
 40
0.2727272727272727
 40
0.2727272727272727
 40
0.2727272727272727
 40
0.303030303030303
 40
0.303030303030303
 40
0.303030303030303
 40
0.303030303030303
 40
0.3333333333333333
 40
0.3333333333333333
 40
0.3333333333333333
 40
0.3333333333333333
 40
0.3636363636363636
 40
0.3636363636363636
 40
0.3636363636363636
 40
0.3636363636363636
 40
0.3939393939393939
 40
0.3939393939393939
 40
0.3939393939393939
 40
0.3939393939393939
 40
0.4242424242424243
 40
0.4242424242424243
 40
0.4242424242424243
 40
0.4242424242424243
 40
0.4545454545454545
 40
0.4545454545454545
 40
0.4545454545454545
 40
0.4545454545454545
 40
0.4848484848484849
 40
0.4848484848484849
 40
0.4848484848484849
 40
0.4848484848484849
 40
0.5151515151515151
 40
0.5151515151515151
 40
0.5151515151515151
 40
0.5151515151515151
 40
0.5454545454545454
 40
0.5454545454545454
 40
0.5454545454545454
 40
0.5454545454545454
 40
0.5757575757575758
 40
0.5757575757575758
 40
0.5757575757575758
 40
0.5757575757575758
 40
0.6060606060606061
 40
0.6060606060606061
 40
0.6060606060606061
 40
0.6060606060606061
 40
0.6363636363636364
 40
0.6363636363636364
 40
0.6363636363636364
 40
0.6363636363636364
 40
0.6666666666666666
 40
0.6666666666666666
 40
0.6666666666666666
 40
0.6666666666666666
 40
0.696969696969697
 40
0.696969696969697
 40
0.696969696969697
 40
0.696969696969697
 40
0.7272727272727273
 40
0.7272727272727273
 40
0.7272727272727273
 40
0.7272727272727273
 40
0.7575757575757576
 40
0.7575757575757576
 40
0.7575757575757576
 40
0.7575757575757576
 40
0.7878787878787878
 40
0.7878787878787878
 40
0.7878787878787878
 40
0.7878787878787878
 40
0.8181818181818182
 40
0.8181818181818182
 40
0.8181818181818182
 40
0.8181818181818182
 40
0.8484848484848485
 40
0.8484848484848485
 40
0.8484848484848485
 40
0.8484848484848485
 40
0.8787878787878788
 40
0.8787878787878788
 40
0.8787878787878788
 40
0.8787878787878788
 40
0.9090909090909091
 40
0.9090909090909091
 40
0.9090909090909091
 40
0.9090909090909091
 40
0.9393939393939394
 40
0.9393939393939394
 40
0.9393939393939394
 40
0.9393939393939394
 40
1.0
 40
1.0
 40
1.0
 40
1.0
 10
13.4637
 20
-7.3604
 30
0.0
 10
13.4637
 20
-7.3604
 30
0.0
 10
12.2569
 20
-7.3604
 30
0.0
 10
12.2569
 20
-7.3604
 30
0.0
 10
12.2569
 20
-7.3604
 30
0.0
 10
12.2569
 20
-7.3604
 30
0.0
 10
12.0939
 20
-8.5711
 30
0.0
 10
12.0939
 20
-8.5711
 30
0.0
 10
12.0939
 20
-8.5711
 30
0.0
 10
12.1405
 20
-8.5646
 30
0.0
 10
12.1922
 20
-8.5595
 30
0.0
 10
12.2504
 20
-8.5549
 30
0.0
 10
12.2504
 20
-8.5549
 30
0.0
 10
12.308
 20
-8.5504
 30
0.0
 10
12.3739
 20
-8.5478
 30
0.0
 10
12.447
 20
-8.5478
 30
0.0
 10
12.447
 20
-8.5478
 30
0.0
 10
12.6139
 20
-8.5485
 30
0.0
 10
12.7504
 20
-8.5724
 30
0.0
 10
12.8564
 20
-8.619
 30
0.0
 10
12.8564
 20
-8.619
 30
0.0
 10
12.9631
 20
-8.6662
 30
0.0
 10
13.0421
 20
-8.7309
 30
0.0
 10
13.0931
 20
-8.8136
 30
0.0
 10
13.0931
 20
-8.8136
 30
0.0
 10
13.1442
 20
-8.8971
 30
0.0
 10
13.1695
 20
-8.9934
 30
0.0
 10
13.1688
 20
-9.1027
 30
0.0
 10
13.1688
 20
-9.1027
 30
0.0
 10
13.1695
 20
-9.1875
 30
0.0
 10
13.1539
 20
-9.2631
 30
0.0
 10
13.1222
 20
-9.3304
 30
0.0
 10
13.1222
 20
-9.3304
 30
0.0
 10
13.0912
 20
-9.3983
 30
0.0
 10
13.0479
 20
-9.4552
 30
0.0
 10
12.9929
 20
-9.5031
 30
0.0
 10
12.9929
 20
-9.5031
 30
0.0
 10
12.9379
 20
-9.5503
 30
0.0
 10
12.8745
 20
-9.5865
 30
0.0
 10
12.8027
 20
-9.6117
 30
0.0
 10
12.8027
 20
-9.6117
 30
0.0
 10
12.7309
 20
-9.637
 30
0.0
 10
12.6553
 20
-9.6499
 30
0.0
 10
12.5751
 20
-9.6499
 30
0.0
 10
12.5751
 20
-9.6499
 30
0.0
 10
12.4968
 20
-9.6493
 30
0.0
 10
12.4231
 20
-9.6421
 30
0.0
 10
12.3539
 20
-9.6273
 30
0.0
 10
12.3539
 20
-9.6273
 30
0.0
 10
12.2847
 20
-9.613
 30
0.0
 10
12.2226
 20
-9.5956
 30
0.0
 10
12.1676
 20
-9.5742
 30
0.0
 10
12.1676
 20
-9.5742
 30
0.0
 10
12.1126
 20
-9.5529
 30
0.0
 10
12.0674
 20
-9.5316
 30
0.0
 10
12.0318
 20
-9.5102
 30
0.0
 10
12.0318
 20
-9.5102
 30
0.0
 10
12.0318
 20
-9.5102
 30
0.0
 10
11.9464
 20
-9.7702
 30
0.0
 10
11.9464
 20
-9.7702
 30
0.0
 10
11.9464
 20
-9.7702
 30
0.0
 10
11.9885
 20
-9.7967
 30
0.0
 10
12.0409
 20
-9.8213
 30
0.0
 10
12.1036
 20
-9.8452
 30
0.0
 10
12.1036
 20
-9.8452
 30
0.0
 10
12.1663
 20
-9.8685
 30
0.0
 10
12.2375
 20
-9.8873
 30
0.0
 10
12.317
 20
-9.9022
 30
0.0
 10
12.317
 20
-9.9022
 30
0.0
 10
12.3972
 20
-9.917
 30
0.0
 10
12.4832
 20
-9.9248
 30
0.0
 10
12.5751
 20
-9.9254
 30
0.0
 10
12.5751
 20
-9.9254
 30
0.0
 10
12.7128
 20
-9.9248
 30
0.0
 10
12.8383
 20
-9.9028
 30
0.0
 10
12.9528
 20
-9.8601
 30
0.0
 10
12.9528
 20
-9.8601
 30
0.0
 10
13.0673
 20
-9.8174
 30
0.0
 10
13.1662
 20
-9.7573
 30
0.0
 10
13.2497
 20
-9.6797
 30
0.0
 10
13.2497
 20
-9.6797
 30
0.0
 10
13.3337
 20
-9.6021
 30
0.0
 10
13.3984
 20
-9.5108
 30
0.0
 10
13.4443
 20
-9.4067
 30
0.0
 10
13.4443
 20
-9.4067
 30
0.0
 10
13.4903
 20
-9.302
 30
0.0
 10
13.5135
 20
-9.1875
 30
0.0
 10
13.5142
 20
-9.0639
 30
0.0
 10
13.5142
 20
-9.0639
 30
0.0
 10
13.5135
 20
-8.9592
 30
0.0
 10
13.4967
 20
-8.8647
 30
0.0
 10
13.4644
 20
-8.7813
 30
0.0
 10
13.4644
 20
-8.7813
 30
0.0
 10
13.432
 20
-8.6979
 30
0.0
 10
13.3894
 20
-8.6261
 30
0.0
 10
13.335
 20
-8.5653
 30
0.0
 10
13.335
 20
-8.5653
 30
0.0
 10
13.2807
 20
-8.5045
 30
0.0
 10
13.2199
 20
-8.456
 30
0.0
 10
13.1533
 20
-8.4198
 30
0.0
 10
13.1533
 20
-8.4198
 30
0.0
 10
13.075
 20
-8.3719
 30
0.0
 10
12.9903
 20
-8.337
 30
0.0
 10
12.8978
 20
-8.3156
 30
0.0
 10
12.8978
 20
-8.3156
 30
0.0
 10
12.8053
 20
-8.2943
 30
0.0
 10
12.7096
 20
-8.2833
 30
0.0
 10
12.61
 20
-8.284
 30
0.0
 10
12.61
 20
-8.284
 30
0.0
 10
12.5647
 20
-8.284
 30
0.0
 10
12.5259
 20
-8.2846
 30
0.0
 10
12.4942
 20
-8.2865
 30
0.0
 10
12.4942
 20
-8.2865
 30
0.0
 10
12.4625
 20
-8.2885
 30
0.0
 10
12.4328
 20
-8.2917
 30
0.0
 10
12.4043
 20
-8.2956
 30
0.0
 10
12.4043
 20
-8.2956
 30
0.0
 10
12.4043
 20
-8.2956
 30
0.0
 10
12.5013
 20
-7.6475
 30
0.0
 10
12.5013
 20
-7.6475
 30
0.0
 10
12.5013
 20
-7.6475
 30
0.0
 10
12.5013
 20
-7.6475
 30
0.0
 10
13.4637
 20
-7.6475
 30
0.0
 10
13.4637
 20
-7.6475
 30
0.0
 10
13.4637
 20
-7.6475
 30
0.0
 10
13.4637
 20
-7.6475
 30
0.0
 10
13.4637
 20
-7.3604
 30
0.0
 10
13.4637
 20
-7.3604
 30
0.0
  0
SPLINE
  5
6C
330
1F
100
AcDbEntity
  8
Ilustrace
 62
   250
370
     9
100
AcDbSpline
210
0.0
220
0.0
230
1.0
 70
    11
 71
     3
 72
    32
 73
    28
 74
     0
 42
0.0000000001
 43
0.0000000001
 40
0.0
 40
0.0
 40
0.0
 40
0.0
 40
0.125
 40
0.125
 40
0.125
 40
0.125
 40
0.25
 40
0.25
 40
0.25
 40
0.25
 40
0.375
 40
0.375
 40
0.375
 40
0.375
 40
0.5
 40
0.5
 40
0.5
 40
0.5
 40
0.625
 40
0.625
 40
0.625
 40
0.625
 40
0.75
 40
0.75
 40
0.75
 40
0.75
 40
1.0
 40
1.0
 40
1.0
 40
1.0
 10
17.6747
 20
-10.9828
 30
0.0
 10
17.6747
 20
-10.9828
 30
0.0
 10
17.6747
 20
-10.9828
 30
0.0
 10
17.6747
 20
-10.9828
 30
0.0
 10
17.6747
 20
-10.9828
 30
0.0
 10
17.6747
 20
-10.9828
 30
0.0
 10
17.6747
 20
-10.9828
 30
0.0
 10
17.6747
 20
-10.9828
 30
0.0
 10
17.6747
 20
-10.9828
 30
0.0
 10
17.6747
 20
-10.9828
 30
0.0
 10
18.9475
 20
-10.5394
 30
0.0
 10
18.9475
 20
-10.5394
 30
0.0
 10
18.9475
 20
-10.5394
 30
0.0
 10
18.9475
 20
-10.5394
 30
0.0
 10
17.6747
 20
-10.096
 30
0.0
 10
17.6747
 20
-10.096
 30
0.0
 10
17.6747
 20
-10.096
 30
0.0
 10
17.6747
 20
-10.096
 30
0.0
 10
17.6747
 20
-10.096
 30
0.0
 10
17.6747
 20
-10.096
 30
0.0
 10
17.6747
 20
-10.096
 30
0.0
 10
17.6747
 20
-10.096
 30
0.0
 10
17.6747
 20
-10.096
 30
0.0
 10
17.6747
 20
-10.096
 30
0.0
 10
17.6747
 20
-10.096
 30
0.0
 10
17.6747
 20
-10.096
 30
0.0
 10
17.6747
 20
-10.9828
 30
0.0
 10
17.6747
 20
-10.9828
 30
0.0
  0
SPLINE
  5
6D
330
1F
100
AcDbEntity
  8
Ilustrace
 62
   250
370
     9
100
AcDbSpline
210
0.0
220
0.0
230
1.0
 70
    11
 71
     3
 72
    32
 73
    28
 74
     0
 42
0.0000000001
 43
0.0000000001
 40
0.0
 40
0.0
 40
0.0
 40
0.0
 40
0.125
 40
0.125
 40
0.125
 40
0.125
 40
0.25
 40
0.25
 40
0.25
 40
0.25
 40
0.375
 40
0.375
 40
0.375
 40
0.375
 40
0.5
 40
0.5
 40
0.5
 40
0.5
 40
0.625
 40
0.625
 40
0.625
 40
0.625
 40
0.75
 40
0.75
 40
0.75
 40
0.75
 40
1.0
 40
1.0
 40
1.0
 40
1.0
 10
13.7061
 20
5.1259
 30
0.0
 10
13.7061
 20
5.1259
 30
0.0
 10
13.7061
 20
5.1259
 30
0.0
 10
13.7061
 20
5.1259
 30
0.0
 10
13.7061
 20
5.1259
 30
0.0
 10
13.7061
 20
5.1259
 30
0.0
 10
13.7061
 20
5.1259
 30
0.0
 10
13.7061
 20
5.1259
 30
0.0
 10
13.7061
 20
5.1259
 30
0.0
 10
13.7061
 20
5.1259
 30
0.0
 10
14.9789
 20
5.5693
 30
0.0
 10
14.9789
 20
5.5693
 30
0.0
 10
14.9789
 20
5.5693
 30
0.0
 10
14.9789
 20
5.5693
 30
0.0
 10
13.7061
 20
6.0127
 30
0.0
 10
13.7061
 20
6.0127
 30
0.0
 10
13.7061
 20
6.0127
 30
0.0
 10
13.7061
 20
6.0127
 30
0.0
 10
13.7061
 20
6.0127
 30
0.0
 10
13.7061
 20
6.0127
 30
0.0
 10
13.7061
 20
6.0127
 30
0.0
 10
13.7061
 20
6.0127
 30
0.0
 10
13.7061
 20
6.0127
 30
0.0
 10
13.7061
 20
6.0127
 30
0.0
 10
13.7061
 20
6.0127
 30
0.0
 10
13.7061
 20
6.0127
 30
0.0
 10
13.7061
 20
5.1259
 30
0.0
 10
13.7061
 20
5.1259
 30
0.0
  0
SPLINE
  5
6E
330
1F
100
AcDbEntity
  8
Ilustrace
 62
   250
370
     9
100
AcDbSpline
210
0.0
220
0.0
230
1.0
 70
    11
 71
     3
 72
    32
 73
    28
 74
     0
 42
0.0000000001
 43
0.0000000001
 40
0.0
 40
0.0
 40
0.0
 40
0.0
 40
0.125
 40
0.125
 40
0.125
 40
0.125
 40
0.25
 40
0.25
 40
0.25
 40
0.25
 40
0.375
 40
0.375
 40
0.375
 40
0.375
 40
0.5
 40
0.5
 40
0.5
 40
0.5
 40
0.625
 40
0.625
 40
0.625
 40
0.625
 40
0.75
 40
0.75
 40
0.75
 40
0.75
 40
1.0
 40
1.0
 40
1.0
 40
1.0
 10
-18.5952
 20
0.0841
 30
0.0
 10
-18.5952
 20
0.0841
 30
0.0
 10
-18.5952
 20
0.0841
 30
0.0
 10
-18.5952
 20
0.0841
 30
0.0
 10
-18.5952
 20
0.0841
 30
0.0
 10
-18.5952
 20
0.0841
 30
0.0
 10
-18.5952
 20
0.0841
 30
0.0
 10
-18.5952
 20
0.0841
 30
0.0
 10
-18.5952
 20
0.0841
 30
0.0
 10
-18.5952
 20
0.0841
 30
0.0
 10
-19.1478
 20
1.3134
 30
0.0
 10
-19.1478
 20
1.3134
 30
0.0
 10
-19.1478
 20
1.3134
 30
0.0
 10
-19.1478
 20
1.3134
 30
0.0
 10
-19.4786
 20
0.0068
 30
0.0
 10
-19.4786
 20
0.0068
 30
0.0
 10
-19.4786
 20
0.0068
 30
0.0
 10
-19.4786
 20
0.0068
 30
0.0
 10
-19.4786
 20
0.0068
 30
0.0
 10
-19.4786
 20
0.0068
 30
0.0
 10
-19.4786
 20
0.0068
 30
0.0
 10
-19.4786
 20
0.0068
 30
0.0
 10
-19.4786
 20
0.0068
 30
0.0
 10
-19.4786
 20
0.0068
 30
0.0
 10
-19.4786
 20
0.0068
 30
0.0
 10
-19.4786
 20
0.0068
 30
0.0
 10
-18.5952
 20
0.0841
 30
0.0
 10
-18.5952
 20
0.0841
 30
0.0
  0
SPLINE
  5
6F
330
1F
100
AcDbEntity
  8
Ilustrace
 62
   250
370
     9
100
AcDbSpline
210
0.0
220
0.0
230
1.0
 70
    11
 71
     3
 72
    32
 73
    28
 74
     0
 42
0.0000000001
 43
0.0000000001
 40
0.0
 40
0.0
 40
0.0
 40
0.0
 40
0.125
 40
0.125
 40
0.125
 40
0.125
 40
0.25
 40
0.25
 40
0.25
 40
0.25
 40
0.375
 40
0.375
 40
0.375
 40
0.375
 40
0.5
 40
0.5
 40
0.5
 40
0.5
 40
0.625
 40
0.625
 40
0.625
 40
0.625
 40
0.75
 40
0.75
 40
0.75
 40
0.75
 40
1.0
 40
1.0
 40
1.0
 40
1.0
 10
-19.5252
 20
10.4811
 30
0.0
 10
-19.5252
 20
10.4811
 30
0.0
 10
-19.5252
 20
10.4811
 30
0.0
 10
-19.5252
 20
10.4811
 30
0.0
 10
-19.5252
 20
10.4811
 30
0.0
 10
-19.5252
 20
10.4811
 30
0.0
 10
-19.5252
 20
10.4811
 30
0.0
 10
-19.5252
 20
10.4811
 30
0.0
 10
-19.5252
 20
10.4811
 30
0.0
 10
-19.5252
 20
10.4811
 30
0.0
 10
-19.856
 20
9.1745
 30
0.0
 10
-19.856
 20
9.1745
 30
0.0
 10
-19.856
 20
9.1745
 30
0.0
 10
-19.856
 20
9.1745
 30
0.0
 10
-20.4086
 20
10.4038
 30
0.0
 10
-20.4086
 20
10.4038
 30
0.0
 10
-20.4086
 20
10.4038
 30
0.0
 10
-20.4086
 20
10.4038
 30
0.0
 10
-20.4086
 20
10.4038
 30
0.0
 10
-20.4086
 20
10.4038
 30
0.0
 10
-20.4086
 20
10.4038
 30
0.0
 10
-20.4086
 20
10.4038
 30
0.0
 10
-20.4086
 20
10.4038
 30
0.0
 10
-20.4086
 20
10.4038
 30
0.0
 10
-20.4086
 20
10.4038
 30
0.0
 10
-20.4086
 20
10.4038
 30
0.0
 10
-19.5252
 20
10.4811
 30
0.0
 10
-19.5252
 20
10.4811
 30
0.0
  0
SPLINE
  5
70
330
1F
100
AcDbEntity
  8
Ilustrace
 62
   250
370
     9
100
AcDbSpline
210
0.0
220
0.0
230
1.0
 70
    11
 71
     3
 72
    32
 73
    28
 74
     0
 42
0.0000000001
 43
0.0000000001
 40
0.0
 40
0.0
 40
0.0
 40
0.0
 40
0.125
 40
0.125
 40
0.125
 40
0.125
 40
0.25
 40
0.25
 40
0.25
 40
0.25
 40
0.375
 40
0.375
 40
0.375
 40
0.375
 40
0.5
 40
0.5
 40
0.5
 40
0.5
 40
0.625
 40
0.625
 40
0.625
 40
0.625
 40
0.75
 40
0.75
 40
0.75
 40
0.75
 40
1.0
 40
1.0
 40
1.0
 40
1.0
 10
12.4738
 20
-5.1483
 30
0.0
 10
12.4738
 20
-5.1483
 30
0.0
 10
12.4738
 20
-5.1483
 30
0.0
 10
12.4738
 20
-5.1483
 30
0.0
 10
12.4738
 20
-5.1483
 30
0.0
 10
12.4738
 20
-5.1483
 30
0.0
 10
12.4738
 20
-5.1483
 30
0.0
 10
12.4738
 20
-5.1483
 30
0.0
 10
12.4738
 20
-5.1483
 30
0.0
 10
12.4738
 20
-5.1483
 30
0.0
 10
12.0304
 20
-6.4211
 30
0.0
 10
12.0304
 20
-6.4211
 30
0.0
 10
12.0304
 20
-6.4211
 30
0.0
 10
12.0304
 20
-6.4211
 30
0.0
 10
11.587
 20
-5.1483
 30
0.0
 10
11.587
 20
-5.1483
 30
0.0
 10
11.587
 20
-5.1483
 30
0.0
 10
11.587
 20
-5.1483
 30
0.0
 10
11.587
 20
-5.1483
 30
0.0
 10
11.587
 20
-5.1483
 30
0.0
 10
11.587
 20
-5.1483
 30
0.0
 10
11.587
 20
-5.1483
 30
0.0
 10
11.587
 20
-5.1483
 30
0.0
 10
11.587
 20
-5.1483
 30
0.0
 10
11.587
 20
-5.1483
 30
0.0
 10
11.587
 20
-5.1483
 30
0.0
 10
12.4738
 20
-5.1483
 30
0.0
 10
12.4738
 20
-5.1483
 30
0.0
  0
SPLINE
  5
71
330
1F
100
AcDbEntity
  8
Ilustrace
 62
   250
370
     9
100
AcDbSpline
210
0.0
220
0.0
230
1.0
 70
    11
 71
     3
 72
    32
 73
    28
 74
     0
 42
0.0000000001
 43
0.0000000001
 40
0.0
 40
0.0
 40
0.0
 40
0.0
 40
0.125
 40
0.125
 40
0.125
 40
0.125
 40
0.25
 40
0.25
 40
0.25
 40
0.25
 40
0.375
 40
0.375
 40
0.375
 40
0.375
 40
0.5
 40
0.5
 40
0.5
 40
0.5
 40
0.625
 40
0.625
 40
0.625
 40
0.625
 40
0.75
 40
0.75
 40
0.75
 40
0.75
 40
1.0
 40
1.0
 40
1.0
 40
1.0
 10
12.4848
 20
9.5845
 30
0.0
 10
12.4848
 20
9.5845
 30
0.0
 10
12.4848
 20
9.5845
 30
0.0
 10
12.4848
 20
9.5845
 30
0.0
 10
12.4848
 20
9.5845
 30
0.0
 10
12.4848
 20
9.5845
 30
0.0
 10
12.4848
 20
9.5845
 30
0.0
 10
12.4848
 20
9.5845
 30
0.0
 10
12.4848
 20
9.5845
 30
0.0
 10
12.4848
 20
9.5845
 30
0.0
 10
12.0414
 20
10.8573
 30
0.0
 10
12.0414
 20
10.8573
 30
0.0
 10
12.0414
 20
10.8573
 30
0.0
 10
12.0414
 20
10.8573
 30
0.0
 10
11.598
 20
9.5845
 30
0.0
 10
11.598
 20
9.5845
 30
0.0
 10
11.598
 20
9.5845
 30
0.0
 10
11.598
 20
9.5845
 30
0.0
 10
11.598
 20
9.5845
 30
0.0
 10
11.598
 20
9.5845
 30
0.0
 10
11.598
 20
9.5845
 30
0.0
 10
11.598
 20
9.5845
 30
0.0
 10
11.598
 20
9.5845
 30
0.0
 10
11.598
 20
9.5845
 30
0.0
 10
11.598
 20
9.5845
 30
0.0
 10
11.598
 20
9.5845
 30
0.0
 10
12.4848
 20
9.5845
 30
0.0
 10
12.4848
 20
9.5845
 30
0.0
  0
SPLINE
  5
72
330
1F
100
AcDbEntity
  8
Ilustrace
 62
   250
370
     9
100
AcDbSpline
210
0.0
220
0.0
230
1.0
 70
    11
 71
     3
 72
    32
 73
    28
 74
     0
 42
0.0000000001
 43
0.0000000001
 40
0.0
 40
0.0
 40
0.0
 40
0.0
 40
0.125
 40
0.125
 40
0.125
 40
0.125
 40
0.25
 40
0.25
 40
0.25
 40
0.25
 40
0.375
 40
0.375
 40
0.375
 40
0.375
 40
0.5
 40
0.5
 40
0.5
 40
0.5
 40
0.625
 40
0.625
 40
0.625
 40
0.625
 40
0.75
 40
0.75
 40
0.75
 40
0.75
 40
1.0
 40
1.0
 40
1.0
 40
1.0
 10
1.9386
 20
-10.9823
 30
0.0
 10
1.9386
 20
-10.9823
 30
0.0
 10
1.9386
 20
-10.9823
 30
0.0
 10
1.9386
 20
-10.9823
 30
0.0
 10
1.9386
 20
-10.9823
 30
0.0
 10
1.9386
 20
-10.9823
 30
0.0
 10
1.9386
 20
-10.9823
 30
0.0
 10
1.9386
 20
-10.9823
 30
0.0
 10
1.9386
 20
-10.9823
 30
0.0
 10
1.9386
 20
-10.9823
 30
0.0
 10
0.6658
 20
-10.5389
 30
0.0
 10
0.6658
 20
-10.5389
 30
0.0
 10
0.6658
 20
-10.5389
 30
0.0
 10
0.6658
 20
-10.5389
 30
0.0
 10
1.9386
 20
-10.0955
 30
0.0
 10
1.9386
 20
-10.0955
 30
0.0
 10
1.9386
 20
-10.0955
 30
0.0
 10
1.9386
 20
-10.0955
 30
0.0
 10
1.9386
 20
-10.0955
 30
0.0
 10
1.9386
 20
-10.0955
 30
0.0
 10
1.9386
 20
-10.0955
 30
0.0
 10
1.9386
 20
-10.0955
 30
0.0
 10
1.9386
 20
-10.0955
 30
0.0
 10
1.9386
 20
-10.0955
 30
0.0
 10
1.9386
 20
-10.0955
 30
0.0
 10
1.9386
 20
-10.0955
 30
0.0
 10
1.9386
 20
-10.9823
 30
0.0
 10
1.9386
 20
-10.9823
 30
0.0
  0
SPLINE
  5
73
330
1F
100
AcDbEntity
  8
Ilustrace
 62
   250
370
     9
100
AcDbSpline
210
0.0
220
0.0
230
1.0
 70
    11
 71
     3
 72
    32
 73
    28
 74
     0
 42
0.0000000001
 43
0.0000000001
 40
0.0
 40
0.0
 40
0.0
 40
0.0
 40
0.125
 40
0.125
 40
0.125
 40
0.125
 40
0.25
 40
0.25
 40
0.25
 40
0.25
 40
0.375
 40
0.375
 40
0.375
 40
0.375
 40
0.5
 40
0.5
 40
0.5
 40
0.5
 40
0.625
 40
0.625
 40
0.625
 40
0.625
 40
0.75
 40
0.75
 40
0.75
 40
0.75
 40
1.0
 40
1.0
 40
1.0
 40
1.0
 10
24.6968
 20
5.1264
 30
0.0
 10
24.6968
 20
5.1264
 30
0.0
 10
24.6968
 20
5.1264
 30
0.0
 10
24.6968
 20
5.1264
 30
0.0
 10
24.6968
 20
5.1264
 30
0.0
 10
24.6968
 20
5.1264
 30
0.0
 10
24.6968
 20
5.1264
 30
0.0
 10
24.6968
 20
5.1264
 30
0.0
 10
24.6968
 20
5.1264
 30
0.0
 10
24.6968
 20
5.1264
 30
0.0
 10
23.424
 20
5.5698
 30
0.0
 10
23.424
 20
5.5698
 30
0.0
 10
23.424
 20
5.5698
 30
0.0
 10
23.424
 20
5.5698
 30
0.0
 10
24.6968
 20
6.0132
 30
0.0
 10
24.6968
 20
6.0132
 30
0.0
 10
24.6968
 20
6.0132
 30
0.0
 10
24.6968
 20
6.0132
 30
0.0
 10
24.6968
 20
6.0132
 30
0.0
 10
24.6968
 20
6.0132
 30
0.0
 10
24.6968
 20
6.0132
 30
0.0
 10
24.6968
 20
6.0132
 30
0.0
 10
24.6968
 20
6.0132
 30
0.0
 10
24.6968
 20
6.0132
 30
0.0
 10
24.6968
 20
6.0132
 30
0.0
 10
24.6968
 20
6.0132
 30
0.0
 10
24.6968
 20
5.1264
 30
0.0
 10
24.6968
 20
5.1264
 30
0.0
  0
SPLINE
  5
74
330
1F
100
AcDbEntity
  8
Ilustrace
 62
   250
370
    30
100
AcDbSpline
210
0.0
220
0.0
230
1.0
 70
    24
 71
     3
 72
     8
 73
     4
 74
     0
 42
0.0000000001
 43
0.0000000001
 40
0.0
 40
0.0
 40
0.0
 40
0.0
 40
1.0
 40
1.0
 40
1.0
 40
1.0
 10
-4.6784
 20
-6.082
 30
0.0
 10
-4.6784
 20
-6.082
 30
0.0
 10
-4.6784
 20
-6.4619
 30
0.0
 10
-4.6784
 20
-6.4619
 30
0.0
  0
SPLINE
  5
75
330
1F
100
AcDbEntity
  8
Ilustrace
 62
   250
370
    30
100
AcDbSpline
210
0.0
220
0.0
230
1.0
 70
    24
 71
     3
 72
     8
 73
     4
 74
     0
 42
0.0000000001
 43
0.0000000001
 40
0.0
 40
0.0
 40
0.0
 40
0.0
 40
1.0
 40
1.0
 40
1.0
 40
1.0
 10
-4.6784
 20
-6.082
 30
0.0
 10
-4.6784
 20
-6.082
 30
0.0
 10
23.8213
 20
-6.082
 30
0.0
 10
23.8213
 20
-6.082
 30
0.0
  0
SPLINE
  5
76
330
1F
100
AcDbEntity
  8
Ilustrace
 62
   250
370
    30
100
AcDbSpline
210
0.0
220
0.0
230
1.0
 70
    24
 71
     3
 72
     8
 73
     4
 74
     0
 42
0.0000000001
 43
0.0000000001
 40
0.0
 40
0.0
 40
0.0
 40
0.0
 40
1.0
 40
1.0
 40
1.0
 40
1.0
 10
23.8213
 20
-6.4619
 30
0.0
 10
23.8213
 20
-6.4619
 30
0.0
 10
23.8213
 20
-6.082
 30
0.0
 10
23.8213
 20
-6.082
 30
0.0
  0
SPLINE
  5
77
330
1F
100
AcDbEntity
  8
Ilustrace
 62
   250
370
    30
100
AcDbSpline
210
0.0
220
0.0
230
1.0
 70
    24
 71
     3
 72
     8
 73
     4
 74
     0
 42
0.0000000001
 43
0.0000000001
 40
0.0
 40
0.0
 40
0.0
 40
0.0
 40
1.0
 40
1.0
 40
1.0
 40
1.0
 10
23.8213
 20
-6.4619
 30
0.0
 10
23.8213
 20
-6.4619
 30
0.0
 10
-4.6876
 20
-6.4619
 30
0.0
 10
-4.6876
 20
-6.4619
 30
0.0
  0
SPLINE
  5
78
330
1F
100
AcDbEntity
  8
Ilustrace
 62
   250
370
    30
100
AcDbSpline
210
0.0
220
0.0
230
1.0
 70
    24
 71
     3
 72
     8
 73
     4
 74
     0
 42
0.0000000001
 43
0.0000000001
 40
0.0
 40
0.0
 40
0.0
 40
0.0
 40
1.0
 40
1.0
 40
1.0
 40
1.0
 10
-4.6753
 20
-5.4739
 30
0.0
 10
-4.6753
 20
-5.4739
 30
0.0
 10
-4.6753
 20
-6.082
 30
0.0
 10
-4.6753
 20
-6.082
 30
0.0
  0
SPLINE
  5
79
330
1F
100
AcDbEntity
  8
Ilustrace
 62
   250
370
    30
100
AcDbSpline
210
0.0
220
0.0
230
1.0
 70
    24
 71
     3
 72
     8
 73
     4
 74
     0
 42
0.0000000001
 43
0.0000000001
 40
0.0
 40
0.0
 40
0.0
 40
0.0
 40
1.0
 40
1.0
 40
1.0
 40
1.0
 10
-3.799
 20
0.6518
 30
0.0
 10
-3.799
 20
0.6518
 30
0.0
 10
-3.5861
 20
0.4731
 30
0.0
 10
-3.5861
 20
0.4731
 30
0.0
  0
SPLINE
  5
7A
330
1F
100
AcDbEntity
  8
Ilustrace
 62
   250
370
    30
100
AcDbSpline
210
0.0
220
0.0
230
1.0
 70
    24
 71
     3
 72
     8
 73
     4
 74
     0
 42
0.0000000001
 43
0.0000000001
 40
0.0
 40
0.0
 40
0.0
 40
0.0
 40
1.0
 40
1.0
 40
1.0
 40
1.0
 10
23.8181
 20
-5.4739
 30
0.0
 10
23.8181
 20
-5.4739
 30
0.0
 10
-4.6753
 20
-5.4739
 30
0.0
 10
-4.6753
 20
-5.4739
 30
0.0
  0
SPLINE
  5
7B
330
1F
100
AcDbEntity
  8
Ilustrace
 62
   250
370
    30
100
AcDbSpline
210
0.0
220
0.0
230
1.0
 70
    24
 71
     3
 72
     8
 73
     4
 74
     0
 42
0.0000000001
 43
0.0000000001
 40
0.0
 40
0.0
 40
0.0
 40
0.0
 40
1.0
 40
1.0
 40
1.0
 40
1.0
 10
-4.1546
 20
-5.4739
 30
0.0
 10
-4.1546
 20
-5.4739
 30
0.0
 10
-4.0038
 20
-5.4739
 30
0.0
 10
-4.0038
 20
-5.4739
 30
0.0
  0
SPLINE
  5
7C
330
1F
100
AcDbEntity
  8
Ilustrace
 62
   250
370
    30
100
AcDbSpline
210
0.0
220
0.0
230
1.0
 70
    24
 71
     3
 72
     8
 73
     4
 74
     0
 42
0.0000000001
 43
0.0000000001
 40
0.0
 40
0.0
 40
0.0
 40
0.0
 40
1.0
 40
1.0
 40
1.0
 40
1.0
 10
-4.65
 20
-5.4739
 30
0.0
 10
-4.65
 20
-5.4739
 30
0.0
 10
-4.6753
 20
-5.4739
 30
0.0
 10
-4.6753
 20
-5.4739
 30
0.0
  0
SPLINE
  5
7D
330
1F
100
AcDbEntity
  8
Ilustrace
 62
   250
370
    30
100
AcDbSpline
210
0.0
220
0.0
230
1.0
 70
    24
 71
     3
 72
     8
 73
     4
 74
     0
 42
0.0000000001
 43
0.0000000001
 40
0.0
 40
0.0
 40
0.0
 40
0.0
 40
1.0
 40
1.0
 40
1.0
 40
1.0
 10
23.8181
 20
-6.082
 30
0.0
 10
23.8181
 20
-6.082
 30
0.0
 10
23.8181
 20
-5.4739
 30
0.0
 10
23.8181
 20
-5.4739
 30
0.0
  0
SPLINE
  5
7E
330
1F
100
AcDbEntity
  8
Ilustrace
 62
   250
370
    30
100
AcDbSpline
210
0.0
220
0.0
230
1.0
 70
    24
 71
     3
 72
     8
 73
     4
 74
     0
 42
0.0000000001
 43
0.0000000001
 40
0.0
 40
0.0
 40
0.0
 40
0.0
 40
1.0
 40
1.0
 40
1.0
 40
1.0
 10
4.679
 20
0.4731
 30
0.0
 10
4.679
 20
0.4731
 30
0.0
 10
-3.5861
 20
0.4731
 30
0.0
 10
-3.5861
 20
0.4731
 30
0.0
  0
SPLINE
  5
7F
330
1F
100
AcDbEntity
  8
Ilustrace
 62
   250
370
    30
100
AcDbSpline
210
0.0
220
0.0
230
1.0
 70
    24
 71
     3
 72
     8
 73
     4
 74
     0
 42
0.0000000001
 43
0.0000000001
 40
0.0
 40
0.0
 40
0.0
 40
0.0
 40
1.0
 40
1.0
 40
1.0
 40
1.0
 10
4.6755
 20
-0.0094
 30
0.0
 10
4.6755
 20
-0.0094
 30
0.0
 10
4.679
 20
0.4731
 30
0.0
 10
4.679
 20
0.4731
 30
0.0
  0
SPLINE
  5
80
330
1F
100
AcDbEntity
  8
Ilustrace
 62
   250
370
    30
100
AcDbSpline
210
0.0
220
0.0
230
1.0
 70
    24
 71
     3
 72
     8
 73
     4
 74
     0
 42
0.0000000001
 43
0.0000000001
 40
0.0
 40
0.0
 40
0.0
 40
0.0
 40
1.0
 40
1.0
 40
1.0
 40
1.0
 10
15.2746
 20
-1.5219
 30
0.0
 10
15.2746
 20
-1.5219
 30
0.0
 10
15.2673
 20
-1.6352
 30
0.0
 10
15.2673
 20
-1.6352
 30
0.0
  0
SPLINE
  5
81
330
1F
100
AcDbEntity
  8
Ilustrace
 62
   250
370
    30
100
AcDbSpline
210
0.0
220
0.0
230
1.0
 70
     8
 71
     3
 72
     8
 73
     4
 74
     0
 42
0.0000000001
 43
0.0000000001
 40
0.0
 40
0.0
 40
0.0
 40
0.0
 40
1.0
 40
1.0
 40
1.0
 40
1.0
 10
-4.1454
 20
-5.4725
 30
0.0
 10
-4.1224
 20
-5.4646
 30
0.0
 10
-4.0989
 20
-5.4453
 30
0.0
 10
-4.0978
 20
-5.4179
 30
0.0
  0
SPLINE
  5
82
330
1F
100
AcDbEntity
  8
Ilustrace
 62
   250
370
    30
100
AcDbSpline
210
0.0
220
0.0
230
1.0
 70
     8
 71
     3
 72
    12
 73
     8
 74
     0
 42
0.0000000001
 43
0.0000000001
 40
0.0
 40
0.0
 40
0.0
 40
0.0
 40
0.3333333333333333
 40
0.3333333333333333
 40
0.3333333333333333
 40
0.3333333333333333
 40
1.0
 40
1.0
 40
1.0
 40
1.0
 10
-4.0978
 20
-5.4179
 30
0.0
 10
-4.0978
 20
-5.4179
 30
0.0
 10
-4.0912
 20
-5.0379
 30
0.0
 10
-4.0912
 20
-5.0379
 30
0.0
 10
-4.0912
 20
-5.0379
 30
0.0
 10
-4.0912
 20
-5.0379
 30
0.0
 10
-4.0509
 20
-2.7304
 30
0.0
 10
-4.0509
 20
-2.7304
 30
0.0
  0
SPLINE
  5
83
330
1F
100
AcDbEntity
  8
Ilustrace
 62
   250
370
    30
100
AcDbSpline
210
0.0
220
0.0
230
1.0
 70
     8
 71
     3
 72
    12
 73
     8
 74
     0
 42
0.0000000001
 43
0.0000000001
 40
0.0
 40
0.0
 40
0.0
 40
0.0
 40
0.3333333333333333
 40
0.3333333333333333
 40
0.3333333333333333
 40
0.3333333333333333
 40
1.0
 40
1.0
 40
1.0
 40
1.0
 10
23.233
 20
-5.4038
 30
0.0
 10
23.233
 20
-5.4038
 30
0.0
 10
23.2311
 20
-5.1994
 30
0.0
 10
23.2311
 20
-5.1994
 30
0.0
 10
23.2311
 20
-5.1994
 30
0.0
 10
23.2311
 20
-5.1994
 30
0.0
 10
23.2189
 20
-3.9585
 30
0.0
 10
23.2189
 20
-3.9585
 30
0.0
  0
SPLINE
  5
84
330
1F
100
AcDbEntity
  8
Ilustrace
 62
   250
370
    30
100
AcDbSpline
210
0.0
220
0.0
230
1.0
 70
     8
 71
     3
 72
    24
 73
    20
 74
     0
 42
0.0000000001
 43
0.0000000001
 40
0.0
 40
0.0
 40
0.0
 40
0.0
 40
0.1666666666666667
 40
0.1666666666666667
 40
0.1666666666666667
 40
0.1666666666666667
 40
0.3333333333333333
 40
0.3333333333333333
 40
0.3333333333333333
 40
0.3333333333333333
 40
0.5
 40
0.5
 40
0.5
 40
0.5
 40
0.6666666666666666
 40
0.6666666666666666
 40
0.6666666666666666
 40
0.6666666666666666
 40
1.0
 40
1.0
 40
1.0
 40
1.0
 10
-4.0509
 20
-2.7304
 30
0.0
 10
-4.0471
 20
-2.5084
 30
0.0
 10
-4.0606
 20
-2.2707
 30
0.0
 10
-4.0122
 20
-2.0505
 30
0.0
 10
-4.0122
 20
-2.0505
 30
0.0
 10
-3.9797
 20
-1.9027
 30
0.0
 10
-3.9249
 20
-1.76
 30
0.0
 10
-3.8504
 20
-1.6282
 30
0.0
 10
-3.8504
 20
-1.6282
 30
0.0
 10
-3.7956
 20
-1.5312
 30
0.0
 10
-3.7273
 20
-1.45
 30
0.0
 10
-3.6791
 20
-1.3491
 30
0.0
 10
-3.6791
 20
-1.3491
 30
0.0
 10
-3.6184
 20
-1.2225
 30
0.0
 10
-3.5853
 20
-1.0792
 30
0.0
 10
-3.583
 20
-0.9387
 30
0.0
 10
-3.583
 20
-0.9387
 30
0.0
 10
-3.5752
 20
-0.4684
 30
0.0
 10
-3.5851
 20
0.0027
 30
0.0
 10
-3.5861
 20
0.4731
 30
0.0
  0
SPLINE
  5
85
330
1F
100
AcDbEntity
  8
Ilustrace
 62
   250
370
    30
100
AcDbSpline
210
0.0
220
0.0
230
1.0
 70
     8
 71
     3
 72
     8
 73
     4
 74
     0
 42
0.0000000001
 43
0.0000000001
 40
0.0
 40
0.0
 40
0.0
 40
0.0
 40
1.0
 40
1.0
 40
1.0
 40
1.0
 10
23.2977
 20
-5.4739
 30
0.0
 10
23.2632
 20
-5.4689
 30
0.0
 10
23.2521
 20
-5.4486
 30
0.0
 10
23.2407
 20
-5.4179
 30
0.0
  0
SPLINE
  5
86
330
1F
100
AcDbEntity
  8
Ilustrace
 62
   250
370
    30
100
AcDbSpline
210
0.0
220
0.0
230
1.0
 70
     8
 71
     3
 72
     8
 73
     4
 74
     0
 42
0.0000000001
 43
0.0000000001
 40
0.0
 40
0.0
 40
0.0
 40
0.0
 40
1.0
 40
1.0
 40
1.0
 40
1.0
 10
13.5056
 20
-2.4626
 30
0.0
 10
13.1998
 20
-2.4305
 30
0.0
 10
12.9102
 20
-2.3739
 30
0.0
 10
12.6091
 20
-2.3098
 30
0.0
  0
SPLINE
  5
87
330
1F
100
AcDbEntity
  8
Ilustrace
 62
   250
370
    30
100
AcDbSpline
210
0.0
220
0.0
230
1.0
 70
     8
 71
     3
 72
    16
 73
    12
 74
     0
 42
0.0000000001
 43
0.0000000001
 40
0.0
 40
0.0
 40
0.0
 40
0.0
 40
0.25
 40
0.25
 40
0.25
 40
0.25
 40
0.5
 40
0.5
 40
0.5
 40
0.5
 40
1.0
 40
1.0
 40
1.0
 40
1.0
 10
12.6091
 20
-2.3098
 30
0.0
 10
12.6091
 20
-2.3098
 30
0.0
 10
6.5358
 20
-1.019
 30
0.0
 10
6.5358
 20
-1.019
 30
0.0
 10
6.5358
 20
-1.019
 30
0.0
 10
6.5358
 20
-1.019
 30
0.0
 10
6.1641
 20
-0.94
 30
0.0
 10
6.1641
 20
-0.94
 30
0.0
 10
6.1641
 20
-0.94
 30
0.0
 10
6.1641
 20
-0.94
 30
0.0
 10
5.9028
 20
-0.8938
 30
0.0
 10
5.9028
 20
-0.8938
 30
0.0
  0
SPLINE
  5
88
330
1F
100
AcDbEntity
  8
Ilustrace
 62
   250
370
    30
100
AcDbSpline
210
0.0
220
0.0
230
1.0
 70
     8
 71
     3
 72
     8
 73
     4
 74
     0
 42
0.0000000001
 43
0.0000000001
 40
0.0
 40
0.0
 40
0.0
 40
0.0
 40
1.0
 40
1.0
 40
1.0
 40
1.0
 10
5.9028
 20
-0.8938
 30
0.0
 10
5.6005
 20
-0.8514
 30
0.0
 10
5.2986
 20
-0.857
 30
0.0
 10
4.9941
 20
-0.857
 30
0.0
  0
SPLINE
  5
89
330
1F
100
AcDbEntity
  8
Ilustrace
 62
   250
370
    30
100
AcDbSpline
210
0.0
220
0.0
230
1.0
 70
    24
 71
     3
 72
    12
 73
     8
 74
     0
 42
0.0000000001
 43
0.0000000001
 40
0.0
 40
0.0
 40
0.0
 40
0.0
 40
0.3333333333333333
 40
0.3333333333333333
 40
0.3333333333333333
 40
0.3333333333333333
 40
1.0
 40
1.0
 40
1.0
 40
1.0
 10
4.9941
 20
-0.857
 30
0.0
 10
4.9941
 20
-0.857
 30
0.0
 10
4.5646
 20
-0.857
 30
0.0
 10
4.5646
 20
-0.857
 30
0.0
 10
4.5646
 20
-0.857
 30
0.0
 10
4.5646
 20
-0.857
 30
0.0
 10
4.1846
 20
-0.857
 30
0.0
 10
4.1846
 20
-0.857
 30
0.0
  0
SPLINE
  5
8A
330
1F
100
AcDbEntity
  8
Ilustrace
 62
   250
370
    30
100
AcDbSpline
210
0.0
220
0.0
230
1.0
 70
     8
 71
     3
 72
    12
 73
     8
 74
     0
 42
0.0000000001
 43
0.0000000001
 40
0.0
 40
0.0
 40
0.0
 40
0.0
 40
0.3333333333333333
 40
0.3333333333333333
 40
0.3333333333333333
 40
0.3333333333333333
 40
1.0
 40
1.0
 40
1.0
 40
1.0
 10
4.6764
 20
0.0864
 30
0.0
 10
4.6865
 20
-0.0436
 30
0.0
 10
4.7038
 20
-0.1668
 30
0.0
 10
4.7557
 20
-0.2879
 30
0.0
 10
4.7557
 20
-0.2879
 30
0.0
 10
4.9016
 20
-0.6283
 30
0.0
 10
5.2161
 20
-0.8242
 30
0.0
 10
5.5755
 20
-0.8623
 30
0.0
  0
SPLINE
  5
8B
330
1F
100
AcDbEntity
  8
Ilustrace
 62
   250
370
    30
100
AcDbSpline
210
0.0
220
0.0
230
1.0
 70
    24
 71
     3
 72
     8
 73
     4
 74
     0
 42
0.0000000001
 43
0.0000000001
 40
0.0
 40
0.0
 40
0.0
 40
0.0
 40
1.0
 40
1.0
 40
1.0
 40
1.0
 10
4.6727
 20
0.4731
 30
0.0
 10
4.6727
 20
0.4731
 30
0.0
 10
4.9054
 20
0.6631
 30
0.0
 10
4.9054
 20
0.6631
 30
0.0
  0
SPLINE
  5
8C
330
1F
100
AcDbEntity
  8
Ilustrace
 62
   250
370
    30
100
AcDbSpline
210
0.0
220
0.0
230
1.0
 70
     8
 71
     3
 72
    12
 73
     8
 74
     0
 42
0.0000000001
 43
0.0000000001
 40
0.0
 40
0.0
 40
0.0
 40
0.0
 40
0.3333333333333333
 40
0.3333333333333333
 40
0.3333333333333333
 40
0.3333333333333333
 40
1.0
 40
1.0
 40
1.0
 40
1.0
 10
14.3214
 20
-2.472
 30
0.0
 10
14.4402
 20
-2.465
 30
0.0
 10
14.5493
 20
-2.4528
 30
0.0
 10
14.6616
 20
-2.4101
 30
0.0
 10
14.6616
 20
-2.4101
 30
0.0
 10
14.9624
 20
-2.2958
 30
0.0
 10
15.1539
 20
-2.0476
 30
0.0
 10
15.2468
 20
-1.7482
 30
0.0
  0
SPLINE
  5
8D
330
1F
100
AcDbEntity
  8
Ilustrace
 62
   250
370
    30
100
AcDbSpline
210
0.0
220
0.0
230
1.0
 70
     8
 71
     3
 72
     8
 73
     4
 74
     0
 42
0.0000000001
 43
0.0000000001
 40
0.0
 40
0.0
 40
0.0
 40
0.0
 40
1.0
 40
1.0
 40
1.0
 40
1.0
 10
13.3731
 20
-2.4567
 30
0.0
 10
14.2302
 20
-2.4895
 30
0.0
 10
15.0887
 20
-2.472
 30
0.0
 10
15.9464
 20
-2.472
 30
0.0
  0
SPLINE
  5
8E
330
1F
100
AcDbEntity
  8
Ilustrace
 62
   250
370
    30
100
AcDbSpline
210
0.0
220
0.0
230
1.0
 70
     8
 71
     3
 72
    16
 73
    12
 74
     0
 42
0.0000000001
 43
0.0000000001
 40
0.0
 40
0.0
 40
0.0
 40
0.0
 40
0.25
 40
0.25
 40
0.25
 40
0.25
 40
0.5
 40
0.5
 40
0.5
 40
0.5
 40
1.0
 40
1.0
 40
1.0
 40
1.0
 10
23.2153
 20
-3.9654
 30
0.0
 10
23.2056
 20
-3.758
 30
0.0
 10
23.1725
 20
-3.5653
 30
0.0
 10
23.0875
 20
-3.3741
 30
0.0
 10
23.0875
 20
-3.3741
 30
0.0
 10
23.0228
 20
-3.2287
 30
0.0
 10
22.9338
 20
-3.1045
 30
0.0
 10
22.8968
 20
-2.9467
 30
0.0
 10
22.8968
 20
-2.9467
 30
0.0
 10
22.851
 20
-2.7529
 30
0.0
 10
22.8686
 20
-2.5424
 30
0.0
 10
22.8685
 20
-2.348
 30
0.0
  0
SPLINE
  5
8F
330
1F
100
AcDbEntity
  8
Ilustrace
 62
   250
370
    30
100
AcDbSpline
210
0.0
220
0.0
230
1.0
 70
     8
 71
     3
 72
    12
 73
     8
 74
     0
 42
0.0000000001
 43
0.0000000001
 40
0.0
 40
0.0
 40
0.0
 40
0.0
 40
0.3333333333333333
 40
0.3333333333333333
 40
0.3333333333333333
 40
0.3333333333333333
 40
1.0
 40
1.0
 40
1.0
 40
1.0
 10
22.8685
 20
-2.348
 30
0.0
 10
22.8685
 20
-2.348
 30
0.0
 10
22.8684
 20
-1.9019
 30
0.0
 10
22.8684
 20
-1.9019
 30
0.0
 10
22.8684
 20
-1.9019
 30
0.0
 10
22.8684
 20
-1.9019
 30
0.0
 10
22.8684
 20
-1.5219
 30
0.0
 10
22.8684
 20
-1.5219
 30
0.0
  0
SPLINE
  5
90
330
1F
100
AcDbEntity
  8
Ilustrace
 62
   250
370
    30
100
AcDbSpline
210
0.0
220
0.0
230
1.0
 70
    24
 71
     3
 72
     8
 73
     4
 74
     0
 42
0.0000000001
 43
0.0000000001
 40
0.0
 40
0.0
 40
0.0
 40
0.0
 40
1.0
 40
1.0
 40
1.0
 40
1.0
 10
24.2965
 20
1.9931
 30
0.0
 10
24.2965
 20
1.9931
 30
0.0
 10
13.8464
 20
1.9931
 30
0.0
 10
13.8464
 20
1.9931
 30
0.0
  0
SPLINE
  5
91
330
1F
100
AcDbEntity
  8
Ilustrace
 62
   250
370
    30
100
AcDbSpline
210
0.0
220
0.0
230
1.0
 70
    24
 71
     3
 72
     8
 73
     4
 74
     0
 42
0.0000000001
 43
0.0000000001
 40
0.0
 40
0.0
 40
0.0
 40
0.0
 40
1.0
 40
1.0
 40
1.0
 40
1.0
 10
13.8603
 20
1.4231
 30
0.0
 10
13.8603
 20
1.4231
 30
0.0
 10
15.1179
 20
1.4231
 30
0.0
 10
15.1179
 20
1.4231
 30
0.0
  0
SPLINE
  5
92
330
1F
100
AcDbEntity
  8
Ilustrace
 62
   250
370
    30
100
AcDbSpline
210
0.0
220
0.0
230
1.0
 70
    24
 71
     3
 72
     8
 73
     4
 74
     0
 42
0.0000000001
 43
0.0000000001
 40
0.0
 40
0.0
 40
0.0
 40
0.0
 40
1.0
 40
1.0
 40
1.0
 40
1.0
 10
15.6553
 20
1.4231
 30
0.0
 10
15.6553
 20
1.4231
 30
0.0
 10
18.6914
 20
1.4231
 30
0.0
 10
18.6914
 20
1.4231
 30
0.0
  0
SPLINE
  5
93
330
1F
100
AcDbEntity
  8
Ilustrace
 62
   250
370
    30
100
AcDbSpline
210
0.0
220
0.0
230
1.0
 70
    24
 71
     3
 72
     8
 73
     4
 74
     0
 42
0.0000000001
 43
0.0000000001
 40
0.0
 40
0.0
 40
0.0
 40
0.0
 40
1.0
 40
1.0
 40
1.0
 40
1.0
 10
19.5355
 20
1.9931
 30
0.0
 10
19.5355
 20
1.9931
 30
0.0
 10
18.9167
 20
1.9931
 30
0.0
 10
18.9167
 20
1.9931
 30
0.0
  0
SPLINE
  5
94
330
1F
100
AcDbEntity
  8
Ilustrace
 62
   250
370
    30
100
AcDbSpline
210
0.0
220
0.0
230
1.0
 70
    24
 71
     3
 72
     8
 73
     4
 74
     0
 42
0.0000000001
 43
0.0000000001
 40
0.0
 40
0.0
 40
0.0
 40
0.0
 40
1.0
 40
1.0
 40
1.0
 40
1.0
 10
22.4876
 20
1.4231
 30
0.0
 10
22.4876
 20
1.4231
 30
0.0
 10
19.4515
 20
1.4231
 30
0.0
 10
19.4515
 20
1.4231
 30
0.0
  0
SPLINE
  5
95
330
1F
100
AcDbEntity
  8
Ilustrace
 62
   250
370
    30
100
AcDbSpline
210
0.0
220
0.0
230
1.0
 70
    24
 71
     3
 72
     8
 73
     4
 74
     0
 42
0.0000000001
 43
0.0000000001
 40
0.0
 40
0.0
 40
0.0
 40
0.0
 40
1.0
 40
1.0
 40
1.0
 40
1.0
 10
24.2826
 20
1.4231
 30
0.0
 10
24.2826
 20
1.4231
 30
0.0
 10
23.025
 20
1.4231
 30
0.0
 10
23.025
 20
1.4231
 30
0.0
  0
SPLINE
  5
96
330
1F
100
AcDbEntity
  8
Ilustrace
 62
   250
370
    30
100
AcDbSpline
210
0.0
220
0.0
230
1.0
 70
    24
 71
     3
 72
     8
 73
     4
 74
     0
 42
0.0000000001
 43
0.0000000001
 40
0.0
 40
0.0
 40
0.0
 40
0.0
 40
1.0
 40
1.0
 40
1.0
 40
1.0
 10
24.2965
 20
1.9931
 30
0.0
 10
24.2965
 20
1.9931
 30
0.0
 10
24.2965
 20
-0.6669
 30
0.0
 10
24.2965
 20
-0.6669
 30
0.0
  0
SPLINE
  5
97
330
1F
100
AcDbEntity
  8
Ilustrace
 62
   250
370
    30
100
AcDbSpline
210
0.0
220
0.0
230
1.0
 70
    24
 71
     3
 72
     8
 73
     4
 74
     0
 42
0.0000000001
 43
0.0000000001
 40
0.0
 40
0.0
 40
0.0
 40
0.0
 40
1.0
 40
1.0
 40
1.0
 40
1.0
 10
24.2014
 20
-0.6669
 30
0.0
 10
24.2014
 20
-0.6669
 30
0.0
 10
24.2965
 20
-0.6669
 30
0.0
 10
24.2965
 20
-0.6669
 30
0.0
  0
SPLINE
  5
98
330
1F
100
AcDbEntity
  8
Ilustrace
 62
   250
370
    30
100
AcDbSpline
210
0.0
220
0.0
230
1.0
 70
    24
 71
     3
 72
     8
 73
     4
 74
     0
 42
0.0000000001
 43
0.0000000001
 40
0.0
 40
0.0
 40
0.0
 40
0.0
 40
1.0
 40
1.0
 40
1.0
 40
1.0
 10
13.8464
 20
-0.6669
 30
0.0
 10
13.8464
 20
-0.6669
 30
0.0
 10
13.9414
 20
-0.6669
 30
0.0
 10
13.9414
 20
-0.6669
 30
0.0
  0
SPLINE
  5
99
330
1F
100
AcDbEntity
  8
Ilustrace
 62
   250
370
    30
100
AcDbSpline
210
0.0
220
0.0
230
1.0
 70
    24
 71
     3
 72
     8
 73
     4
 74
     0
 42
0.0000000001
 43
0.0000000001
 40
0.0
 40
0.0
 40
0.0
 40
0.0
 40
1.0
 40
1.0
 40
1.0
 40
1.0
 10
13.8464
 20
-0.6669
 30
0.0
 10
13.8464
 20
-0.6669
 30
0.0
 10
13.8464
 20
1.9931
 30
0.0
 10
13.8464
 20
1.9931
 30
0.0
  0
SPLINE
  5
9A
330
1F
100
AcDbEntity
  8
Ilustrace
 62
   250
370
    30
100
AcDbSpline
210
0.0
220
0.0
230
1.0
 70
    24
 71
     3
 72
     8
 73
     4
 74
     0
 42
0.0000000001
 43
0.0000000001
 40
0.0
 40
0.0
 40
0.0
 40
0.0
 40
1.0
 40
1.0
 40
1.0
 40
1.0
 10
19.4515
 20
-0.2869
 30
0.0
 10
19.4515
 20
-0.2869
 30
0.0
 10
19.4473
 20
-0.3433
 30
0.0
 10
19.4473
 20
-0.3433
 30
0.0
  0
SPLINE
  5
9B
330
1F
100
AcDbEntity
  8
Ilustrace
 62
   250
370
    30
100
AcDbSpline
210
0.0
220
0.0
230
1.0
 70
    24
 71
     3
 72
    12
 73
     8
 74
     0
 42
0.0000000001
 43
0.0000000001
 40
0.0
 40
0.0
 40
0.0
 40
0.0
 40
0.3333333333333333
 40
0.3333333333333333
 40
0.3333333333333333
 40
0.3333333333333333
 40
1.0
 40
1.0
 40
1.0
 40
1.0
 10
18.6914
 20
1.4231
 30
0.0
 10
18.6914
 20
1.4231
 30
0.0
 10
18.6914
 20
1.043
 30
0.0
 10
18.6914
 20
1.043
 30
0.0
 10
18.6914
 20
1.043
 30
0.0
 10
18.6914
 20
1.043
 30
0.0
 10
18.6914
 20
0.093
 30
0.0
 10
18.6914
 20
0.093
 30
0.0
  0
SPLINE
  5
9C
330
1F
100
AcDbEntity
  8
Ilustrace
 62
   250
370
    30
100
AcDbSpline
210
0.0
220
0.0
230
1.0
 70
     8
 71
     3
 72
    16
 73
    12
 74
     0
 42
0.0000000001
 43
0.0000000001
 40
0.0
 40
0.0
 40
0.0
 40
0.0
 40
0.25
 40
0.25
 40
0.25
 40
0.25
 40
0.5
 40
0.5
 40
0.5
 40
0.5
 40
1.0
 40
1.0
 40
1.0
 40
1.0
 10
18.6914
 20
0.093
 30
0.0
 10
18.6914
 20
-0.0906
 30
0.0
 10
18.6581
 20
-0.2799
 30
0.0
 10
18.7293
 20
-0.4522
 30
0.0
 10
18.7293
 20
-0.4522
 30
0.0
 10
18.8115
 20
-0.6507
 30
0.0
 10
19.0837
 20
-0.7249
 30
0.0
 10
19.262
 20
-0.6157
 30
0.0
 10
19.262
 20
-0.6157
 30
0.0
 10
19.3659
 20
-0.552
 30
0.0
 10
19.4206
 20
-0.46
 30
0.0
 10
19.4473
 20
-0.3433
 30
0.0
  0
SPLINE
  5
9D
330
1F
100
AcDbEntity
  8
Ilustrace
 62
   250
370
    30
100
AcDbSpline
210
0.0
220
0.0
230
1.0
 70
     8
 71
     3
 72
    20
 73
    16
 74
     0
 42
0.0000000001
 43
0.0000000001
 40
0.0
 40
0.0
 40
0.0
 40
0.0
 40
0.2
 40
0.2
 40
0.2
 40
0.2
 40
0.4
 40
0.4
 40
0.4
 40
0.4
 40
0.6
 40
0.6
 40
0.6
 40
0.6
 40
1.0
 40
1.0
 40
1.0
 40
1.0
 10
19.4468
 20
-0.3463
 30
0.0
 10
19.4468
 20
-0.3463
 30
0.0
 10
19.4515
 20
-0.2869
 30
0.0
 10
19.4515
 20
-0.2869
 30
0.0
 10
19.4515
 20
-0.2869
 30
0.0
 10
19.4515
 20
-0.2869
 30
0.0
 10
19.4515
 20
0.093
 30
0.0
 10
19.4515
 20
0.093
 30
0.0
 10
19.4515
 20
0.093
 30
0.0
 10
19.4515
 20
0.093
 30
0.0
 10
19.4515
 20
1.043
 30
0.0
 10
19.4515
 20
1.043
 30
0.0
 10
19.4515
 20
1.043
 30
0.0
 10
19.4515
 20
1.043
 30
0.0
 10
19.4515
 20
1.4231
 30
0.0
 10
19.4515
 20
1.4231
 30
0.0
  0
SPLINE
  5
9E
330
1F
100
AcDbEntity
  8
Ilustrace
 62
   250
370
    30
100
AcDbSpline
210
0.0
220
0.0
230
1.0
 70
     8
 71
     3
 72
    12
 73
     8
 74
     0
 42
0.0000000001
 43
0.0000000001
 40
0.0
 40
0.0
 40
0.0
 40
0.0
 40
0.3333333333333333
 40
0.3333333333333333
 40
0.3333333333333333
 40
0.3333333333333333
 40
1.0
 40
1.0
 40
1.0
 40
1.0
 10
22.679
 20
-0.6659
 30
0.0
 10
22.7368
 20
-0.6665
 30
0.0
 10
22.7943
 20
-0.6736
 30
0.0
 10
22.8482
 20
-0.6484
 30
0.0
 10
22.8482
 20
-0.6484
 30
0.0
 10
22.979
 20
-0.5869
 30
0.0
 10
23.0241
 20
-0.4193
 30
0.0
 10
23.025
 20
-0.2869
 30
0.0
  0
SPLINE
  5
9F
330
1F
100
AcDbEntity
  8
Ilustrace
 62
   250
370
    30
100
AcDbSpline
210
0.0
220
0.0
230
1.0
 70
    24
 71
     3
 72
    16
 73
    12
 74
     0
 42
0.0000000001
 43
0.0000000001
 40
0.0
 40
0.0
 40
0.0
 40
0.0
 40
0.25
 40
0.25
 40
0.25
 40
0.25
 40
0.5
 40
0.5
 40
0.5
 40
0.5
 40
1.0
 40
1.0
 40
1.0
 40
1.0
 10
23.025
 20
-0.2869
 30
0.0
 10
23.025
 20
-0.2869
 30
0.0
 10
23.025
 20
0.093
 30
0.0
 10
23.025
 20
0.093
 30
0.0
 10
23.025
 20
0.093
 30
0.0
 10
23.025
 20
0.093
 30
0.0
 10
23.025
 20
1.043
 30
0.0
 10
23.025
 20
1.043
 30
0.0
 10
23.025
 20
1.043
 30
0.0
 10
23.025
 20
1.043
 30
0.0
 10
23.025
 20
1.4231
 30
0.0
 10
23.025
 20
1.4231
 30
0.0
  0
SPLINE
  5
A0
330
1F
100
AcDbEntity
  8
Ilustrace
 62
   250
370
    30
100
AcDbSpline
210
0.0
220
0.0
230
1.0
 70
    24
 71
     3
 72
     8
 73
     4
 74
     0
 42
0.0000000001
 43
0.0000000001
 40
0.0
 40
0.0
 40
0.0
 40
0.0
 40
1.0
 40
1.0
 40
1.0
 40
1.0
 10
24.2014
 20
-0.6669
 30
0.0
 10
24.2014
 20
-0.6669
 30
0.0
 10
24.2014
 20
-0.9045
 30
0.0
 10
24.2014
 20
-0.9045
 30
0.0
  0
SPLINE
  5
A1
330
1F
100
AcDbEntity
  8
Ilustrace
 62
   250
370
    30
100
AcDbSpline
210
0.0
220
0.0
230
1.0
 70
     8
 71
     3
 72
    16
 73
    12
 74
     0
 42
0.0000000001
 43
0.0000000001
 40
0.0
 40
0.0
 40
0.0
 40
0.0
 40
0.25
 40
0.25
 40
0.25
 40
0.25
 40
0.5
 40
0.5
 40
0.5
 40
0.5
 40
1.0
 40
1.0
 40
1.0
 40
1.0
 10
24.2014
 20
-0.9045
 30
0.0
 10
24.2014
 20
-1.1065
 30
0.0
 10
24.2278
 20
-1.3162
 30
0.0
 10
24.0449
 20
-1.4493
 30
0.0
 10
24.0449
 20
-1.4493
 30
0.0
 10
24.0126
 20
-1.4727
 30
0.0
 10
23.977
 20
-1.491
 30
0.0
 10
23.939
 20
-1.5034
 30
0.0
 10
23.939
 20
-1.5034
 30
0.0
 10
23.8882
 20
-1.5197
 30
0.0
 10
23.874
 20
-1.5177
 30
0.0
 10
23.8215
 20
-1.5219
 30
0.0
  0
SPLINE
  5
A2
330
1F
100
AcDbEntity
  8
Ilustrace
 62
   250
370
    30
100
AcDbSpline
210
0.0
220
0.0
230
1.0
 70
    24
 71
     3
 72
    16
 73
    12
 74
     0
 42
0.0000000001
 43
0.0000000001
 40
0.0
 40
0.0
 40
0.0
 40
0.0
 40
0.25
 40
0.25
 40
0.25
 40
0.25
 40
0.5
 40
0.5
 40
0.5
 40
0.5
 40
1.0
 40
1.0
 40
1.0
 40
1.0
 10
23.8215
 20
-1.5219
 30
0.0
 10
23.8215
 20
-1.5219
 30
0.0
 10
23.4414
 20
-1.5219
 30
0.0
 10
23.4414
 20
-1.5219
 30
0.0
 10
23.4414
 20
-1.5219
 30
0.0
 10
23.4414
 20
-1.5219
 30
0.0
 10
14.7015
 20
-1.5219
 30
0.0
 10
14.7015
 20
-1.5219
 30
0.0
 10
14.7015
 20
-1.5219
 30
0.0
 10
14.7015
 20
-1.5219
 30
0.0
 10
14.3214
 20
-1.5219
 30
0.0
 10
14.3214
 20
-1.5219
 30
0.0
  0
SPLINE
  5
A3
330
1F
100
AcDbEntity
  8
Ilustrace
 62
   250
370
    30
100
AcDbSpline
210
0.0
220
0.0
230
1.0
 70
     8
 71
     3
 72
    16
 73
    12
 74
     0
 42
0.0000000001
 43
0.0000000001
 40
0.0
 40
0.0
 40
0.0
 40
0.0
 40
0.25
 40
0.25
 40
0.25
 40
0.25
 40
0.5
 40
0.5
 40
0.5
 40
0.5
 40
1.0
 40
1.0
 40
1.0
 40
1.0
 10
14.3214
 20
-1.5219
 30
0.0
 10
14.2802
 20
-1.5215
 30
0.0
 10
14.2433
 20
-1.5161
 30
0.0
 10
14.204
 20
-1.5034
 30
0.0
 10
14.204
 20
-1.5034
 30
0.0
 10
14.1661
 20
-1.491
 30
0.0
 10
14.1302
 20
-1.4727
 30
0.0
 10
14.098
 20
-1.4493
 30
0.0
 10
14.098
 20
-1.4493
 30
0.0
 10
13.9151
 20
-1.3162
 30
0.0
 10
13.9414
 20
-1.1065
 30
0.0
 10
13.9414
 20
-0.9045
 30
0.0
  0
SPLINE
  5
A4
330
1F
100
AcDbEntity
  8
Ilustrace
 62
   250
370
    30
100
AcDbSpline
210
0.0
220
0.0
230
1.0
 70
    24
 71
     3
 72
     8
 73
     4
 74
     0
 42
0.0000000001
 43
0.0000000001
 40
0.0
 40
0.0
 40
0.0
 40
0.0
 40
1.0
 40
1.0
 40
1.0
 40
1.0
 10
13.9414
 20
-0.9045
 30
0.0
 10
13.9414
 20
-0.9045
 30
0.0
 10
13.9414
 20
-0.6669
 30
0.0
 10
13.9414
 20
-0.6669
 30
0.0
  0
SPLINE
  5
A5
330
1F
100
AcDbEntity
  8
Ilustrace
 62
   250
370
    30
100
AcDbSpline
210
0.0
220
0.0
230
1.0
 70
    24
 71
     3
 72
    16
 73
    12
 74
     0
 42
0.0000000001
 43
0.0000000001
 40
0.0
 40
0.0
 40
0.0
 40
0.0
 40
0.25
 40
0.25
 40
0.25
 40
0.25
 40
0.5
 40
0.5
 40
0.5
 40
0.5
 40
1.0
 40
1.0
 40
1.0
 40
1.0
 10
15.1179
 20
1.4231
 30
0.0
 10
15.1179
 20
1.4231
 30
0.0
 10
15.1179
 20
1.043
 30
0.0
 10
15.1179
 20
1.043
 30
0.0
 10
15.1179
 20
1.043
 30
0.0
 10
15.1179
 20
1.043
 30
0.0
 10
15.1179
 20
0.093
 30
0.0
 10
15.1179
 20
0.093
 30
0.0
 10
15.1179
 20
0.093
 30
0.0
 10
15.1179
 20
0.093
 30
0.0
 10
15.1179
 20
-0.2869
 30
0.0
 10
15.1179
 20
-0.2869
 30
0.0
  0
SPLINE
  5
A6
330
1F
100
AcDbEntity
  8
Ilustrace
 62
   250
370
    30
100
AcDbSpline
210
0.0
220
0.0
230
1.0
 70
     8
 71
     3
 72
    12
 73
     8
 74
     0
 42
0.0000000001
 43
0.0000000001
 40
0.0
 40
0.0
 40
0.0
 40
0.0
 40
0.3333333333333333
 40
0.3333333333333333
 40
0.3333333333333333
 40
0.3333333333333333
 40
1.0
 40
1.0
 40
1.0
 40
1.0
 10
15.1179
 20
-0.2869
 30
0.0
 10
15.1189
 20
-0.4193
 30
0.0
 10
15.1638
 20
-0.5869
 30
0.0
 10
15.2948
 20
-0.6484
 30
0.0
 10
15.2948
 20
-0.6484
 30
0.0
 10
15.3486
 20
-0.6736
 30
0.0
 10
15.4063
 20
-0.6665
 30
0.0
 10
15.4638
 20
-0.6659
 30
0.0
  0
SPLINE
  5
A7
330
1F
100
AcDbEntity
  8
Ilustrace
 62
   250
370
    30
100
AcDbSpline
210
0.0
220
0.0
230
1.0
 70
     8
 71
     3
 72
     8
 73
     4
 74
     0
 42
0.0000000001
 43
0.0000000001
 40
0.0
 40
0.0
 40
0.0
 40
0.0
 40
1.0
 40
1.0
 40
1.0
 40
1.0
 10
13.8603
 20
1.4231
 30
0.0
 10
13.8601
 20
0.7272
 30
0.0
 10
13.8867
 20
0.0281
 30
0.0
 10
13.8464
 20
-0.6669
 30
0.0
  0
SPLINE
  5
A8
330
1F
100
AcDbEntity
  8
Ilustrace
 62
   250
370
    30
100
AcDbSpline
210
0.0
220
0.0
230
1.0
 70
     8
 71
     3
 72
     8
 73
     4
 74
     0
 42
0.0000000001
 43
0.0000000001
 40
0.0
 40
0.0
 40
0.0
 40
0.0
 40
1.0
 40
1.0
 40
1.0
 40
1.0
 10
13.9555
 20
1.4231
 30
0.0
 10
13.9554
 20
0.7272
 30
0.0
 10
13.9811
 20
0.0282
 30
0.0
 10
13.9414
 20
-0.6669
 30
0.0
  0
SPLINE
  5
A9
330
1F
100
AcDbEntity
  8
Ilustrace
 62
   250
370
    30
100
AcDbSpline
210
0.0
220
0.0
230
1.0
 70
    24
 71
     3
 72
    12
 73
     8
 74
     0
 42
0.0000000001
 43
0.0000000001
 40
0.0
 40
0.0
 40
0.0
 40
0.0
 40
0.3333333333333333
 40
0.3333333333333333
 40
0.3333333333333333
 40
0.3333333333333333
 40
1.0
 40
1.0
 40
1.0
 40
1.0
 10
15.6553
 20
1.4231
 30
0.0
 10
15.6553
 20
1.4231
 30
0.0
 10
15.6553
 20
1.043
 30
0.0
 10
15.6553
 20
1.043
 30
0.0
 10
15.6553
 20
1.043
 30
0.0
 10
15.6553
 20
1.043
 30
0.0
 10
15.6553
 20
0.093
 30
0.0
 10
15.6553
 20
0.093
 30
0.0
  0
SPLINE
  5
AA
330
1F
100
AcDbEntity
  8
Ilustrace
 62
   250
370
    30
100
AcDbSpline
210
0.0
220
0.0
230
1.0
 70
     8
 71
     3
 72
     8
 73
     4
 74
     0
 42
0.0000000001
 43
0.0000000001
 40
0.0
 40
0.0
 40
0.0
 40
0.0
 40
1.0
 40
1.0
 40
1.0
 40
1.0
 10
15.6553
 20
0.093
 30
0.0
 10
15.6553
 20
-0.13
 30
0.0
 10
15.7265
 20
-0.628
 30
0.0
 10
15.3768
 20
-0.6669
 30
0.0
  0
SPLINE
  5
AB
330
1F
100
AcDbEntity
  8
Ilustrace
 62
   250
370
    30
100
AcDbSpline
210
0.0
220
0.0
230
1.0
 70
    24
 71
     3
 72
    12
 73
     8
 74
     0
 42
0.0000000001
 43
0.0000000001
 40
0.0
 40
0.0
 40
0.0
 40
0.0
 40
0.3333333333333333
 40
0.3333333333333333
 40
0.3333333333333333
 40
0.3333333333333333
 40
1.0
 40
1.0
 40
1.0
 40
1.0
 10
15.7227
 20
1.4231
 30
0.0
 10
15.7227
 20
1.4231
 30
0.0
 10
15.7227
 20
1.043
 30
0.0
 10
15.7227
 20
1.043
 30
0.0
 10
15.7227
 20
1.043
 30
0.0
 10
15.7227
 20
1.043
 30
0.0
 10
15.7227
 20
0.093
 30
0.0
 10
15.7227
 20
0.093
 30
0.0
  0
SPLINE
  5
AC
330
1F
100
AcDbEntity
  8
Ilustrace
 62
   250
370
    30
100
AcDbSpline
210
0.0
220
0.0
230
1.0
 70
     8
 71
     3
 72
     8
 73
     4
 74
     0
 42
0.0000000001
 43
0.0000000001
 40
0.0
 40
0.0
 40
0.0
 40
0.0
 40
1.0
 40
1.0
 40
1.0
 40
1.0
 10
15.7227
 20
0.093
 30
0.0
 10
15.7227
 20
-0.1351
 30
0.0
 10
15.7938
 20
-0.5972
 30
0.0
 10
15.4638
 20
-0.6659
 30
0.0
  0
SPLINE
  5
AD
330
1F
100
AcDbEntity
  8
Ilustrace
 62
   250
370
    30
100
AcDbSpline
210
0.0
220
0.0
230
1.0
 70
     8
 71
     3
 72
    12
 73
     8
 74
     0
 42
0.0000000001
 43
0.0000000001
 40
0.0
 40
0.0
 40
0.0
 40
0.0
 40
0.3333333333333333
 40
0.3333333333333333
 40
0.3333333333333333
 40
0.3333333333333333
 40
1.0
 40
1.0
 40
1.0
 40
1.0
 10
19.4468
 20
-0.3463
 30
0.0
 10
19.4007
 20
-0.5382
 30
0.0
 10
19.2681
 20
-0.6515
 30
0.0
 10
19.0714
 20
-0.6669
 30
0.0
 10
19.0714
 20
-0.6669
 30
0.0
 10
18.8524
 20
-0.6496
 30
0.0
 10
18.7087
 20
-0.506
 30
0.0
 10
18.6914
 20
-0.2869
 30
0.0
  0
SPLINE
  5
AE
330
1F
100
AcDbEntity
  8
Ilustrace
 62
   250
370
    30
100
AcDbSpline
210
0.0
220
0.0
230
1.0
 70
    24
 71
     3
 72
    12
 73
     8
 74
     0
 42
0.0000000001
 43
0.0000000001
 40
0.0
 40
0.0
 40
0.0
 40
0.0
 40
0.3333333333333333
 40
0.3333333333333333
 40
0.3333333333333333
 40
0.3333333333333333
 40
1.0
 40
1.0
 40
1.0
 40
1.0
 10
22.4202
 20
1.4231
 30
0.0
 10
22.4202
 20
1.4231
 30
0.0
 10
22.4202
 20
1.043
 30
0.0
 10
22.4202
 20
1.043
 30
0.0
 10
22.4202
 20
1.043
 30
0.0
 10
22.4202
 20
1.043
 30
0.0
 10
22.4202
 20
0.093
 30
0.0
 10
22.4202
 20
0.093
 30
0.0
  0
SPLINE
  5
AF
330
1F
100
AcDbEntity
  8
Ilustrace
 62
   250
370
    30
100
AcDbSpline
210
0.0
220
0.0
230
1.0
 70
     8
 71
     3
 72
     8
 73
     4
 74
     0
 42
0.0000000001
 43
0.0000000001
 40
0.0
 40
0.0
 40
0.0
 40
0.0
 40
1.0
 40
1.0
 40
1.0
 40
1.0
 10
22.4202
 20
0.093
 30
0.0
 10
22.4202
 20
-0.1351
 30
0.0
 10
22.3491
 20
-0.597
 30
0.0
 10
22.679
 20
-0.6659
 30
0.0
  0
SPLINE
  5
B0
330
1F
100
AcDbEntity
  8
Ilustrace
 62
   250
370
    30
100
AcDbSpline
210
0.0
220
0.0
230
1.0
 70
    24
 71
     3
 72
    12
 73
     8
 74
     0
 42
0.0000000001
 43
0.0000000001
 40
0.0
 40
0.0
 40
0.0
 40
0.0
 40
0.3333333333333333
 40
0.3333333333333333
 40
0.3333333333333333
 40
0.3333333333333333
 40
1.0
 40
1.0
 40
1.0
 40
1.0
 10
22.4876
 20
1.4231
 30
0.0
 10
22.4876
 20
1.4231
 30
0.0
 10
22.4876
 20
1.043
 30
0.0
 10
22.4876
 20
1.043
 30
0.0
 10
22.4876
 20
1.043
 30
0.0
 10
22.4876
 20
1.043
 30
0.0
 10
22.4876
 20
0.093
 30
0.0
 10
22.4876
 20
0.093
 30
0.0
  0
SPLINE
  5
B1
330
1F
100
AcDbEntity
  8
Ilustrace
 62
   250
370
    30
100
AcDbSpline
210
0.0
220
0.0
230
1.0
 70
     8
 71
     3
 72
     8
 73
     4
 74
     0
 42
0.0000000001
 43
0.0000000001
 40
0.0
 40
0.0
 40
0.0
 40
0.0
 40
1.0
 40
1.0
 40
1.0
 40
1.0
 10
22.4876
 20
0.093
 30
0.0
 10
22.4876
 20
-0.1295
 30
0.0
 10
22.4164
 20
-0.6283
 30
0.0
 10
22.7661
 20
-0.6669
 30
0.0
  0
SPLINE
  5
B2
330
1F
100
AcDbEntity
  8
Ilustrace
 62
   250
370
    30
100
AcDbSpline
210
0.0
220
0.0
230
1.0
 70
     8
 71
     3
 72
     8
 73
     4
 74
     0
 42
0.0000000001
 43
0.0000000001
 40
0.0
 40
0.0
 40
0.0
 40
0.0
 40
1.0
 40
1.0
 40
1.0
 40
1.0
 10
24.2014
 20
-0.6669
 30
0.0
 10
24.1842
 20
-0.4136
 30
0.0
 10
24.1874
 20
-0.161
 30
0.0
 10
24.1874
 20
0.093
 30
0.0
  0
SPLINE
  5
B3
330
1F
100
AcDbEntity
  8
Ilustrace
 62
   250
370
    30
100
AcDbSpline
210
0.0
220
0.0
230
1.0
 70
    24
 71
     3
 72
    12
 73
     8
 74
     0
 42
0.0000000001
 43
0.0000000001
 40
0.0
 40
0.0
 40
0.0
 40
0.0
 40
0.3333333333333333
 40
0.3333333333333333
 40
0.3333333333333333
 40
0.3333333333333333
 40
1.0
 40
1.0
 40
1.0
 40
1.0
 10
24.1874
 20
0.093
 30
0.0
 10
24.1874
 20
0.093
 30
0.0
 10
24.1874
 20
1.043
 30
0.0
 10
24.1874
 20
1.043
 30
0.0
 10
24.1874
 20
1.043
 30
0.0
 10
24.1874
 20
1.043
 30
0.0
 10
24.1874
 20
1.4231
 30
0.0
 10
24.1874
 20
1.4231
 30
0.0
  0
SPLINE
  5
B4
330
1F
100
AcDbEntity
  8
Ilustrace
 62
   250
370
    30
100
AcDbSpline
210
0.0
220
0.0
230
1.0
 70
    24
 71
     3
 72
    12
 73
     8
 74
     0
 42
0.0000000001
 43
0.0000000001
 40
0.0
 40
0.0
 40
0.0
 40
0.0
 40
0.3333333333333333
 40
0.3333333333333333
 40
0.3333333333333333
 40
0.3333333333333333
 40
1.0
 40
1.0
 40
1.0
 40
1.0
 10
24.2826
 20
1.4231
 30
0.0
 10
24.2826
 20
1.4231
 30
0.0
 10
24.2826
 20
1.043
 30
0.0
 10
24.2826
 20
1.043
 30
0.0
 10
24.2826
 20
1.043
 30
0.0
 10
24.2826
 20
1.043
 30
0.0
 10
24.2826
 20
0.093
 30
0.0
 10
24.2826
 20
0.093
 30
0.0
  0
SPLINE
  5
B5
330
1F
100
AcDbEntity
  8
Ilustrace
 62
   250
370
    30
100
AcDbSpline
210
0.0
220
0.0
230
1.0
 70
     8
 71
     3
 72
     8
 73
     4
 74
     0
 42
0.0000000001
 43
0.0000000001
 40
0.0
 40
0.0
 40
0.0
 40
0.0
 40
1.0
 40
1.0
 40
1.0
 40
1.0
 10
24.2826
 20
0.093
 30
0.0
 10
24.2826
 20
-0.1608
 30
0.0
 10
24.2789
 20
-0.4136
 30
0.0
 10
24.2965
 20
-0.6669
 30
0.0
  0
SPLINE
  5
B6
330
1F
100
AcDbEntity
  8
Ilustrace
 62
   250
370
    30
100
AcDbSpline
210
0.0
220
0.0
230
1.0
 70
    24
 71
     3
 72
     8
 73
     4
 74
     0
 42
0.0000000001
 43
0.0000000001
 40
0.0
 40
0.0
 40
0.0
 40
0.0
 40
1.0
 40
1.0
 40
1.0
 40
1.0
 10
-24.1326
 20
1.1388
 30
0.0
 10
-24.1326
 20
1.1388
 30
0.0
 10
-24.7716
 20
8.4435
 30
0.0
 10
-24.7716
 20
8.4435
 30
0.0
  0
SPLINE
  5
B7
330
1F
100
AcDbEntity
  8
Ilustrace
 62
   250
370
    30
100
AcDbSpline
210
0.0
220
0.0
230
1.0
 70
    24
 71
     3
 72
     8
 73
     4
 74
     0
 42
0.0000000001
 43
0.0000000001
 40
0.0
 40
0.0
 40
0.0
 40
0.0
 40
1.0
 40
1.0
 40
1.0
 40
1.0
 10
-16.5498
 20
1.668
 30
0.0
 10
-16.5498
 20
1.668
 30
0.0
 10
-17.2122
 20
9.2391
 30
0.0
 10
-17.2122
 20
9.2391
 30
0.0
  0
SPLINE
  5
B8
330
1F
100
AcDbEntity
  8
Ilustrace
 62
   250
370
    30
100
AcDbSpline
210
0.0
220
0.0
230
1.0
 70
    24
 71
     3
 72
     8
 73
     4
 74
     0
 42
0.0000000001
 43
0.0000000001
 40
0.0
 40
0.0
 40
0.0
 40
0.0
 40
1.0
 40
1.0
 40
1.0
 40
1.0
 10
-3.2675
 20
4.1464
 30
0.0
 10
-3.2675
 20
4.1464
 30
0.0
 10
-3.2675
 20
5.4143
 30
0.0
 10
-3.2675
 20
5.4143
 30
0.0
  0
SPLINE
  5
B9
330
1F
100
AcDbEntity
  8
Ilustrace
 62
   250
370
    30
100
AcDbSpline
210
0.0
220
0.0
230
1.0
 70
     8
 71
     3
 72
    20
 73
    16
 74
     0
 42
0.0000000001
 43
0.0000000001
 40
0.0
 40
0.0
 40
0.0
 40
0.0
 40
0.2
 40
0.2
 40
0.2
 40
0.2
 40
0.4
 40
0.4
 40
0.4
 40
0.4
 40
0.6
 40
0.6
 40
0.6
 40
0.6
 40
1.0
 40
1.0
 40
1.0
 40
1.0
 10
-17.5738
 20
9.2265
 30
0.0
 10
-17.5738
 20
9.2265
 30
0.0
 10
-17.9525
 20
9.1934
 30
0.0
 10
-17.9525
 20
9.1934
 30
0.0
 10
-17.9525
 20
9.1934
 30
0.0
 10
-17.9525
 20
9.1934
 30
0.0
 10
-23.8386
 20
8.6784
 30
0.0
 10
-23.8386
 20
8.6784
 30
0.0
 10
-23.8386
 20
8.6784
 30
0.0
 10
-23.8386
 20
8.6784
 30
0.0
 10
-24.2171
 20
8.6453
 30
0.0
 10
-24.2171
 20
8.6453
 30
0.0
 10
-24.2171
 20
8.6453
 30
0.0
 10
-24.2171
 20
8.6453
 30
0.0
 10
-24.7716
 20
8.4435
 30
0.0
 10
-24.7716
 20
8.4435
 30
0.0
  0
SPLINE
  5
BA
330
1F
100
AcDbEntity
  8
Ilustrace
 62
   250
370
    30
100
AcDbSpline
210
0.0
220
0.0
230
1.0
 70
     8
 71
     3
 72
     8
 73
     4
 74
     0
 42
0.0000000001
 43
0.0000000001
 40
0.0
 40
0.0
 40
0.0
 40
0.0
 40
1.0
 40
1.0
 40
1.0
 40
1.0
 10
-16.9082
 20
1.6175
 30
0.0
 10
-19.1226
 20
1.4238
 30
0.0
 10
-21.337
 20
1.2301
 30
0.0
 10
-23.5514
 20
1.0363
 30
0.0
  0
SPLINE
  5
BB
330
1F
100
AcDbEntity
  8
Ilustrace
 62
   250
370
    30
100
AcDbSpline
210
0.0
220
0.0
230
1.0
 70
    24
 71
     3
 72
     8
 73
     4
 74
     0
 42
0.0000000001
 43
0.0000000001
 40
0.0
 40
0.0
 40
0.0
 40
0.0
 40
1.0
 40
1.0
 40
1.0
 40
1.0
 10
-23.5514
 20
1.0363
 30
0.0
 10
-23.5514
 20
1.0363
 30
0.0
 10
-24.1326
 20
1.1388
 30
0.0
 10
-24.1326
 20
1.1388
 30
0.0
  0
SPLINE
  5
BC
330
1F
100
AcDbEntity
  8
Ilustrace
 62
   250
370
    30
100
AcDbSpline
210
0.0
220
0.0
230
1.0
 70
     8
 71
     3
 72
    24
 73
    20
 74
     0
 42
0.0000000001
 43
0.0000000001
 40
0.0
 40
0.0
 40
0.0
 40
0.0
 40
0.1666666666666667
 40
0.1666666666666667
 40
0.1666666666666667
 40
0.1666666666666667
 40
0.3333333333333333
 40
0.3333333333333333
 40
0.3333333333333333
 40
0.3333333333333333
 40
0.5
 40
0.5
 40
0.5
 40
0.5
 40
0.6666666666666666
 40
0.6666666666666666
 40
0.6666666666666666
 40
0.6666666666666666
 40
1.0
 40
1.0
 40
1.0
 40
1.0
 10
-16.5498
 20
1.668
 30
0.0
 10
-16.5498
 20
1.668
 30
0.0
 10
-16.1713
 20
1.701
 30
0.0
 10
-16.1713
 20
1.701
 30
0.0
 10
-16.1713
 20
1.701
 30
0.0
 10
-16.1713
 20
1.701
 30
0.0
 10
-7.112
 20
2.4937
 30
0.0
 10
-7.112
 20
2.4937
 30
0.0
 10
-7.112
 20
2.4937
 30
0.0
 10
-7.112
 20
2.4937
 30
0.0
 10
-6.7333
 20
2.5268
 30
0.0
 10
-6.7333
 20
2.5268
 30
0.0
 10
-6.7333
 20
2.5268
 30
0.0
 10
-6.7333
 20
2.5268
 30
0.0
 10
-6.4892
 20
2.8179
 30
0.0
 10
-6.4892
 20
2.8179
 30
0.0
 10
-6.4892
 20
2.8179
 30
0.0
 10
-6.4892
 20
2.8179
 30
0.0
 10
-4.8903
 20
4.7233
 30
0.0
 10
-4.8903
 20
4.7233
 30
0.0
  0
SPLINE
  5
BD
330
1F
100
AcDbEntity
  8
Ilustrace
 62
   250
370
    30
100
AcDbSpline
210
0.0
220
0.0
230
1.0
 70
     8
 71
     3
 72
    12
 73
     8
 74
     0
 42
0.0000000001
 43
0.0000000001
 40
0.0
 40
0.0
 40
0.0
 40
0.0
 40
0.3333333333333333
 40
0.3333333333333333
 40
0.3333333333333333
 40
0.3333333333333333
 40
1.0
 40
1.0
 40
1.0
 40
1.0
 10
-4.8903
 20
4.7233
 30
0.0
 10
-4.6996
 20
4.9506
 30
0.0
 10
-4.5336
 20
5.1907
 30
0.0
 10
-4.2433
 20
5.2964
 30
0.0
 10
-4.2433
 20
5.2964
 30
0.0
 10
-4.0658
 20
5.3611
 30
0.0
 10
-3.795
 20
5.3681
 30
0.0
 10
-3.6227
 20
5.3832
 30
0.0
  0
SPLINE
  5
BE
330
1F
100
AcDbEntity
  8
Ilustrace
 62
   250
370
    30
100
AcDbSpline
210
0.0
220
0.0
230
1.0
 70
     8
 71
     3
 72
    12
 73
     8
 74
     0
 42
0.0000000001
 43
0.0000000001
 40
0.0
 40
0.0
 40
0.0
 40
0.0
 40
0.3333333333333333
 40
0.3333333333333333
 40
0.3333333333333333
 40
0.3333333333333333
 40
1.0
 40
1.0
 40
1.0
 40
1.0
 10
-3.6227
 20
5.3832
 30
0.0
 10
-3.6227
 20
5.3832
 30
0.0
 10
-1.0717
 20
5.6064
 30
0.0
 10
-1.0717
 20
5.6064
 30
0.0
 10
-1.0717
 20
5.6064
 30
0.0
 10
-1.0717
 20
5.6064
 30
0.0
 10
-0.6931
 20
5.6395
 30
0.0
 10
-0.6931
 20
5.6395
 30
0.0
  0
SPLINE
  5
BF
330
1F
100
AcDbEntity
  8
Ilustrace
 62
   250
370
    30
100
AcDbSpline
210
0.0
220
0.0
230
1.0
 70
     8
 71
     3
 72
    24
 73
    20
 74
     0
 42
0.0000000001
 43
0.0000000001
 40
0.0
 40
0.0
 40
0.0
 40
0.0
 40
0.1666666666666667
 40
0.1666666666666667
 40
0.1666666666666667
 40
0.1666666666666667
 40
0.3333333333333333
 40
0.3333333333333333
 40
0.3333333333333333
 40
0.3333333333333333
 40
0.5
 40
0.5
 40
0.5
 40
0.5
 40
0.6666666666666666
 40
0.6666666666666666
 40
0.6666666666666666
 40
0.6666666666666666
 40
1.0
 40
1.0
 40
1.0
 40
1.0
 10
-17.585
 20
9.4814
 30
0.0
 10
-17.585
 20
9.4814
 30
0.0
 10
-17.5938
 20
9.4536
 30
0.0
 10
-17.5938
 20
9.4536
 30
0.0
 10
-17.5938
 20
9.4536
 30
0.0
 10
-17.5938
 20
9.4536
 30
0.0
 10
-17.5607
 20
9.0751
 30
0.0
 10
-17.5607
 20
9.0751
 30
0.0
 10
-17.5607
 20
9.0751
 30
0.0
 10
-17.5607
 20
9.0751
 30
0.0
 10
-16.9214
 20
1.769
 30
0.0
 10
-16.9214
 20
1.769
 30
0.0
 10
-16.9214
 20
1.769
 30
0.0
 10
-16.9214
 20
1.769
 30
0.0
 10
-16.8883
 20
1.3904
 30
0.0
 10
-16.8883
 20
1.3904
 30
0.0
 10
-16.8883
 20
1.3904
 30
0.0
 10
-16.8883
 20
1.3904
 30
0.0
 10
-16.8749
 20
1.3646
 30
0.0
 10
-16.8749
 20
1.3646
 30
0.0
  0
SPLINE
  5
C0
330
1F
100
AcDbEntity
  8
Ilustrace
 62
   250
370
    30
100
AcDbSpline
210
0.0
220
0.0
230
1.0
 70
    24
 71
     3
 72
     8
 73
     4
 74
     0
 42
0.0000000001
 43
0.0000000001
 40
0.0
 40
0.0
 40
0.0
 40
0.0
 40
1.0
 40
1.0
 40
1.0
 40
1.0
 10
-16.5498
 20
1.668
 30
0.0
 10
-16.5498
 20
1.668
 30
0.0
 10
-16.596
 20
1.4061
 30
0.0
 10
-16.596
 20
1.4061
 30
0.0
  0
SPLINE
  5
C1
330
1F
100
AcDbEntity
  8
Ilustrace
 62
   250
370
    30
100
AcDbSpline
210
0.0
220
0.0
230
1.0
 70
     8
 71
     3
 72
     8
 73
     4
 74
     0
 42
0.0000000001
 43
0.0000000001
 40
0.0
 40
0.0
 40
0.0
 40
0.0
 40
1.0
 40
1.0
 40
1.0
 40
1.0
 10
-16.596
 20
1.4061
 30
0.0
 10
-16.5996
 20
1.3885
 30
0.0
 10
-16.6124
 20
1.377
 30
0.0
 10
-16.6301
 20
1.3749
 30
0.0
  0
SPLINE
  5
C2
330
1F
100
AcDbEntity
  8
Ilustrace
 62
   250
370
    30
100
AcDbSpline
210
0.0
220
0.0
230
1.0
 70
     8
 71
     3
 72
    12
 73
     8
 74
     0
 42
0.0000000001
 43
0.0000000001
 40
0.0
 40
0.0
 40
0.0
 40
0.0
 40
0.3333333333333333
 40
0.3333333333333333
 40
0.3333333333333333
 40
0.3333333333333333
 40
1.0
 40
1.0
 40
1.0
 40
1.0
 10
-16.6301
 20
1.3749
 30
0.0
 10
-16.6301
 20
1.3749
 30
0.0
 10
-16.8472
 20
1.3559
 30
0.0
 10
-16.8472
 20
1.3559
 30
0.0
 10
-16.8472
 20
1.3559
 30
0.0
 10
-16.8472
 20
1.3559
 30
0.0
 10
-16.8749
 20
1.3646
 30
0.0
 10
-16.8749
 20
1.3646
 30
0.0
  0
SPLINE
  5
C3
330
1F
100
AcDbEntity
  8
Ilustrace
 62
   250
370
    30
100
AcDbSpline
210
0.0
220
0.0
230
1.0
 70
    24
 71
     3
 72
     8
 73
     4
 74
     0
 42
0.0000000001
 43
0.0000000001
 40
0.0
 40
0.0
 40
0.0
 40
0.0
 40
1.0
 40
1.0
 40
1.0
 40
1.0
 10
-17.2122
 20
9.2391
 30
0.0
 10
-17.2122
 20
9.2391
 30
0.0
 10
-17.3032
 20
9.4889
 30
0.0
 10
-17.3032
 20
9.4889
 30
0.0
  0
SPLINE
  5
C4
330
1F
100
AcDbEntity
  8
Ilustrace
 62
   250
370
    30
100
AcDbSpline
210
0.0
220
0.0
230
1.0
 70
     8
 71
     3
 72
     8
 73
     4
 74
     0
 42
0.0000000001
 43
0.0000000001
 40
0.0
 40
0.0
 40
0.0
 40
0.0
 40
1.0
 40
1.0
 40
1.0
 40
1.0
 10
-17.3032
 20
9.4889
 30
0.0
 10
-17.3121
 20
9.5115
 30
0.0
 10
-17.3221
 20
9.5088
 30
0.0
 10
-17.3422
 20
9.5138
 30
0.0
  0
SPLINE
  5
C5
330
1F
100
AcDbEntity
  8
Ilustrace
 62
   250
370
    30
100
AcDbSpline
210
0.0
220
0.0
230
1.0
 70
     8
 71
     3
 72
    12
 73
     8
 74
     0
 42
0.0000000001
 43
0.0000000001
 40
0.0
 40
0.0
 40
0.0
 40
0.0
 40
0.3333333333333333
 40
0.3333333333333333
 40
0.3333333333333333
 40
0.3333333333333333
 40
1.0
 40
1.0
 40
1.0
 40
1.0
 10
-17.3422
 20
9.5138
 30
0.0
 10
-17.3422
 20
9.5138
 30
0.0
 10
-17.5591
 20
9.4949
 30
0.0
 10
-17.5591
 20
9.4949
 30
0.0
 10
-17.5591
 20
9.4949
 30
0.0
 10
-17.5591
 20
9.4949
 30
0.0
 10
-17.585
 20
9.4814
 30
0.0
 10
-17.585
 20
9.4814
 30
0.0
  0
SPLINE
  5
C6
330
1F
100
AcDbEntity
  8
Ilustrace
 62
   250
370
    30
100
AcDbSpline
210
0.0
220
0.0
230
1.0
 70
     8
 71
     3
 72
    12
 73
     8
 74
     0
 42
0.0000000001
 43
0.0000000001
 40
0.0
 40
0.0
 40
0.0
 40
0.0
 40
0.3333333333333333
 40
0.3333333333333333
 40
0.3333333333333333
 40
0.3333333333333333
 40
1.0
 40
1.0
 40
1.0
 40
1.0
 10
-17.2122
 20
9.2391
 30
0.0
 10
-17.2122
 20
9.2391
 30
0.0
 10
-16.8337
 20
9.2722
 30
0.0
 10
-16.8337
 20
9.2722
 30
0.0
 10
-16.8337
 20
9.2722
 30
0.0
 10
-16.8337
 20
9.2722
 30
0.0
 10
-0.1773
 20
10.7294
 30
0.0
 10
-0.1773
 20
10.7294
 30
0.0
  0
SPLINE
  5
C7
330
1F
100
AcDbEntity
  8
Ilustrace
 62
   250
370
    30
100
AcDbSpline
210
0.0
220
0.0
230
1.0
 70
     8
 71
     3
 72
    12
 73
     8
 74
     0
 42
0.0000000001
 43
0.0000000001
 40
0.0
 40
0.0
 40
0.0
 40
0.0
 40
0.3333333333333333
 40
0.3333333333333333
 40
0.3333333333333333
 40
0.3333333333333333
 40
1.0
 40
1.0
 40
1.0
 40
1.0
 10
-0.1773
 20
10.7294
 30
0.0
 10
0.2967
 20
10.7709
 30
0.0
 10
0.7709
 20
10.7997
 30
0.0
 10
1.242
 20
10.7101
 30
0.0
 10
1.242
 20
10.7101
 30
0.0
 10
1.6729
 20
10.6283
 30
0.0
 10
2.0847
 20
10.4629
 30
0.0
 10
2.4606
 20
10.2409
 30
0.0
  0
SPLINE
  5
C8
330
1F
100
AcDbEntity
  8
Ilustrace
 62
   250
370
    30
100
AcDbSpline
210
0.0
220
0.0
230
1.0
 70
    24
 71
     3
 72
     8
 73
     4
 74
     0
 42
0.0000000001
 43
0.0000000001
 40
0.0
 40
0.0
 40
0.0
 40
0.0
 40
1.0
 40
1.0
 40
1.0
 40
1.0
 10
2.4606
 20
10.2409
 30
0.0
 10
2.4606
 20
10.2409
 30
0.0
 10
2.6868
 20
10.1073
 30
0.0
 10
2.6868
 20
10.1073
 30
0.0
  0
SPLINE
  5
C9
330
1F
100
AcDbEntity
  8
Ilustrace
 62
   250
370
    30
100
AcDbSpline
210
0.0
220
0.0
230
1.0
 70
     8
 71
     3
 72
     8
 73
     4
 74
     0
 42
0.0000000001
 43
0.0000000001
 40
0.0
 40
0.0
 40
0.0
 40
0.0
 40
1.0
 40
1.0
 40
1.0
 40
1.0
 10
2.6868
 20
10.1073
 30
0.0
 10
2.9034
 20
9.9582
 30
0.0
 10
3.0982
 20
9.7799
 30
0.0
 10
3.2787
 20
9.5902
 30
0.0
  0
SPLINE
  5
CA
330
1F
100
AcDbEntity
  8
Ilustrace
 62
   250
370
    30
100
AcDbSpline
210
0.0
220
0.0
230
1.0
 70
     8
 71
     3
 72
    20
 73
    16
 74
     0
 42
0.0000000001
 43
0.0000000001
 40
0.0
 40
0.0
 40
0.0
 40
0.0
 40
0.2
 40
0.2
 40
0.2
 40
0.2
 40
0.4
 40
0.4
 40
0.4
 40
0.4
 40
0.6
 40
0.6
 40
0.6
 40
0.6
 40
1.0
 40
1.0
 40
1.0
 40
1.0
 10
3.2787
 20
9.5902
 30
0.0
 10
3.2787
 20
9.5902
 30
0.0
 10
3.4597
 20
9.3999
 30
0.0
 10
3.4597
 20
9.3999
 30
0.0
 10
3.4597
 20
9.3999
 30
0.0
 10
3.4597
 20
9.3999
 30
0.0
 10
3.6127
 20
9.1866
 30
0.0
 10
3.6127
 20
9.1866
 30
0.0
 10
3.6127
 20
9.1866
 30
0.0
 10
3.6127
 20
9.1866
 30
0.0
 10
3.7658
 20
8.9732
 30
0.0
 10
3.7658
 20
8.9732
 30
0.0
 10
3.7658
 20
8.9732
 30
0.0
 10
3.7658
 20
8.9732
 30
0.0
 10
3.888
 20
8.7409
 30
0.0
 10
3.888
 20
8.7409
 30
0.0
  0
SPLINE
  5
CB
330
1F
100
AcDbEntity
  8
Ilustrace
 62
   250
370
    30
100
AcDbSpline
210
0.0
220
0.0
230
1.0
 70
     8
 71
     3
 72
    12
 73
     8
 74
     0
 42
0.0000000001
 43
0.0000000001
 40
0.0
 40
0.0
 40
0.0
 40
0.0
 40
0.3333333333333333
 40
0.3333333333333333
 40
0.3333333333333333
 40
0.3333333333333333
 40
1.0
 40
1.0
 40
1.0
 40
1.0
 10
3.888
 20
8.7409
 30
0.0
 10
4.0911
 20
8.3542
 30
0.0
 10
4.2357
 20
7.9348
 30
0.0
 10
4.2962
 20
7.5003
 30
0.0
 10
4.2962
 20
7.5003
 30
0.0
 10
4.3374
 20
7.2043
 30
0.0
 10
4.3324
 20
6.8944
 30
0.0
 10
4.3324
 20
6.597
 30
0.0
  0
SPLINE
  5
CC
330
1F
100
AcDbEntity
  8
Ilustrace
 62
   250
370
    30
100
AcDbSpline
210
0.0
220
0.0
230
1.0
 70
    24
 71
     3
 72
    12
 73
     8
 74
     0
 42
0.0000000001
 43
0.0000000001
 40
0.0
 40
0.0
 40
0.0
 40
0.0
 40
0.3333333333333333
 40
0.3333333333333333
 40
0.3333333333333333
 40
0.3333333333333333
 40
1.0
 40
1.0
 40
1.0
 40
1.0
 10
4.3324
 20
6.597
 30
0.0
 10
4.3324
 20
6.597
 30
0.0
 10
4.3324
 20
4.5264
 30
0.0
 10
4.3324
 20
4.5264
 30
0.0
 10
4.3324
 20
4.5264
 30
0.0
 10
4.3324
 20
4.5264
 30
0.0
 10
4.3324
 20
4.1464
 30
0.0
 10
4.3324
 20
4.1464
 30
0.0
  0
SPLINE
  5
CD
330
1F
100
AcDbEntity
  8
Ilustrace
 62
   250
370
    30
100
AcDbSpline
210
0.0
220
0.0
230
1.0
 70
    24
 71
     3
 72
     8
 73
     4
 74
     0
 42
0.0000000001
 43
0.0000000001
 40
0.0
 40
0.0
 40
0.0
 40
0.0
 40
1.0
 40
1.0
 40
1.0
 40
1.0
 10
5.7639
 20
0.6314
 30
0.0
 10
5.7639
 20
0.6314
 30
0.0
 10
-4.686
 20
0.6314
 30
0.0
 10
-4.686
 20
0.6314
 30
0.0
  0
SPLINE
  5
CE
330
1F
100
AcDbEntity
  8
Ilustrace
 62
   250
370
    30
100
AcDbSpline
210
0.0
220
0.0
230
1.0
 70
    24
 71
     3
 72
     8
 73
     4
 74
     0
 42
0.0000000001
 43
0.0000000001
 40
0.0
 40
0.0
 40
0.0
 40
0.0
 40
1.0
 40
1.0
 40
1.0
 40
1.0
 10
-4.6722
 20
1.2014
 30
0.0
 10
-4.6722
 20
1.2014
 30
0.0
 10
-3.4147
 20
1.2014
 30
0.0
 10
-3.4147
 20
1.2014
 30
0.0
  0
SPLINE
  5
CF
330
1F
100
AcDbEntity
  8
Ilustrace
 62
   250
370
    30
100
AcDbSpline
210
0.0
220
0.0
230
1.0
 70
    24
 71
     3
 72
     8
 73
     4
 74
     0
 42
0.0000000001
 43
0.0000000001
 40
0.0
 40
0.0
 40
0.0
 40
0.0
 40
1.0
 40
1.0
 40
1.0
 40
1.0
 10
-2.8772
 20
1.2014
 30
0.0
 10
-2.8772
 20
1.2014
 30
0.0
 10
0.1589
 20
1.2014
 30
0.0
 10
0.1589
 20
1.2014
 30
0.0
  0
SPLINE
  5
D0
330
1F
100
AcDbEntity
  8
Ilustrace
 62
   250
370
    30
100
AcDbSpline
210
0.0
220
0.0
230
1.0
 70
    24
 71
     3
 72
     8
 73
     4
 74
     0
 42
0.0000000001
 43
0.0000000001
 40
0.0
 40
0.0
 40
0.0
 40
0.0
 40
1.0
 40
1.0
 40
1.0
 40
1.0
 10
3.9551
 20
1.2014
 30
0.0
 10
3.9551
 20
1.2014
 30
0.0
 10
0.9189
 20
1.2014
 30
0.0
 10
0.9189
 20
1.2014
 30
0.0
  0
SPLINE
  5
D1
330
1F
100
AcDbEntity
  8
Ilustrace
 62
   250
370
    30
100
AcDbSpline
210
0.0
220
0.0
230
1.0
 70
    24
 71
     3
 72
     8
 73
     4
 74
     0
 42
0.0000000001
 43
0.0000000001
 40
0.0
 40
0.0
 40
0.0
 40
0.0
 40
1.0
 40
1.0
 40
1.0
 40
1.0
 10
5.75
 20
1.2014
 30
0.0
 10
5.75
 20
1.2014
 30
0.0
 10
4.4925
 20
1.2014
 30
0.0
 10
4.4925
 20
1.2014
 30
0.0
  0
SPLINE
  5
D2
330
1F
100
AcDbEntity
  8
Ilustrace
 62
   250
370
    30
100
AcDbSpline
210
0.0
220
0.0
230
1.0
 70
    24
 71
     3
 72
     8
 73
     4
 74
     0
 42
0.0000000001
 43
0.0000000001
 40
0.0
 40
0.0
 40
0.0
 40
0.0
 40
1.0
 40
1.0
 40
1.0
 40
1.0
 10
5.7639
 20
0.6314
 30
0.0
 10
5.7639
 20
0.6314
 30
0.0
 10
5.7639
 20
3.2914
 30
0.0
 10
5.7639
 20
3.2914
 30
0.0
  0
SPLINE
  5
D3
330
1F
100
AcDbEntity
  8
Ilustrace
 62
   250
370
    30
100
AcDbSpline
210
0.0
220
0.0
230
1.0
 70
    24
 71
     3
 72
     8
 73
     4
 74
     0
 42
0.0000000001
 43
0.0000000001
 40
0.0
 40
0.0
 40
0.0
 40
0.0
 40
1.0
 40
1.0
 40
1.0
 40
1.0
 10
5.669
 20
3.2914
 30
0.0
 10
5.669
 20
3.2914
 30
0.0
 10
5.7639
 20
3.2914
 30
0.0
 10
5.7639
 20
3.2914
 30
0.0
  0
SPLINE
  5
D4
330
1F
100
AcDbEntity
  8
Ilustrace
 62
   250
370
    30
100
AcDbSpline
210
0.0
220
0.0
230
1.0
 70
    24
 71
     3
 72
     8
 73
     4
 74
     0
 42
0.0000000001
 43
0.0000000001
 40
0.0
 40
0.0
 40
0.0
 40
0.0
 40
1.0
 40
1.0
 40
1.0
 40
1.0
 10
-4.686
 20
3.2914
 30
0.0
 10
-4.686
 20
3.2914
 30
0.0
 10
-4.5911
 20
3.2914
 30
0.0
 10
-4.5911
 20
3.2914
 30
0.0
  0
SPLINE
  5
D5
330
1F
100
AcDbEntity
  8
Ilustrace
 62
   250
370
    30
100
AcDbSpline
210
0.0
220
0.0
230
1.0
 70
    24
 71
     3
 72
     8
 73
     4
 74
     0
 42
0.0000000001
 43
0.0000000001
 40
0.0
 40
0.0
 40
0.0
 40
0.0
 40
1.0
 40
1.0
 40
1.0
 40
1.0
 10
-4.686
 20
3.2914
 30
0.0
 10
-4.686
 20
3.2914
 30
0.0
 10
-4.686
 20
0.6314
 30
0.0
 10
-4.686
 20
0.6314
 30
0.0
  0
SPLINE
  5
D6
330
1F
100
AcDbEntity
  8
Ilustrace
 62
   250
370
    30
100
AcDbSpline
210
0.0
220
0.0
230
1.0
 70
    24
 71
     3
 72
     8
 73
     4
 74
     0
 42
0.0000000001
 43
0.0000000001
 40
0.0
 40
0.0
 40
0.0
 40
0.0
 40
1.0
 40
1.0
 40
1.0
 40
1.0
 10
0.1632
 20
2.9677
 30
0.0
 10
0.1632
 20
2.9677
 30
0.0
 10
0.1589
 20
2.9114
 30
0.0
 10
0.1589
 20
2.9114
 30
0.0
  0
SPLINE
  5
D7
330
1F
100
AcDbEntity
  8
Ilustrace
 62
   250
370
    30
100
AcDbSpline
210
0.0
220
0.0
230
1.0
 70
     8
 71
     3
 72
    20
 73
    16
 74
     0
 42
0.0000000001
 43
0.0000000001
 40
0.0
 40
0.0
 40
0.0
 40
0.0
 40
0.2
 40
0.2
 40
0.2
 40
0.2
 40
0.4
 40
0.4
 40
0.4
 40
0.4
 40
0.6
 40
0.6
 40
0.6
 40
0.6
 40
1.0
 40
1.0
 40
1.0
 40
1.0
 10
0.1636
 20
2.9707
 30
0.0
 10
0.1636
 20
2.9707
 30
0.0
 10
0.1589
 20
2.9114
 30
0.0
 10
0.1589
 20
2.9114
 30
0.0
 10
0.1589
 20
2.9114
 30
0.0
 10
0.1589
 20
2.9114
 30
0.0
 10
0.1589
 20
2.5314
 30
0.0
 10
0.1589
 20
2.5314
 30
0.0
 10
0.1589
 20
2.5314
 30
0.0
 10
0.1589
 20
2.5314
 30
0.0
 10
0.1589
 20
1.5814
 30
0.0
 10
0.1589
 20
1.5814
 30
0.0
 10
0.1589
 20
1.5814
 30
0.0
 10
0.1589
 20
1.5814
 30
0.0
 10
0.1589
 20
1.2014
 30
0.0
 10
0.1589
 20
1.2014
 30
0.0
  0
SPLINE
  5
D8
330
1F
100
AcDbEntity
  8
Ilustrace
 62
   250
370
    30
100
AcDbSpline
210
0.0
220
0.0
230
1.0
 70
    24
 71
     3
 72
    12
 73
     8
 74
     0
 42
0.0000000001
 43
0.0000000001
 40
0.0
 40
0.0
 40
0.0
 40
0.0
 40
0.3333333333333333
 40
0.3333333333333333
 40
0.3333333333333333
 40
0.3333333333333333
 40
1.0
 40
1.0
 40
1.0
 40
1.0
 10
0.9189
 20
1.2014
 30
0.0
 10
0.9189
 20
1.2014
 30
0.0
 10
0.9189
 20
1.5814
 30
0.0
 10
0.9189
 20
1.5814
 30
0.0
 10
0.9189
 20
1.5814
 30
0.0
 10
0.9189
 20
1.5814
 30
0.0
 10
0.9189
 20
2.5314
 30
0.0
 10
0.9189
 20
2.5314
 30
0.0
  0
SPLINE
  5
D9
330
1F
100
AcDbEntity
  8
Ilustrace
 62
   250
370
    30
100
AcDbSpline
210
0.0
220
0.0
230
1.0
 70
     8
 71
     3
 72
    20
 73
    16
 74
     0
 42
0.0000000001
 43
0.0000000001
 40
0.0
 40
0.0
 40
0.0
 40
0.0
 40
0.2
 40
0.2
 40
0.2
 40
0.2
 40
0.4
 40
0.4
 40
0.4
 40
0.4
 40
0.6
 40
0.6
 40
0.6
 40
0.6
 40
1.0
 40
1.0
 40
1.0
 40
1.0
 10
0.9189
 20
2.5314
 30
0.0
 10
0.9189
 20
2.7722
 30
0.0
 10
0.9766
 20
3.0371
 30
0.0
 10
0.7762
 20
3.2082
 30
0.0
 10
0.7762
 20
3.2082
 30
0.0
 10
0.7472
 20
3.233
 30
0.0
 10
0.7124
 20
3.2507
 30
0.0
 10
0.6774
 20
3.2651
 30
0.0
 10
0.6774
 20
3.2651
 30
0.0
 10
0.6331
 20
3.2835
 30
0.0
 10
0.5865
 20
3.2897
 30
0.0
 10
0.539
 20
3.2914
 30
0.0
 10
0.539
 20
3.2914
 30
0.0
 10
0.342
 20
3.2841
 30
0.0
 10
0.206
 20
3.1553
 30
0.0
 10
0.1632
 20
2.9677
 30
0.0
  0
SPLINE
  5
DA
330
1F
100
AcDbEntity
  8
Ilustrace
 62
   250
370
    30
100
AcDbSpline
210
0.0
220
0.0
230
1.0
 70
     8
 71
     3
 72
    12
 73
     8
 74
     0
 42
0.0000000001
 43
0.0000000001
 40
0.0
 40
0.0
 40
0.0
 40
0.0
 40
0.3333333333333333
 40
0.3333333333333333
 40
0.3333333333333333
 40
0.3333333333333333
 40
1.0
 40
1.0
 40
1.0
 40
1.0
 10
4.1466
 20
3.2904
 30
0.0
 10
4.2041
 20
3.291
 30
0.0
 10
4.2618
 20
3.2981
 30
0.0
 10
4.3156
 20
3.2729
 30
0.0
 10
4.3156
 20
3.2729
 30
0.0
 10
4.4465
 20
3.2113
 30
0.0
 10
4.4915
 20
3.0438
 30
0.0
 10
4.4925
 20
2.9114
 30
0.0
  0
SPLINE
  5
DB
330
1F
100
AcDbEntity
  8
Ilustrace
 62
   250
370
    30
100
AcDbSpline
210
0.0
220
0.0
230
1.0
 70
    24
 71
     3
 72
    16
 73
    12
 74
     0
 42
0.0000000001
 43
0.0000000001
 40
0.0
 40
0.0
 40
0.0
 40
0.0
 40
0.25
 40
0.25
 40
0.25
 40
0.25
 40
0.5
 40
0.5
 40
0.5
 40
0.5
 40
1.0
 40
1.0
 40
1.0
 40
1.0
 10
4.4925
 20
2.9114
 30
0.0
 10
4.4925
 20
2.9114
 30
0.0
 10
4.4925
 20
2.5314
 30
0.0
 10
4.4925
 20
2.5314
 30
0.0
 10
4.4925
 20
2.5314
 30
0.0
 10
4.4925
 20
2.5314
 30
0.0
 10
4.4925
 20
1.5814
 30
0.0
 10
4.4925
 20
1.5814
 30
0.0
 10
4.4925
 20
1.5814
 30
0.0
 10
4.4925
 20
1.5814
 30
0.0
 10
4.4925
 20
1.2014
 30
0.0
 10
4.4925
 20
1.2014
 30
0.0
  0
SPLINE
  5
DC
330
1F
100
AcDbEntity
  8
Ilustrace
 62
   250
370
    30
100
AcDbSpline
210
0.0
220
0.0
230
1.0
 70
    24
 71
     3
 72
     8
 73
     4
 74
     0
 42
0.0000000001
 43
0.0000000001
 40
0.0
 40
0.0
 40
0.0
 40
0.0
 40
1.0
 40
1.0
 40
1.0
 40
1.0
 10
5.669
 20
3.2914
 30
0.0
 10
5.669
 20
3.2914
 30
0.0
 10
5.669
 20
3.5288
 30
0.0
 10
5.669
 20
3.5288
 30
0.0
  0
SPLINE
  5
DD
330
1F
100
AcDbEntity
  8
Ilustrace
 62
   250
370
    30
100
AcDbSpline
210
0.0
220
0.0
230
1.0
 70
     8
 71
     3
 72
    16
 73
    12
 74
     0
 42
0.0000000001
 43
0.0000000001
 40
0.0
 40
0.0
 40
0.0
 40
0.0
 40
0.25
 40
0.25
 40
0.25
 40
0.25
 40
0.5
 40
0.5
 40
0.5
 40
0.5
 40
1.0
 40
1.0
 40
1.0
 40
1.0
 10
5.669
 20
3.5288
 30
0.0
 10
5.669
 20
3.7309
 30
0.0
 10
5.6953
 20
3.9407
 30
0.0
 10
5.5125
 20
4.0737
 30
0.0
 10
5.5125
 20
4.0737
 30
0.0
 10
5.4802
 20
4.0972
 30
0.0
 10
5.4444
 20
4.1154
 30
0.0
 10
5.4064
 20
4.1278
 30
0.0
 10
5.4064
 20
4.1278
 30
0.0
 10
5.3672
 20
4.1405
 30
0.0
 10
5.3302
 20
4.1459
 30
0.0
 10
5.2889
 20
4.1464
 30
0.0
  0
SPLINE
  5
DE
330
1F
100
AcDbEntity
  8
Ilustrace
 62
   250
370
    30
100
AcDbSpline
210
0.0
220
0.0
230
1.0
 70
    24
 71
     3
 72
    16
 73
    12
 74
     0
 42
0.0000000001
 43
0.0000000001
 40
0.0
 40
0.0
 40
0.0
 40
0.0
 40
0.25
 40
0.25
 40
0.25
 40
0.25
 40
0.5
 40
0.5
 40
0.5
 40
0.5
 40
1.0
 40
1.0
 40
1.0
 40
1.0
 10
5.2889
 20
4.1464
 30
0.0
 10
5.2889
 20
4.1464
 30
0.0
 10
4.909
 20
4.1464
 30
0.0
 10
4.909
 20
4.1464
 30
0.0
 10
4.909
 20
4.1464
 30
0.0
 10
4.909
 20
4.1464
 30
0.0
 10
-3.831
 20
4.1464
 30
0.0
 10
-3.831
 20
4.1464
 30
0.0
 10
-3.831
 20
4.1464
 30
0.0
 10
-3.831
 20
4.1464
 30
0.0
 10
-4.2111
 20
4.1464
 30
0.0
 10
-4.2111
 20
4.1464
 30
0.0
  0
SPLINE
  5
DF
330
1F
100
AcDbEntity
  8
Ilustrace
 62
   250
370
    30
100
AcDbSpline
210
0.0
220
0.0
230
1.0
 70
     8
 71
     3
 72
    16
 73
    12
 74
     0
 42
0.0000000001
 43
0.0000000001
 40
0.0
 40
0.0
 40
0.0
 40
0.0
 40
0.25
 40
0.25
 40
0.25
 40
0.25
 40
0.5
 40
0.5
 40
0.5
 40
0.5
 40
1.0
 40
1.0
 40
1.0
 40
1.0
 10
-4.2111
 20
4.1464
 30
0.0
 10
-4.2637
 20
4.1423
 30
0.0
 10
-4.2779
 20
4.1443
 30
0.0
 10
-4.3285
 20
4.1278
 30
0.0
 10
-4.3285
 20
4.1278
 30
0.0
 10
-4.3665
 20
4.1154
 30
0.0
 10
-4.4023
 20
4.0972
 30
0.0
 10
-4.4345
 20
4.0737
 30
0.0
 10
-4.4345
 20
4.0737
 30
0.0
 10
-4.6174
 20
3.9407
 30
0.0
 10
-4.5911
 20
3.7309
 30
0.0
 10
-4.5911
 20
3.5288
 30
0.0
  0
SPLINE
  5
E0
330
1F
100
AcDbEntity
  8
Ilustrace
 62
   250
370
    30
100
AcDbSpline
210
0.0
220
0.0
230
1.0
 70
    24
 71
     3
 72
     8
 73
     4
 74
     0
 42
0.0000000001
 43
0.0000000001
 40
0.0
 40
0.0
 40
0.0
 40
0.0
 40
1.0
 40
1.0
 40
1.0
 40
1.0
 10
-4.5911
 20
3.5288
 30
0.0
 10
-4.5911
 20
3.5288
 30
0.0
 10
-4.5911
 20
3.2914
 30
0.0
 10
-4.5911
 20
3.2914
 30
0.0
  0
SPLINE
  5
E1
330
1F
100
AcDbEntity
  8
Ilustrace
 62
   250
370
    30
100
AcDbSpline
210
0.0
220
0.0
230
1.0
 70
    24
 71
     3
 72
    16
 73
    12
 74
     0
 42
0.0000000001
 43
0.0000000001
 40
0.0
 40
0.0
 40
0.0
 40
0.0
 40
0.25
 40
0.25
 40
0.25
 40
0.25
 40
0.5
 40
0.5
 40
0.5
 40
0.5
 40
1.0
 40
1.0
 40
1.0
 40
1.0
 10
-3.4147
 20
1.2014
 30
0.0
 10
-3.4147
 20
1.2014
 30
0.0
 10
-3.4147
 20
1.5814
 30
0.0
 10
-3.4147
 20
1.5814
 30
0.0
 10
-3.4147
 20
1.5814
 30
0.0
 10
-3.4147
 20
1.5814
 30
0.0
 10
-3.4147
 20
2.5314
 30
0.0
 10
-3.4147
 20
2.5314
 30
0.0
 10
-3.4147
 20
2.5314
 30
0.0
 10
-3.4147
 20
2.5314
 30
0.0
 10
-3.4147
 20
2.9114
 30
0.0
 10
-3.4147
 20
2.9114
 30
0.0
  0
SPLINE
  5
E2
330
1F
100
AcDbEntity
  8
Ilustrace
 62
   250
370
    30
100
AcDbSpline
210
0.0
220
0.0
230
1.0
 70
     8
 71
     3
 72
    12
 73
     8
 74
     0
 42
0.0000000001
 43
0.0000000001
 40
0.0
 40
0.0
 40
0.0
 40
0.0
 40
0.3333333333333333
 40
0.3333333333333333
 40
0.3333333333333333
 40
0.3333333333333333
 40
1.0
 40
1.0
 40
1.0
 40
1.0
 10
-3.4147
 20
2.9114
 30
0.0
 10
-3.4137
 20
3.0436
 30
0.0
 10
-3.3686
 20
3.2113
 30
0.0
 10
-3.2377
 20
3.2729
 30
0.0
 10
-3.2377
 20
3.2729
 30
0.0
 10
-3.1839
 20
3.2981
 30
0.0
 10
-3.1263
 20
3.291
 30
0.0
 10
-3.0685
 20
3.2904
 30
0.0
  0
SPLINE
  5
E3
330
1F
100
AcDbEntity
  8
Ilustrace
 62
   250
370
    30
100
AcDbSpline
210
0.0
220
0.0
230
1.0
 70
     8
 71
     3
 72
     8
 73
     4
 74
     0
 42
0.0000000001
 43
0.0000000001
 40
0.0
 40
0.0
 40
0.0
 40
0.0
 40
1.0
 40
1.0
 40
1.0
 40
1.0
 10
-4.6722
 20
1.2014
 30
0.0
 10
-4.6722
 20
1.8971
 30
0.0
 10
-4.6459
 20
2.5963
 30
0.0
 10
-4.686
 20
3.2914
 30
0.0
  0
SPLINE
  5
E4
330
1F
100
AcDbEntity
  8
Ilustrace
 62
   250
370
    30
100
AcDbSpline
210
0.0
220
0.0
230
1.0
 70
     8
 71
     3
 72
     8
 73
     4
 74
     0
 42
0.0000000001
 43
0.0000000001
 40
0.0
 40
0.0
 40
0.0
 40
0.0
 40
1.0
 40
1.0
 40
1.0
 40
1.0
 10
-4.5769
 20
1.2014
 30
0.0
 10
-4.5769
 20
1.8972
 30
0.0
 10
-4.5513
 20
2.5962
 30
0.0
 10
-4.5911
 20
3.2914
 30
0.0
  0
SPLINE
  5
E5
330
1F
100
AcDbEntity
  8
Ilustrace
 62
   250
370
    30
100
AcDbSpline
210
0.0
220
0.0
230
1.0
 70
    24
 71
     3
 72
    12
 73
     8
 74
     0
 42
0.0000000001
 43
0.0000000001
 40
0.0
 40
0.0
 40
0.0
 40
0.0
 40
0.3333333333333333
 40
0.3333333333333333
 40
0.3333333333333333
 40
0.3333333333333333
 40
1.0
 40
1.0
 40
1.0
 40
1.0
 10
-2.8772
 20
1.2014
 30
0.0
 10
-2.8772
 20
1.2014
 30
0.0
 10
-2.8772
 20
1.5814
 30
0.0
 10
-2.8772
 20
1.5814
 30
0.0
 10
-2.8772
 20
1.5814
 30
0.0
 10
-2.8772
 20
1.5814
 30
0.0
 10
-2.8772
 20
2.5314
 30
0.0
 10
-2.8772
 20
2.5314
 30
0.0
  0
SPLINE
  5
E6
330
1F
100
AcDbEntity
  8
Ilustrace
 62
   250
370
    30
100
AcDbSpline
210
0.0
220
0.0
230
1.0
 70
     8
 71
     3
 72
     8
 73
     4
 74
     0
 42
0.0000000001
 43
0.0000000001
 40
0.0
 40
0.0
 40
0.0
 40
0.0
 40
1.0
 40
1.0
 40
1.0
 40
1.0
 10
-2.8772
 20
2.5314
 30
0.0
 10
-2.8772
 20
2.7541
 30
0.0
 10
-2.806
 20
3.2527
 30
0.0
 10
-3.1557
 20
3.2914
 30
0.0
  0
SPLINE
  5
E7
330
1F
100
AcDbEntity
  8
Ilustrace
 62
   250
370
    30
100
AcDbSpline
210
0.0
220
0.0
230
1.0
 70
    24
 71
     3
 72
    12
 73
     8
 74
     0
 42
0.0000000001
 43
0.0000000001
 40
0.0
 40
0.0
 40
0.0
 40
0.0
 40
0.3333333333333333
 40
0.3333333333333333
 40
0.3333333333333333
 40
0.3333333333333333
 40
1.0
 40
1.0
 40
1.0
 40
1.0
 10
-2.8099
 20
1.2014
 30
0.0
 10
-2.8099
 20
1.2014
 30
0.0
 10
-2.8099
 20
1.5814
 30
0.0
 10
-2.8099
 20
1.5814
 30
0.0
 10
-2.8099
 20
1.5814
 30
0.0
 10
-2.8099
 20
1.5814
 30
0.0
 10
-2.8099
 20
2.5314
 30
0.0
 10
-2.8099
 20
2.5314
 30
0.0
  0
SPLINE
  5
E8
330
1F
100
AcDbEntity
  8
Ilustrace
 62
   250
370
    30
100
AcDbSpline
210
0.0
220
0.0
230
1.0
 70
     8
 71
     3
 72
     8
 73
     4
 74
     0
 42
0.0000000001
 43
0.0000000001
 40
0.0
 40
0.0
 40
0.0
 40
0.0
 40
1.0
 40
1.0
 40
1.0
 40
1.0
 10
-2.8099
 20
2.5314
 30
0.0
 10
-2.8099
 20
2.7596
 30
0.0
 10
-2.7387
 20
3.2214
 30
0.0
 10
-3.0685
 20
3.2904
 30
0.0
  0
SPLINE
  5
E9
330
1F
100
AcDbEntity
  8
Ilustrace
 62
   250
370
    30
100
AcDbSpline
210
0.0
220
0.0
230
1.0
 70
     8
 71
     3
 72
    12
 73
     8
 74
     0
 42
0.0000000001
 43
0.0000000001
 40
0.0
 40
0.0
 40
0.0
 40
0.0
 40
0.3333333333333333
 40
0.3333333333333333
 40
0.3333333333333333
 40
0.3333333333333333
 40
1.0
 40
1.0
 40
1.0
 40
1.0
 10
0.9189
 20
2.9114
 30
0.0
 10
0.9017
 20
3.1305
 30
0.0
 10
0.7581
 20
3.2742
 30
0.0
 10
0.539
 20
3.2914
 30
0.0
 10
0.539
 20
3.2914
 30
0.0
 10
0.3423
 20
3.2759
 30
0.0
 10
0.2096
 20
3.1627
 30
0.0
 10
0.1636
 20
2.9707
 30
0.0
  0
SPLINE
  5
EA
330
1F
100
AcDbEntity
  8
Ilustrace
 62
   250
370
    30
100
AcDbSpline
210
0.0
220
0.0
230
1.0
 70
     8
 71
     3
 72
     8
 73
     4
 74
     0
 42
0.0000000001
 43
0.0000000001
 40
0.0
 40
0.0
 40
0.0
 40
0.0
 40
1.0
 40
1.0
 40
1.0
 40
1.0
 10
4.1466
 20
3.2904
 30
0.0
 10
3.8166
 20
3.2217
 30
0.0
 10
3.8877
 20
2.7595
 30
0.0
 10
3.8877
 20
2.5314
 30
0.0
  0
SPLINE
  5
EB
330
1F
100
AcDbEntity
  8
Ilustrace
 62
   250
370
    30
100
AcDbSpline
210
0.0
220
0.0
230
1.0
 70
    24
 71
     3
 72
    12
 73
     8
 74
     0
 42
0.0000000001
 43
0.0000000001
 40
0.0
 40
0.0
 40
0.0
 40
0.0
 40
0.3333333333333333
 40
0.3333333333333333
 40
0.3333333333333333
 40
0.3333333333333333
 40
1.0
 40
1.0
 40
1.0
 40
1.0
 10
3.8877
 20
2.5314
 30
0.0
 10
3.8877
 20
2.5314
 30
0.0
 10
3.8877
 20
1.5814
 30
0.0
 10
3.8877
 20
1.5814
 30
0.0
 10
3.8877
 20
1.5814
 30
0.0
 10
3.8877
 20
1.5814
 30
0.0
 10
3.8877
 20
1.2014
 30
0.0
 10
3.8877
 20
1.2014
 30
0.0
  0
SPLINE
  5
EC
330
1F
100
AcDbEntity
  8
Ilustrace
 62
   250
370
    30
100
AcDbSpline
210
0.0
220
0.0
230
1.0
 70
     8
 71
     3
 72
     8
 73
     4
 74
     0
 42
0.0000000001
 43
0.0000000001
 40
0.0
 40
0.0
 40
0.0
 40
0.0
 40
1.0
 40
1.0
 40
1.0
 40
1.0
 10
4.2335
 20
3.2914
 30
0.0
 10
3.8839
 20
3.2523
 30
0.0
 10
3.9551
 20
2.7544
 30
0.0
 10
3.9551
 20
2.5314
 30
0.0
  0
SPLINE
  5
ED
330
1F
100
AcDbEntity
  8
Ilustrace
 62
   250
370
    30
100
AcDbSpline
210
0.0
220
0.0
230
1.0
 70
    24
 71
     3
 72
    12
 73
     8
 74
     0
 42
0.0000000001
 43
0.0000000001
 40
0.0
 40
0.0
 40
0.0
 40
0.0
 40
0.3333333333333333
 40
0.3333333333333333
 40
0.3333333333333333
 40
0.3333333333333333
 40
1.0
 40
1.0
 40
1.0
 40
1.0
 10
3.9551
 20
2.5314
 30
0.0
 10
3.9551
 20
2.5314
 30
0.0
 10
3.9551
 20
1.5814
 30
0.0
 10
3.9551
 20
1.5814
 30
0.0
 10
3.9551
 20
1.5814
 30
0.0
 10
3.9551
 20
1.5814
 30
0.0
 10
3.9551
 20
1.2014
 30
0.0
 10
3.9551
 20
1.2014
 30
0.0
  0
SPLINE
  5
EE
330
1F
100
AcDbEntity
  8
Ilustrace
 62
   250
370
    30
100
AcDbSpline
210
0.0
220
0.0
230
1.0
 70
     8
 71
     3
 72
     8
 73
     4
 74
     0
 42
0.0000000001
 43
0.0000000001
 40
0.0
 40
0.0
 40
0.0
 40
0.0
 40
1.0
 40
1.0
 40
1.0
 40
1.0
 10
5.669
 20
3.2914
 30
0.0
 10
5.6554
 20
3.0724
 30
0.0
 10
5.6558
 20
2.8584
 30
0.0
 10
5.6557
 20
2.6378
 30
0.0
  0
SPLINE
  5
EF
330
1F
100
AcDbEntity
  8
Ilustrace
 62
   250
370
    30
100
AcDbSpline
210
0.0
220
0.0
230
1.0
 70
     8
 71
     3
 72
    12
 73
     8
 74
     0
 42
0.0000000001
 43
0.0000000001
 40
0.0
 40
0.0
 40
0.0
 40
0.0
 40
0.3333333333333333
 40
0.3333333333333333
 40
0.3333333333333333
 40
0.3333333333333333
 40
1.0
 40
1.0
 40
1.0
 40
1.0
 10
5.6557
 20
2.6378
 30
0.0
 10
5.6557
 20
2.6378
 30
0.0
 10
5.6551
 20
1.5814
 30
0.0
 10
5.6551
 20
1.5814
 30
0.0
 10
5.6551
 20
1.5814
 30
0.0
 10
5.6551
 20
1.5814
 30
0.0
 10
5.6548
 20
1.2014
 30
0.0
 10
5.6548
 20
1.2014
 30
0.0
  0
SPLINE
  5
F0
330
1F
100
AcDbEntity
  8
Ilustrace
 62
   250
370
    30
100
AcDbSpline
210
0.0
220
0.0
230
1.0
 70
     8
 71
     3
 72
     8
 73
     4
 74
     0
 42
0.0000000001
 43
0.0000000001
 40
0.0
 40
0.0
 40
0.0
 40
0.0
 40
1.0
 40
1.0
 40
1.0
 40
1.0
 10
5.7639
 20
3.2914
 30
0.0
 10
5.7505
 20
3.0761
 30
0.0
 10
5.7513
 20
2.8653
 30
0.0
 10
5.7512
 20
2.6488
 30
0.0
  0
SPLINE
  5
F1
330
1F
100
AcDbEntity
  8
Ilustrace
 62
   250
370
    30
100
AcDbSpline
210
0.0
220
0.0
230
1.0
 70
     8
 71
     3
 72
    12
 73
     8
 74
     0
 42
0.0000000001
 43
0.0000000001
 40
0.0
 40
0.0
 40
0.0
 40
0.0
 40
0.3333333333333333
 40
0.3333333333333333
 40
0.3333333333333333
 40
0.3333333333333333
 40
1.0
 40
1.0
 40
1.0
 40
1.0
 10
5.7512
 20
2.6488
 30
0.0
 10
5.7512
 20
2.6488
 30
0.0
 10
5.7504
 20
1.5814
 30
0.0
 10
5.7504
 20
1.5814
 30
0.0
 10
5.7504
 20
1.5814
 30
0.0
 10
5.7504
 20
1.5814
 30
0.0
 10
5.75
 20
1.2014
 30
0.0
 10
5.75
 20
1.2014
 30
0.0
  0
ENDSEC
  0
SECTION
  2
OBJECTS
  0
DICTIONARY
  5
C
330
0
100
AcDbDictionary
281
     1
  3
ACAD_GROUP
350
D
  3
ACAD_LAYOUT
350
1A
  3
ACAD_MATERIAL
350
3B
  3
ACAD_MLEADERSTYLE
350
F4
  3
ACAD_MLINESTYLE
350
17
  3
ACAD_PLOTSETTINGS
350
19
  3
ACAD_PLOTSTYLENAME
350
E
  3
ACAD_VISUALSTYLE
350
2A
  3
AcDbVariableDictionary
350
F2
  0
DICTIONARY
  5
D
102
{ACAD_REACTORS
330
C
102
}
330
C
100
AcDbDictionary
281
     1
  0
DICTIONARY
  5
1A
102
{ACAD_REACTORS
330
C
102
}
330
C
100
AcDbDictionary
281
     1
  3
Layout1
350
1E
  3
Layout2
350
26
  3
Model
350
22
  0
DICTIONARY
  5
3B
102
{ACAD_REACTORS
330
C
102
}
330
C
100
AcDbDictionary
281
     1
  3
ByBlock
350
3D
  3
ByLayer
350
3C
  3
Global
350
3E
  0
DICTIONARY
  5
F4
102
{ACAD_REACTORS
330
C
102
}
330
C
100
AcDbDictionary
281
     1
  0
DICTIONARY
  5
17
102
{ACAD_REACTORS
330
C
102
}
330
C
100
AcDbDictionary
281
     1
  3
Standard
350
18
  0
DICTIONARY
  5
19
102
{ACAD_REACTORS
330
C
102
}
330
C
100
AcDbDictionary
281
     1
  0
ACDBDICTIONARYWDFLT
  5
E
102
{ACAD_REACTORS
330
C
102
}
330
C
100
AcDbDictionary
281
     1
  3
Normal
350
F
100
AcDbDictionaryWithDefault
340
F
  0
DICTIONARY
  5
2A
102
{ACAD_REACTORS
330
C
102
}
330
C
100
AcDbDictionary
281
     1
  3
2dWireframe
350
2F
  3
3D Hidden
350
31
  3
3dWireframe
350
30
  3
Basic
350
32
  3
Brighten
350
36
  3
ColorChange
350
3A
  3
Conceptual
350
34
  3
Dim
350
35
  3
Facepattern
350
39
  3
Flat
350
2B
  3
FlatWithEdges
350
2C
  3
Gouraud
350
2D
  3
GouraudWithEdges
350
2E
  3
Linepattern
350
38
  3
Realistic
350
33
  3
Thicken
350
37
  0
DICTIONARY
  5
F2
102
{ACAD_REACTORS
330
C
102
}
330
C
100
AcDbDictionary
281
     1
  3
DIMASSOC
350
F5
  3
HIDETEXT
350
F6
  0
LAYOUT
  5
1E
102
{ACAD_REACTORS
330
1A
102
}
330
1A
100
AcDbPlotSettings
  1

  2
none_device
  4

  6

 40
0.0
 41
0.0
 42
0.0
 43
0.0
 44
0.0
 45
0.0
 46
0.0
 47
0.0
 48
0.0
 49
0.0
140
0.0
141
0.0
142
1.0
143
1.0
 70
   688
 72
     0
 73
     0
 74
     5
  7

 75
    16
147
1.0
148
0.0
149
0.0
100
AcDbLayout
  1
Layout1
 70
     1
 71
     1
 10
0.0
 20
0.0
 11
12.0
 21
9.0
 12
0.0
 22
0.0
 32
0.0
 14
1.000000000000000E+20
 24
1.000000000000000E+20
 34
1.000000000000000E+20
 15
-1.000000000000000E+20
 25
-1.000000000000000E+20
 35
-1.000000000000000E+20
146
0.0
 13
0.0
 23
0.0
 33
0.0
 16
1.0
 26
0.0
 36
0.0
 17
0.0
 27
1.0
 37
0.0
 76
     0
330
1B
  0
LAYOUT
  5
26
102
{ACAD_REACTORS
330
1A
102
}
330
1A
100
AcDbPlotSettings
  1

  2
none_device
  4

  6

 40
0.0
 41
0.0
 42
0.0
 43
0.0
 44
0.0
 45
0.0
 46
0.0
 47
0.0
 48
0.0
 49
0.0
140
0.0
141
0.0
142
1.0
143
1.0
 70
   688
 72
     0
 73
     0
 74
     5
  7

 75
    16
147
1.0
148
0.0
149
0.0
100
AcDbLayout
  1
Layout2
 70
     1
 71
     2
 10
0.0
 20
0.0
 11
0.0
 21
0.0
 12
0.0
 22
0.0
 32
0.0
 14
0.0
 24
0.0
 34
0.0
 15
0.0
 25
0.0
 35
0.0
146
0.0
 13
0.0
 23
0.0
 33
0.0
 16
1.0
 26
0.0
 36
0.0
 17
0.0
 27
1.0
 37
0.0
 76
     0
330
23
  0
LAYOUT
  5
22
102
{ACAD_REACTORS
330
1A
102
}
330
1A
100
AcDbPlotSettings
  1

  2
none_device
  4

  6

 40
0.0
 41
0.0
 42
0.0
 43
0.0
 44
0.0
 45
0.0
 46
0.0
 47
0.0
 48
0.0
 49
0.0
140
0.0
141
0.0
142
1.0
143
1.0
 70
  1712
 72
     0
 73
     0
 74
     0
  7

 75
     0
147
1.0
148
0.0
149
0.0
100
AcDbLayout
  1
Model
 70
     1
 71
     0
 10
0.0
 20
0.0
 11
12.0
 21
9.0
 12
0.0
 22
0.0
 32
0.0
 14
-25.2283
 24
-11.046
 34
0.0
 15
25.2222
 25
11.0508
 35
0.0
146
0.0
 13
0.0
 23
0.0
 33
0.0
 16
1.0
 26
0.0
 36
0.0
 17
0.0
 27
1.0
 37
0.0
 76
     0
330
1F
331
29
  0
MATERIAL
  5
3D
102
{ACAD_REACTORS
330
3B
102
}
102
{ACAD_XDICTIONARY
360
119
102
}
330
3B
100
AcDbMaterial
  1
ByBlock
  0
MATERIAL
  5
3C
102
{ACAD_REACTORS
330
3B
102
}
102
{ACAD_XDICTIONARY
360
117
102
}
330
3B
100
AcDbMaterial
  1
ByLayer
  0
MATERIAL
  5
3E
102
{ACAD_REACTORS
330
3B
102
}
102
{ACAD_XDICTIONARY
360
11B
102
}
330
3B
100
AcDbMaterial
  1
Global
  0
MLINESTYLE
  5
18
102
{ACAD_REACTORS
330
17
102
}
330
17
100
AcDbMlineStyle
  2
Standard
 70
     0
  3

 62
   256
 51
90.0
 52
90.0
 71
     2
 49
0.5
 62
   256
  6
BYLAYER
 49
-0.5
 62
   256
  6
BYLAYER
  0
ACDBPLACEHOLDER
  5
F
102
{ACAD_REACTORS
330
E
102
}
330
E
  0
VISUALSTYLE
  5
2F
102
{ACAD_REACTORS
330
2A
102
}
102
{ACAD_XDICTIONARY
360
FF
102
}
330
2A
100
AcDbVisualStyle
  2
2dWireframe
 70
     4
 71
     0
 72
     2
 73
     0
 90
        0
 40
-0.6
 41
-30.0
 62
     5
 63
     7
 74
     1
 91
        4
 64
     7
 65
   257
 75
     1
175
     1
 42
1.0
 92
        0
 66
   257
 43
1.0
 76
     1
 77
     6
 78
     2
 67
     7
 79
     5
170
     0
171
     0
290
     0
174
     0
 93
        1
 44
0.0
173
     0
291
     0
 45
0.0
1001
ACAD
1000
AcDbSavedByObjectVersion
1070
     0
  0
VISUALSTYLE
  5
31
102
{ACAD_REACTORS
330
2A
102
}
102
{ACAD_XDICTIONARY
360
103
102
}
330
2A
100
AcDbVisualStyle
  2
3D Hidden
 70
     6
 71
     1
 72
     2
 73
     2
 90
        0
 40
-0.6
 41
-30.0
 62
     5
 63
     7
 74
     2
 91
        2
 64
     7
 65
   257
 75
     2
175
     1
 42
40.0
 92
        0
 66
   257
 43
1.0
 76
     1
 77
     6
 78
     2
 67
     7
 79
     3
170
     0
171
     0
290
     0
174
     0
 93
        1
 44
0.0
173
     0
291
     0
 45
0.0
1001
ACAD
1000
AcDbSavedByObjectVersion
1070
     0
  0
VISUALSTYLE
  5
30
102
{ACAD_REACTORS
330
2A
102
}
102
{ACAD_XDICTIONARY
360
101
102
}
330
2A
100
AcDbVisualStyle
  2
3dWireframe
 70
     5
 71
     0
 72
     2
 73
     0
 90
        0
 40
-0.6
 41
-30.0
 62
     5
 63
     7
 74
     1
 91
        4
 64
     7
 65
   257
 75
     1
175
     1
 42
1.0
 92
        0
 66
   257
 43
1.0
 76
     1
 77
     6
 78
     2
 67
     7
 79
     5
170
     0
171
     0
290
     0
174
     0
 93
        1
 44
0.0
173
     0
291
     0
 45
0.0
1001
ACAD
1000
AcDbSavedByObjectVersion
1070
     0
  0
VISUALSTYLE
  5
32
102
{ACAD_REACTORS
330
2A
102
}
102
{ACAD_XDICTIONARY
360
105
102
}
330
2A
100
AcDbVisualStyle
  2
Basic
 70
     7
 71
     1
 72
     0
 73
     1
 90
        0
 40
-0.6
 41
-30.0
 62
     5
 63
     7
 74
     0
 91
        4
 64
     7
 65
   257
 75
     1
175
     1
 42
1.0
 92
        8
 66
     7
 43
1.0
 76
     1
 77
     6
 78
     2
 67
     7
 79
     5
170
     0
171
     0
290
     0
174
     0
 93
        1
 44
0.0
173
     0
291
     1
 45
0.0
1001
ACAD
1000
AcDbSavedByObjectVersion
1070
     0
  0
VISUALSTYLE
  5
36
102
{ACAD_REACTORS
330
2A
102
}
102
{ACAD_XDICTIONARY
360
10D
102
}
330
2A
100
AcDbVisualStyle
  2
Brighten
 70
    12
 71
     2
 72
     2
 73
     0
 90
        0
 40
-0.6
 41
-30.0
 62
     5
 63
     7
 74
     1
 91
        4
 64
     7
 65
   257
 75
     1
175
     1
 42
1.0
 92
        8
 66
     7
 43
1.0
 76
     1
 77
     6
 78
     2
 67
     7
 79
     5
170
     0
171
     0
290
     0
174
     0
 93
        1
 44
50.0
173
     0
291
     1
 45
0.0
1001
ACAD
1000
AcDbSavedByObjectVersion
1070
     0
  0
VISUALSTYLE
  5
3A
102
{ACAD_REACTORS
330
2A
102
}
102
{ACAD_XDICTIONARY
360
115
102
}
330
2A
100
AcDbVisualStyle
  2
ColorChange
 70
    16
 71
     2
 72
     2
 73
     3
 90
        0
 40
-0.6
 41
-30.0
 62
     5
 63
     8
 74
     1
 91
        4
 64
     7
 65
   257
 75
     1
175
     1
 42
1.0
 92
        8
 66
     8
 43
1.0
 76
     1
 77
     6
 78
     2
 67
     7
 79
     5
170
     0
171
     0
290
     0
174
     0
 93
        1
 44
0.0
173
     0
291
     1
 45
0.0
1001
ACAD
1000
AcDbSavedByObjectVersion
1070
     0
  0
VISUALSTYLE
  5
34
102
{ACAD_REACTORS
330
2A
102
}
102
{ACAD_XDICTIONARY
360
109
102
}
330
2A
100
AcDbVisualStyle
  2
Conceptual
 70
     9
 71
     3
 72
     2
 73
     0
 90
        0
 40
-0.6
 41
-30.0
 62
     5
 63
     7
 74
     2
 91
        2
 64
     7
 65
   257
 75
     1
175
     1
 42
40.0
 92
        8
 66
     7
 43
1.0
 76
     1
 77
     6
 78
     2
 67
     7
 79
     3
170
     0
171
     0
290
     0
174
     0
 93
        1
 44
0.0
173
     0
291
     0
 45
0.0
1001
ACAD
1000
AcDbSavedByObjectVersion
1070
     0
  0
VISUALSTYLE
  5
35
102
{ACAD_REACTORS
330
2A
102
}
102
{ACAD_XDICTIONARY
360
10B
102
}
330
2A
100
AcDbVisualStyle
  2
Dim
 70
    11
 71
     2
 72
     2
 73
     0
 90
        0
 40
-0.6
 41
-30.0
 62
     5
 63
     7
 74
     1
 91
        4
 64
     7
 65
   257
 75
     1
175
     1
 42
1.0
 92
        8
 66
     7
 43
1.0
 76
     1
 77
     6
 78
     2
 67
     7
 79
     5
170
     0
171
     0
290
     0
174
     0
 93
        1
 44
-50.0
173
     0
291
     1
 45
0.0
1001
ACAD
1000
AcDbSavedByObjectVersion
1070
     0
  0
VISUALSTYLE
  5
39
102
{ACAD_REACTORS
330
2A
102
}
102
{ACAD_XDICTIONARY
360
113
102
}
330
2A
100
AcDbVisualStyle
  2
Facepattern
 70
    15
 71
     2
 72
     2
 73
     0
 90
        0
 40
-0.6
 41
-30.0
 62
     5
 63
     7
 74
     1
 91
        4
 64
     7
 65
   257
 75
     1
175
     1
 42
1.0
 92
        8
 66
     7
 43
1.0
 76
     1
 77
     6
 78
     2
 67
     7
 79
     5
170
     0
171
     0
290
     0
174
     0
 93
        1
 44
0.0
173
     0
291
     1
 45
0.0
1001
ACAD
1000
AcDbSavedByObjectVersion
1070
     0
  0
VISUALSTYLE
  5
2B
102
{ACAD_REACTORS
330
2A
102
}
102
{ACAD_XDICTIONARY
360
F7
102
}
330
2A
100
AcDbVisualStyle
  2
Flat
 70
     0
 71
     2
 72
     1
 73
     1
 90
        2
 40
-0.6
 41
30.0
 62
     5
 63
     7
 74
     0
 91
        4
 64
     7
 65
   257
 75
     1
175
     1
 42
1.0
 92
        8
 66
     7
 43
1.0
 76
     1
 77
     6
 78
     2
 67
     7
 79
     5
170
     0
171
     0
290
     0
174
     0
 93
       13
 44
0.0
173
     0
291
     1
 45
0.0
1001
ACAD
1000
AcDbSavedByObjectVersion
1070
     0
  0
VISUALSTYLE
  5
2C
102
{ACAD_REACTORS
330
2A
102
}
102
{ACAD_XDICTIONARY
360
F9
102
}
330
2A
100
AcDbVisualStyle
  2
FlatWithEdges
 70
     1
 71
     2
 72
     1
 73
     1
 90
        2
 40
-0.6
 41
30.0
 62
     5
 63
     7
 74
     1
 91
        4
 64
     7
 65
   257
 75
     1
175
     1
 42
1.0
 92
        0
 66
   257
 43
1.0
 76
     1
 77
     6
 78
     2
 67
     7
 79
     5
170
     0
171
     0
290
     0
174
     0
 93
       13
 44
0.0
173
     0
291
     1
 45
0.0
1001
ACAD
1000
AcDbSavedByObjectVersion
1070
     0
  0
VISUALSTYLE
  5
2D
102
{ACAD_REACTORS
330
2A
102
}
102
{ACAD_XDICTIONARY
360
FB
102
}
330
2A
100
AcDbVisualStyle
  2
Gouraud
 70
     2
 71
     2
 72
     2
 73
     1
 90
        2
 40
-0.6
 41
30.0
 62
     5
 63
     7
 74
     0
 91
        4
 64
     7
 65
   257
 75
     1
175
     1
 42
1.0
 92
        0
 66
     7
 43
1.0
 76
     1
 77
     6
 78
     2
 67
     7
 79
     5
170
     0
171
     0
290
     0
174
     0
 93
       13
 44
0.0
173
     0
291
     1
 45
0.0
1001
ACAD
1000
AcDbSavedByObjectVersion
1070
     0
  0
VISUALSTYLE
  5
2E
102
{ACAD_REACTORS
330
2A
102
}
102
{ACAD_XDICTIONARY
360
FD
102
}
330
2A
100
AcDbVisualStyle
  2
GouraudWithEdges
 70
     3
 71
     2
 72
     2
 73
     1
 90
        2
 40
-0.6
 41
30.0
 62
     5
 63
     7
 74
     1
 91
        4
 64
     7
 65
   257
 75
     1
175
     1
 42
1.0
 92
        0
 66
   257
 43
1.0
 76
     1
 77
     6
 78
     2
 67
     7
 79
     5
170
     0
171
     0
290
     0
174
     0
 93
       13
 44
0.0
173
     0
291
     1
 45
0.0
1001
ACAD
1000
AcDbSavedByObjectVersion
1070
     0
  0
VISUALSTYLE
  5
38
102
{ACAD_REACTORS
330
2A
102
}
102
{ACAD_XDICTIONARY
360
111
102
}
330
2A
100
AcDbVisualStyle
  2
Linepattern
 70
    14
 71
     2
 72
     2
 73
     0
 90
        0
 40
-0.6
 41
-30.0
 62
     5
 63
     7
 74
     1
 91
        4
 64
     7
 65
   257
 75
     7
175
     7
 42
1.0
 92
        8
 66
     7
 43
1.0
 76
     1
 77
     6
 78
     2
 67
     7
 79
     5
170
     0
171
     0
290
     0
174
     0
 93
        1
 44
0.0
173
     0
291
     1
 45
0.0
1001
ACAD
1000
AcDbSavedByObjectVersion
1070
     0
  0
VISUALSTYLE
  5
33
102
{ACAD_REACTORS
330
2A
102
}
102
{ACAD_XDICTIONARY
360
107
102
}
330
2A
100
AcDbVisualStyle
  2
Realistic
 70
     8
 71
     2
 72
     2
 73
     0
 90
        0
 40
-0.6
 41
-30.0
 62
     5
 63
     7
 74
     1
 91
        0
 64
     7
 65
   257
 75
     1
175
     1
 42
1.0
 92
        8
 66
     8
 43
1.0
 76
     1
 77
     6
 78
     2
 67
     7
 79
     5
170
     0
171
     0
290
     0
174
     0
 93
       13
 44
0.0
173
     0
291
     0
 45
0.0
1001
ACAD
1000
AcDbSavedByObjectVersion
1070
     0
  0
VISUALSTYLE
  5
37
102
{ACAD_REACTORS
330
2A
102
}
102
{ACAD_XDICTIONARY
360
10F
102
}
330
2A
100
AcDbVisualStyle
  2
Thicken
 70
    13
 71
     2
 72
     2
 73
     0
 90
        0
 40
-0.6
 41
-30.0
 62
     5
 63
     7
 74
     1
 91
        4
 64
     7
 65
   257
 75
     1
175
     1
 42
1.0
 92
       12
 66
     7
 43
1.0
 76
     1
 77
     6
 78
     2
 67
     7
 79
     5
170
     0
171
     0
290
     0
174
     0
 93
        1
 44
0.0
173
     0
291
     1
 45
0.0
1001
ACAD
1000
AcDbSavedByObjectVersion
1070
     0
  0
DICTIONARYVAR
  5
F5
102
{ACAD_REACTORS
330
F2
102
}
330
F2
100
DictionaryVariables
280
     0
  1
2
  0
DICTIONARYVAR
  5
F6
102
{ACAD_REACTORS
330
F2
102
}
330
F2
100
DictionaryVariables
280
     0
  1
1
  0
DICTIONARY
  5
119
330
3D
100
AcDbDictionary
280
     1
281
     1
  3
ACAD_XREC_ROUNDTRIP
360
11A
  0
DICTIONARY
  5
117
330
3C
100
AcDbDictionary
280
     1
281
     1
  3
ACAD_XREC_ROUNDTRIP
360
118
  0
DICTIONARY
  5
11B
330
3E
100
AcDbDictionary
280
     1
281
     1
  3
ACAD_XREC_ROUNDTRIP
360
11C
  0
DICTIONARY
  5
FF
330
2F
100
AcDbDictionary
280
     1
281
     1
  3
ACAD_XREC_ROUNDTRIP
360
100
  0
DICTIONARY
  5
103
330
31
100
AcDbDictionary
280
     1
281
     1
  3
ACAD_XREC_ROUNDTRIP
360
104
  0
DICTIONARY
  5
101
330
30
100
AcDbDictionary
280
     1
281
     1
  3
ACAD_XREC_ROUNDTRIP
360
102
  0
DICTIONARY
  5
105
330
32
100
AcDbDictionary
280
     1
281
     1
  3
ACAD_XREC_ROUNDTRIP
360
106
  0
DICTIONARY
  5
10D
330
36
100
AcDbDictionary
280
     1
281
     1
  3
ACAD_XREC_ROUNDTRIP
360
10E
  0
DICTIONARY
  5
115
330
3A
100
AcDbDictionary
280
     1
281
     1
  3
ACAD_XREC_ROUNDTRIP
360
116
  0
DICTIONARY
  5
109
330
34
100
AcDbDictionary
280
     1
281
     1
  3
ACAD_XREC_ROUNDTRIP
360
10A
  0
DICTIONARY
  5
10B
330
35
100
AcDbDictionary
280
     1
281
     1
  3
ACAD_XREC_ROUNDTRIP
360
10C
  0
DICTIONARY
  5
113
330
39
100
AcDbDictionary
280
     1
281
     1
  3
ACAD_XREC_ROUNDTRIP
360
114
  0
DICTIONARY
  5
F7
330
2B
100
AcDbDictionary
280
     1
281
     1
  3
ACAD_XREC_ROUNDTRIP
360
F8
  0
DICTIONARY
  5
F9
330
2C
100
AcDbDictionary
280
     1
281
     1
  3
ACAD_XREC_ROUNDTRIP
360
FA
  0
DICTIONARY
  5
FB
330
2D
100
AcDbDictionary
280
     1
281
     1
  3
ACAD_XREC_ROUNDTRIP
360
FC
  0
DICTIONARY
  5
FD
330
2E
100
AcDbDictionary
280
     1
281
     1
  3
ACAD_XREC_ROUNDTRIP
360
FE
  0
DICTIONARY
  5
111
330
38
100
AcDbDictionary
280
     1
281
     1
  3
ACAD_XREC_ROUNDTRIP
360
112
  0
DICTIONARY
  5
107
330
33
100
AcDbDictionary
280
     1
281
     1
  3
ACAD_XREC_ROUNDTRIP
360
108
  0
DICTIONARY
  5
10F
330
37
100
AcDbDictionary
280
     1
281
     1
  3
ACAD_XREC_ROUNDTRIP
360
110
  0
XRECORD
  5
11A
102
{ACAD_REACTORS
330
119
102
}
330
119
100
AcDbXrecord
280
     1
102
MATERIAL
148
0.0
149
0.0
149
0.0
 93
        0
 94
      127
282
     0
 72
     1
 77
     1
171
     1
175
     1
179
     1
273
     0
  0
XRECORD
  5
118
102
{ACAD_REACTORS
330
117
102
}
330
117
100
AcDbXrecord
280
     1
102
MATERIAL
148
0.0
149
0.0
149
0.0
 93
        0
 94
      127
282
     0
 72
     1
 77
     1
171
     1
175
     1
179
     1
273
     0
  0
XRECORD
  5
11C
102
{ACAD_REACTORS
330
11B
102
}
330
11B
100
AcDbXrecord
280
     1
102
MATERIAL
148
0.0
149
0.0
149
0.0
 93
        0
 94
      127
282
     0
 72
     1
 77
     1
171
     1
175
     1
179
     1
273
     0
  0
XRECORD
  5
100
102
{ACAD_REACTORS
330
FF
102
}
330
FF
100
AcDbXrecord
280
     1
102
RTVSPropertyOp0
 70
     1
102
RTVSPropertyOp1
 70
     1
102
RTVSPropertyOp2
 70
     1
102
RTVSPropertyOp3
 70
     1
102
RTVSPropertyOp4
 70
     1
102
RTVSPropertyOp5
 70
     1
102
RTVSPropertyOp6
 70
     1
102
RTVSPropertyOp7
 70
     1
102
RTVSPropertyOp8
 70
     1
102
RTVSPropertyOp9
 70
     1
102
RTVSPropertyOp10
 70
     1
102
RTVSPropertyOp11
 70
     1
102
RTVSPropertyOp12
 70
     1
102
RTVSPropertyOp13
 70
     1
102
RTVSPropertyOp14
 70
     1
102
RTVSPropertyOp15
 70
     1
102
RTVSPropertyOp16
 70
     1
102
RTVSPropertyOp17
 70
     1
102
RTVSPropertyOp18
 70
     1
102
RTVSPropertyOp19
 70
     1
102
RTVSPropertyOp20
 70
     1
102
RTVSPropertyOp21
 70
     1
102
RTVSPropertyOp22
 70
     1
102
RTVSPropertyOp23
 70
     1
102
RTVSPropertyOp24
 70
     1
102
RTVSPropertyOp25
 70
     1
102
RTVSPropertyOp26
 70
     1
102
RTVSPropertyOp27
 70
     1
  0
XRECORD
  5
104
102
{ACAD_REACTORS
330
103
102
}
330
103
100
AcDbXrecord
280
     1
102
RTVSPropertyOp0
 70
     1
102
RTVSPropertyOp1
 70
     1
102
RTVSPropertyOp2
 70
     1
102
RTVSPropertyOp3
 70
     1
102
RTVSPropertyOp4
 70
     1
102
RTVSPropertyOp5
 70
     1
102
RTVSPropertyOp6
 70
     1
102
RTVSPropertyOp7
 70
     1
102
RTVSPropertyOp8
 70
     1
102
RTVSPropertyOp9
 70
     1
102
RTVSPropertyOp10
 70
     1
102
RTVSPropertyOp11
 70
     1
102
RTVSPropertyOp12
 70
     1
102
RTVSPropertyOp13
 70
     1
102
RTVSPropertyOp14
 70
     1
102
RTVSPropertyOp15
 70
     1
102
RTVSPropertyOp16
 70
     1
102
RTVSPropertyOp17
 70
     1
102
RTVSPropertyOp18
 70
     1
102
RTVSPropertyOp19
 70
     1
102
RTVSPropertyOp20
 70
     1
102
RTVSPropertyOp21
 70
     1
102
RTVSPropertyOp22
 70
     1
102
RTVSPropertyOp23
 70
     1
102
RTVSPropertyOp24
 70
     1
102
RTVSPropertyOp25
 70
     1
102
RTVSPropertyOp26
 70
     1
102
RTVSPropertyOp27
 70
     1
  0
XRECORD
  5
102
102
{ACAD_REACTORS
330
101
102
}
330
101
100
AcDbXrecord
280
     1
102
RTVSPropertyOp0
 70
     1
102
RTVSPropertyOp1
 70
     1
102
RTVSPropertyOp2
 70
     1
102
RTVSPropertyOp3
 70
     1
102
RTVSPropertyOp4
 70
     1
102
RTVSPropertyOp5
 70
     1
102
RTVSPropertyOp6
 70
     1
102
RTVSPropertyOp7
 70
     1
102
RTVSPropertyOp8
 70
     1
102
RTVSPropertyOp9
 70
     1
102
RTVSPropertyOp10
 70
     1
102
RTVSPropertyOp11
 70
     1
102
RTVSPropertyOp12
 70
     1
102
RTVSPropertyOp13
 70
     1
102
RTVSPropertyOp14
 70
     1
102
RTVSPropertyOp15
 70
     1
102
RTVSPropertyOp16
 70
     1
102
RTVSPropertyOp17
 70
     1
102
RTVSPropertyOp18
 70
     1
102
RTVSPropertyOp19
 70
     1
102
RTVSPropertyOp20
 70
     1
102
RTVSPropertyOp21
 70
     1
102
RTVSPropertyOp22
 70
     1
102
RTVSPropertyOp23
 70
     1
102
RTVSPropertyOp24
 70
     1
102
RTVSPropertyOp25
 70
     1
102
RTVSPropertyOp26
 70
     1
102
RTVSPropertyOp27
 70
     1
  0
XRECORD
  5
106
102
{ACAD_REACTORS
330
105
102
}
330
105
100
AcDbXrecord
280
     1
102
RTVSPropertyOp0
 70
     1
102
RTVSPropertyOp1
 70
     1
102
RTVSPropertyOp2
 70
     1
102
RTVSPropertyOp3
 70
     1
102
RTVSPropertyOp4
 70
     1
102
RTVSPropertyOp5
 70
     1
102
RTVSPropertyOp6
 70
     1
102
RTVSPropertyOp7
 70
     1
102
RTVSPropertyOp8
 70
     1
102
RTVSPropertyOp9
 70
     1
102
RTVSPropertyOp10
 70
     1
102
RTVSPropertyOp11
 70
     1
102
RTVSPropertyOp12
 70
     1
102
RTVSPropertyOp13
 70
     1
102
RTVSPropertyOp14
 70
     1
102
RTVSPropertyOp15
 70
     1
102
RTVSPropertyOp16
 70
     1
102
RTVSPropertyOp17
 70
     1
102
RTVSPropertyOp18
 70
     1
102
RTVSPropertyOp19
 70
     1
102
RTVSPropertyOp20
 70
     1
102
RTVSPropertyOp21
 70
     1
102
RTVSPropertyOp22
 70
     1
102
RTVSPropertyOp23
 70
     1
102
RTVSPropertyOp24
 70
     1
102
RTVSPropertyOp25
 70
     1
102
RTVSPropertyOp26
 70
     1
102
RTVSPropertyOp27
 70
     1
  0
XRECORD
  5
10E
102
{ACAD_REACTORS
330
10D
102
}
330
10D
100
AcDbXrecord
280
     1
102
RTVSPropertyOp0
 70
     1
102
RTVSPropertyOp1
 70
     1
102
RTVSPropertyOp2
 70
     1
102
RTVSPropertyOp3
 70
     1
102
RTVSPropertyOp4
 70
     1
102
RTVSPropertyOp5
 70
     1
102
RTVSPropertyOp6
 70
     1
102
RTVSPropertyOp7
 70
     1
102
RTVSPropertyOp8
 70
     1
102
RTVSPropertyOp9
 70
     1
102
RTVSPropertyOp10
 70
     1
102
RTVSPropertyOp11
 70
     1
102
RTVSPropertyOp12
 70
     1
102
RTVSPropertyOp13
 70
     1
102
RTVSPropertyOp14
 70
     1
102
RTVSPropertyOp15
 70
     1
102
RTVSPropertyOp16
 70
     1
102
RTVSPropertyOp17
 70
     1
102
RTVSPropertyOp18
 70
     1
102
RTVSPropertyOp19
 70
     1
102
RTVSPropertyOp20
 70
     1
102
RTVSPropertyOp21
 70
     1
102
RTVSPropertyOp22
 70
     1
102
RTVSPropertyOp23
 70
     1
102
RTVSPropertyOp24
 70
     1
102
RTVSPropertyOp25
 70
     1
102
RTVSPropertyOp26
 70
     1
102
RTVSPropertyOp27
 70
     1
  0
XRECORD
  5
116
102
{ACAD_REACTORS
330
115
102
}
330
115
100
AcDbXrecord
280
     1
102
RTVSPropertyOp0
 70
     1
102
RTVSPropertyOp1
 70
     1
102
RTVSPropertyOp2
 70
     1
102
RTVSPropertyOp3
 70
     1
102
RTVSPropertyOp4
 70
     1
102
RTVSPropertyOp5
 70
     1
102
RTVSPropertyOp6
 70
     1
102
RTVSPropertyOp7
 70
     1
102
RTVSPropertyOp8
 70
     1
102
RTVSPropertyOp9
 70
     1
102
RTVSPropertyOp10
 70
     1
102
RTVSPropertyOp11
 70
     1
102
RTVSPropertyOp12
 70
     1
102
RTVSPropertyOp13
 70
     1
102
RTVSPropertyOp14
 70
     1
102
RTVSPropertyOp15
 70
     1
102
RTVSPropertyOp16
 70
     1
102
RTVSPropertyOp17
 70
     1
102
RTVSPropertyOp18
 70
     1
102
RTVSPropertyOp19
 70
     1
102
RTVSPropertyOp20
 70
     1
102
RTVSPropertyOp21
 70
     1
102
RTVSPropertyOp22
 70
     1
102
RTVSPropertyOp23
 70
     1
102
RTVSPropertyOp24
 70
     1
102
RTVSPropertyOp25
 70
     1
102
RTVSPropertyOp26
 70
     1
102
RTVSPropertyOp27
 70
     1
  0
XRECORD
  5
10A
102
{ACAD_REACTORS
330
109
102
}
330
109
100
AcDbXrecord
280
     1
102
RTVSPropertyOp0
 70
     1
102
RTVSPropertyOp1
 70
     1
102
RTVSPropertyOp2
 70
     1
102
RTVSPropertyOp3
 70
     1
102
RTVSPropertyOp4
 70
     1
102
RTVSPropertyOp5
 70
     1
102
RTVSPropertyOp6
 70
     1
102
RTVSPropertyOp7
 70
     1
102
RTVSPropertyOp8
 70
     1
102
RTVSPropertyOp9
 70
     1
102
RTVSPropertyOp10
 70
     1
102
RTVSPropertyOp11
 70
     1
102
RTVSPropertyOp12
 70
     1
102
RTVSPropertyOp13
 70
     1
102
RTVSPropertyOp14
 70
     1
102
RTVSPropertyOp15
 70
     1
102
RTVSPropertyOp16
 70
     1
102
RTVSPropertyOp17
 70
     1
102
RTVSPropertyOp18
 70
     1
102
RTVSPropertyOp19
 70
     1
102
RTVSPropertyOp20
 70
     1
102
RTVSPropertyOp21
 70
     1
102
RTVSPropertyOp22
 70
     1
102
RTVSPropertyOp23
 70
     1
102
RTVSPropertyOp24
 70
     1
102
RTVSPropertyOp25
 70
     1
102
RTVSPropertyOp26
 70
     1
102
RTVSPropertyOp27
 70
     1
  0
XRECORD
  5
10C
102
{ACAD_REACTORS
330
10B
102
}
330
10B
100
AcDbXrecord
280
     1
102
RTVSPropertyOp0
 70
     1
102
RTVSPropertyOp1
 70
     1
102
RTVSPropertyOp2
 70
     1
102
RTVSPropertyOp3
 70
     1
102
RTVSPropertyOp4
 70
     1
102
RTVSPropertyOp5
 70
     1
102
RTVSPropertyOp6
 70
     1
102
RTVSPropertyOp7
 70
     1
102
RTVSPropertyOp8
 70
     1
102
RTVSPropertyOp9
 70
     1
102
RTVSPropertyOp10
 70
     1
102
RTVSPropertyOp11
 70
     1
102
RTVSPropertyOp12
 70
     1
102
RTVSPropertyOp13
 70
     1
102
RTVSPropertyOp14
 70
     1
102
RTVSPropertyOp15
 70
     1
102
RTVSPropertyOp16
 70
     1
102
RTVSPropertyOp17
 70
     1
102
RTVSPropertyOp18
 70
     1
102
RTVSPropertyOp19
 70
     1
102
RTVSPropertyOp20
 70
     1
102
RTVSPropertyOp21
 70
     1
102
RTVSPropertyOp22
 70
     1
102
RTVSPropertyOp23
 70
     1
102
RTVSPropertyOp24
 70
     1
102
RTVSPropertyOp25
 70
     1
102
RTVSPropertyOp26
 70
     1
102
RTVSPropertyOp27
 70
     1
  0
XRECORD
  5
114
102
{ACAD_REACTORS
330
113
102
}
330
113
100
AcDbXrecord
280
     1
102
RTVSPropertyOp0
 70
     1
102
RTVSPropertyOp1
 70
     1
102
RTVSPropertyOp2
 70
     1
102
RTVSPropertyOp3
 70
     1
102
RTVSPropertyOp4
 70
     1
102
RTVSPropertyOp5
 70
     1
102
RTVSPropertyOp6
 70
     1
102
RTVSPropertyOp7
 70
     1
102
RTVSPropertyOp8
 70
     1
102
RTVSPropertyOp9
 70
     1
102
RTVSPropertyOp10
 70
     1
102
RTVSPropertyOp11
 70
     1
102
RTVSPropertyOp12
 70
     1
102
RTVSPropertyOp13
 70
     1
102
RTVSPropertyOp14
 70
     1
102
RTVSPropertyOp15
 70
     1
102
RTVSPropertyOp16
 70
     1
102
RTVSPropertyOp17
 70
     1
102
RTVSPropertyOp18
 70
     1
102
RTVSPropertyOp19
 70
     1
102
RTVSPropertyOp20
 70
     1
102
RTVSPropertyOp21
 70
     1
102
RTVSPropertyOp22
 70
     1
102
RTVSPropertyOp23
 70
     1
102
RTVSPropertyOp24
 70
     1
102
RTVSPropertyOp25
 70
     1
102
RTVSPropertyOp26
 70
     1
102
RTVSPropertyOp27
 70
     1
  0
XRECORD
  5
F8
102
{ACAD_REACTORS
330
F7
102
}
330
F7
100
AcDbXrecord
280
     1
102
RTVSPropertyOp0
 70
     1
102
RTVSPropertyOp1
 70
     1
102
RTVSPropertyOp2
 70
     1
102
RTVSPropertyOp3
 70
     1
102
RTVSPropertyOp4
 70
     1
102
RTVSPropertyOp5
 70
     1
102
RTVSPropertyOp6
 70
     1
102
RTVSPropertyOp7
 70
     1
102
RTVSPropertyOp8
 70
     1
102
RTVSPropertyOp9
 70
     1
102
RTVSPropertyOp10
 70
     1
102
RTVSPropertyOp11
 70
     1
102
RTVSPropertyOp12
 70
     1
102
RTVSPropertyOp13
 70
     1
102
RTVSPropertyOp14
 70
     1
102
RTVSPropertyOp15
 70
     1
102
RTVSPropertyOp16
 70
     1
102
RTVSPropertyOp17
 70
     1
102
RTVSPropertyOp18
 70
     1
102
RTVSPropertyOp19
 70
     1
102
RTVSPropertyOp20
 70
     1
102
RTVSPropertyOp21
 70
     1
102
RTVSPropertyOp22
 70
     1
102
RTVSPropertyOp23
 70
     1
102
RTVSPropertyOp24
 70
     1
102
RTVSPropertyOp25
 70
     1
102
RTVSPropertyOp26
 70
     1
102
RTVSPropertyOp27
 70
     1
  0
XRECORD
  5
FA
102
{ACAD_REACTORS
330
F9
102
}
330
F9
100
AcDbXrecord
280
     1
102
RTVSPropertyOp0
 70
     1
102
RTVSPropertyOp1
 70
     1
102
RTVSPropertyOp2
 70
     1
102
RTVSPropertyOp3
 70
     1
102
RTVSPropertyOp4
 70
     1
102
RTVSPropertyOp5
 70
     1
102
RTVSPropertyOp6
 70
     1
102
RTVSPropertyOp7
 70
     1
102
RTVSPropertyOp8
 70
     1
102
RTVSPropertyOp9
 70
     1
102
RTVSPropertyOp10
 70
     1
102
RTVSPropertyOp11
 70
     1
102
RTVSPropertyOp12
 70
     1
102
RTVSPropertyOp13
 70
     1
102
RTVSPropertyOp14
 70
     1
102
RTVSPropertyOp15
 70
     1
102
RTVSPropertyOp16
 70
     1
102
RTVSPropertyOp17
 70
     1
102
RTVSPropertyOp18
 70
     1
102
RTVSPropertyOp19
 70
     1
102
RTVSPropertyOp20
 70
     1
102
RTVSPropertyOp21
 70
     1
102
RTVSPropertyOp22
 70
     1
102
RTVSPropertyOp23
 70
     1
102
RTVSPropertyOp24
 70
     1
102
RTVSPropertyOp25
 70
     1
102
RTVSPropertyOp26
 70
     1
102
RTVSPropertyOp27
 70
     1
  0
XRECORD
  5
FC
102
{ACAD_REACTORS
330
FB
102
}
330
FB
100
AcDbXrecord
280
     1
102
RTVSPropertyOp0
 70
     1
102
RTVSPropertyOp1
 70
     1
102
RTVSPropertyOp2
 70
     1
102
RTVSPropertyOp3
 70
     1
102
RTVSPropertyOp4
 70
     1
102
RTVSPropertyOp5
 70
     1
102
RTVSPropertyOp6
 70
     1
102
RTVSPropertyOp7
 70
     1
102
RTVSPropertyOp8
 70
     1
102
RTVSPropertyOp9
 70
     1
102
RTVSPropertyOp10
 70
     1
102
RTVSPropertyOp11
 70
     1
102
RTVSPropertyOp12
 70
     1
102
RTVSPropertyOp13
 70
     1
102
RTVSPropertyOp14
 70
     1
102
RTVSPropertyOp15
 70
     1
102
RTVSPropertyOp16
 70
     1
102
RTVSPropertyOp17
 70
     1
102
RTVSPropertyOp18
 70
     1
102
RTVSPropertyOp19
 70
     1
102
RTVSPropertyOp20
 70
     1
102
RTVSPropertyOp21
 70
     1
102
RTVSPropertyOp22
 70
     1
102
RTVSPropertyOp23
 70
     1
102
RTVSPropertyOp24
 70
     1
102
RTVSPropertyOp25
 70
     1
102
RTVSPropertyOp26
 70
     1
102
RTVSPropertyOp27
 70
     1
  0
XRECORD
  5
FE
102
{ACAD_REACTORS
330
FD
102
}
330
FD
100
AcDbXrecord
280
     1
102
RTVSPropertyOp0
 70
     1
102
RTVSPropertyOp1
 70
     1
102
RTVSPropertyOp2
 70
     1
102
RTVSPropertyOp3
 70
     1
102
RTVSPropertyOp4
 70
     1
102
RTVSPropertyOp5
 70
     1
102
RTVSPropertyOp6
 70
     1
102
RTVSPropertyOp7
 70
     1
102
RTVSPropertyOp8
 70
     1
102
RTVSPropertyOp9
 70
     1
102
RTVSPropertyOp10
 70
     1
102
RTVSPropertyOp11
 70
     1
102
RTVSPropertyOp12
 70
     1
102
RTVSPropertyOp13
 70
     1
102
RTVSPropertyOp14
 70
     1
102
RTVSPropertyOp15
 70
     1
102
RTVSPropertyOp16
 70
     1
102
RTVSPropertyOp17
 70
     1
102
RTVSPropertyOp18
 70
     1
102
RTVSPropertyOp19
 70
     1
102
RTVSPropertyOp20
 70
     1
102
RTVSPropertyOp21
 70
     1
102
RTVSPropertyOp22
 70
     1
102
RTVSPropertyOp23
 70
     1
102
RTVSPropertyOp24
 70
     1
102
RTVSPropertyOp25
 70
     1
102
RTVSPropertyOp26
 70
     1
102
RTVSPropertyOp27
 70
     1
  0
XRECORD
  5
112
102
{ACAD_REACTORS
330
111
102
}
330
111
100
AcDbXrecord
280
     1
102
RTVSPropertyOp0
 70
     1
102
RTVSPropertyOp1
 70
     1
102
RTVSPropertyOp2
 70
     1
102
RTVSPropertyOp3
 70
     1
102
RTVSPropertyOp4
 70
     1
102
RTVSPropertyOp5
 70
     1
102
RTVSPropertyOp6
 70
     1
102
RTVSPropertyOp7
 70
     1
102
RTVSPropertyOp8
 70
     1
102
RTVSPropertyOp9
 70
     1
102
RTVSPropertyOp10
 70
     1
102
RTVSPropertyOp11
 70
     1
102
RTVSPropertyOp12
 70
     1
102
RTVSPropertyOp13
 70
     1
102
RTVSPropertyOp14
 70
     1
102
RTVSPropertyOp15
 70
     1
102
RTVSPropertyOp16
 70
     1
102
RTVSPropertyOp17
 70
     1
102
RTVSPropertyOp18
 70
     1
102
RTVSPropertyOp19
 70
     1
102
RTVSPropertyOp20
 70
     1
102
RTVSPropertyOp21
 70
     1
102
RTVSPropertyOp22
 70
     1
102
RTVSPropertyOp23
 70
     1
102
RTVSPropertyOp24
 70
     1
102
RTVSPropertyOp25
 70
     1
102
RTVSPropertyOp26
 70
     1
102
RTVSPropertyOp27
 70
     1
  0
XRECORD
  5
108
102
{ACAD_REACTORS
330
107
102
}
330
107
100
AcDbXrecord
280
     1
102
RTVSPropertyOp0
 70
     1
102
RTVSPropertyOp1
 70
     1
102
RTVSPropertyOp2
 70
     1
102
RTVSPropertyOp3
 70
     1
102
RTVSPropertyOp4
 70
     1
102
RTVSPropertyOp5
 70
     1
102
RTVSPropertyOp6
 70
     1
102
RTVSPropertyOp7
 70
     1
102
RTVSPropertyOp8
 70
     1
102
RTVSPropertyOp9
 70
     1
102
RTVSPropertyOp10
 70
     1
102
RTVSPropertyOp11
 70
     1
102
RTVSPropertyOp12
 70
     1
102
RTVSPropertyOp13
 70
     1
102
RTVSPropertyOp14
 70
     1
102
RTVSPropertyOp15
 70
     1
102
RTVSPropertyOp16
 70
     1
102
RTVSPropertyOp17
 70
     1
102
RTVSPropertyOp18
 70
     1
102
RTVSPropertyOp19
 70
     1
102
RTVSPropertyOp20
 70
     1
102
RTVSPropertyOp21
 70
     1
102
RTVSPropertyOp22
 70
     1
102
RTVSPropertyOp23
 70
     1
102
RTVSPropertyOp24
 70
     1
102
RTVSPropertyOp25
 70
     1
102
RTVSPropertyOp26
 70
     1
102
RTVSPropertyOp27
 70
     1
  0
XRECORD
  5
110
102
{ACAD_REACTORS
330
10F
102
}
330
10F
100
AcDbXrecord
280
     1
102
RTVSPropertyOp0
 70
     1
102
RTVSPropertyOp1
 70
     1
102
RTVSPropertyOp2
 70
     1
102
RTVSPropertyOp3
 70
     1
102
RTVSPropertyOp4
 70
     1
102
RTVSPropertyOp5
 70
     1
102
RTVSPropertyOp6
 70
     1
102
RTVSPropertyOp7
 70
     1
102
RTVSPropertyOp8
 70
     1
102
RTVSPropertyOp9
 70
     1
102
RTVSPropertyOp10
 70
     1
102
RTVSPropertyOp11
 70
     1
102
RTVSPropertyOp12
 70
     1
102
RTVSPropertyOp13
 70
     1
102
RTVSPropertyOp14
 70
     1
102
RTVSPropertyOp15
 70
     1
102
RTVSPropertyOp16
 70
     1
102
RTVSPropertyOp17
 70
     1
102
RTVSPropertyOp18
 70
     1
102
RTVSPropertyOp19
 70
     1
102
RTVSPropertyOp20
 70
     1
102
RTVSPropertyOp21
 70
     1
102
RTVSPropertyOp22
 70
     1
102
RTVSPropertyOp23
 70
     1
102
RTVSPropertyOp24
 70
     1
102
RTVSPropertyOp25
 70
     1
102
RTVSPropertyOp26
 70
     1
102
RTVSPropertyOp27
 70
     1
  0
ENDSEC
  0
EOF
