  0
SECTION
  2
HEADER
  9
$ACADVER
  1
AC1014
  9
$ACADMAINTVER
 70
     9
  9
$DWGCODEPAGE
  3
ANSI_1250
  9
$INSBASE
 10
0.0
 20
0.0
 30
0.0
  9
$EXTMIN
 10
-73.9156
 20
-22.1959
 30
0.0
  9
$EXTMAX
 10
73.9157
 20
22.1961
 30
0.0
  9
$LIMMIN
 10
0.0
 20
0.0
  9
$LIMMAX
 10
12.0
 20
9.0
  9
$ORTHOMODE
 70
     0
  9
$REGENMODE
 70
     1
  9
$FILLMODE
 70
     1
  9
$QTEXTMODE
 70
     0
  9
$MIRRTEXT
 70
     1
  9
$DRAGMODE
 70
     2
  9
$LTSCALE
 40
1.0
  9
$OSMODE
 70
    37
  9
$ATTMODE
 70
     1
  9
$TEXTSIZE
 40
0.2
  9
$TRACEWID
 40
0.05
  9
$TEXTSTYLE
  7
STANDARD
  9
$CLAYER
  8
0
  9
$CELTYPE
  6
BYLAYER
  9
$CECOLOR
 62
   256
  9
$CELTSCALE
 40
1.0
  9
$DELOBJ
 70
     1
  9
$DISPSILH
 70
     0
  9
$DIMSCALE
 40
1.0
  9
$DIMASZ
 40
0.18
  9
$DIMEXO
 40
0.0625
  9
$DIMDLI
 40
0.38
  9
$DIMRND
 40
0.0
  9
$DIMDLE
 40
0.0
  9
$DIMEXE
 40
0.18
  9
$DIMTP
 40
0.0
  9
$DIMTM
 40
0.0
  9
$DIMTXT
 40
0.18
  9
$DIMCEN
 40
0.09
  9
$DIMTSZ
 40
0.0
  9
$DIMTOL
 70
     0
  9
$DIMLIM
 70
     0
  9
$DIMTIH
 70
     1
  9
$DIMTOH
 70
     1
  9
$DIMSE1
 70
     0
  9
$DIMSE2
 70
     0
  9
$DIMTAD
 70
     0
  9
$DIMZIN
 70
     0
  9
$DIMBLK
  1

  9
$DIMASO
 70
     1
  9
$DIMSHO
 70
     1
  9
$DIMPOST
  1

  9
$DIMAPOST
  1

  9
$DIMALT
 70
     0
  9
$DIMALTD
 70
     2
  9
$DIMALTF
 40
25.4
  9
$DIMLFAC
 40
1.0
  9
$DIMTOFL
 70
     0
  9
$DIMTVP
 40
0.0
  9
$DIMTIX
 70
     0
  9
$DIMSOXD
 70
     0
  9
$DIMSAH
 70
     0
  9
$DIMBLK1
  1

  9
$DIMBLK2
  1

  9
$DIMSTYLE
  2
STANDARD
  9
$DIMCLRD
 70
     0
  9
$DIMCLRE
 70
     0
  9
$DIMCLRT
 70
     0
  9
$DIMTFAC
 40
1.0
  9
$DIMGAP
 40
0.09
  9
$DIMJUST
 70
     0
  9
$DIMSD1
 70
     0
  9
$DIMSD2
 70
     0
  9
$DIMTOLJ
 70
     1
  9
$DIMTZIN
 70
     0
  9
$DIMALTZ
 70
     0
  9
$DIMALTTZ
 70
     0
  9
$DIMFIT
 70
     3
  9
$DIMUPT
 70
     0
  9
$DIMUNIT
 70
     2
  9
$DIMDEC
 70
     4
  9
$DIMTDEC
 70
     4
  9
$DIMALTU
 70
     2
  9
$DIMALTTD
 70
     2
  9
$DIMTXSTY
  7
STANDARD
  9
$DIMAUNIT
 70
     0
  9
$LUNITS
 70
     2
  9
$LUPREC
 70
     4
  9
$SKETCHINC
 40
0.1
  9
$FILLETRAD
 40
0.5
  9
$AUNITS
 70
     0
  9
$AUPREC
 70
     0
  9
$MENU
  1
.
  9
$ELEVATION
 40
0.0
  9
$PELEVATION
 40
0.0
  9
$THICKNESS
 40
0.0
  9
$LIMCHECK
 70
     0
  9
$CHAMFERA
 40
0.5
  9
$CHAMFERB
 40
0.5
  9
$CHAMFERC
 40
1.0
  9
$CHAMFERD
 40
0.0
  9
$SKPOLY
 70
     0
  9
$TDCREATE
 40
2456272.363645996
  9
$TDUPDATE
 40
2456272.363646007
  9
$TDINDWG
 40
0.0000000116
  9
$TDUSRTIMER
 40
0.0000000116
  9
$USRTIMER
 70
     1
  9
$ANGBASE
 50
0.0
  9
$ANGDIR
 70
     0
  9
$PDMODE
 70
     0
  9
$PDSIZE
 40
0.0
  9
$PLINEWID
 40
0.0
  9
$COORDS
 70
     1
  9
$SPLFRAME
 70
     0
  9
$SPLINETYPE
 70
     6
  9
$SPLINESEGS
 70
     8
  9
$ATTDIA
 70
     0
  9
$ATTREQ
 70
     1
  9
$HANDLING
 70
     1
  9
$HANDSEED
  5
13B
  9
$SURFTAB1
 70
     6
  9
$SURFTAB2
 70
     6
  9
$SURFTYPE
 70
     6
  9
$SURFU
 70
     6
  9
$SURFV
 70
     6
  9
$UCSNAME
  2

  9
$UCSORG
 10
0.0
 20
0.0
 30
0.0
  9
$UCSXDIR
 10
1.0
 20
0.0
 30
0.0
  9
$UCSYDIR
 10
0.0
 20
1.0
 30
0.0
  9
$PUCSNAME
  2

  9
$PUCSORG
 10
0.0
 20
0.0
 30
0.0
  9
$PUCSXDIR
 10
1.0
 20
0.0
 30
0.0
  9
$PUCSYDIR
 10
0.0
 20
1.0
 30
0.0
  9
$USERI1
 70
     0
  9
$USERI2
 70
     0
  9
$USERI3
 70
     0
  9
$USERI4
 70
     0
  9
$USERI5
 70
     0
  9
$USERR1
 40
0.0
  9
$USERR2
 40
0.0
  9
$USERR3
 40
0.0
  9
$USERR4
 40
0.0
  9
$USERR5
 40
0.0
  9
$WORLDVIEW
 70
     1
  9
$SHADEDGE
 70
     3
  9
$SHADEDIF
 70
    70
  9
$TILEMODE
 70
     1
  9
$MAXACTVP
 70
    64
  9
$PINSBASE
 10
0.0
 20
0.0
 30
0.0
  9
$PLIMCHECK
 70
     0
  9
$PEXTMIN
 10
1.000000000000000E+20
 20
1.000000000000000E+20
 30
1.000000000000000E+20
  9
$PEXTMAX
 10
-1.000000000000000E+20
 20
-1.000000000000000E+20
 30
-1.000000000000000E+20
  9
$PLIMMIN
 10
0.0
 20
0.0
  9
$PLIMMAX
 10
12.0
 20
9.0
  9
$UNITMODE
 70
     0
  9
$VISRETAIN
 70
     1
  9
$PLINEGEN
 70
     0
  9
$PSLTSCALE
 70
     1
  9
$TREEDEPTH
 70
  3020
  9
$PICKSTYLE
 70
     1
  9
$CMLSTYLE
  2
STANDARD
  9
$CMLJUST
 70
     0
  9
$CMLSCALE
 40
1.0
  9
$PROXYGRAPHICS
 70
     1
  9
$MEASUREMENT
 70
     0
  0
ENDSEC
  0
SECTION
  2
CLASSES
  0
CLASS
  1
ACDBDICTIONARYWDFLT
  2
AcDbDictionaryWithDefault
  3
ObjectDBX Classes
 90
        0
280
     0
281
     0
  0
CLASS
  1
VISUALSTYLE
  2
AcDbVisualStyle
  3
ObjectDBX Classes
 90
     4095
280
     0
281
     0
  0
CLASS
  1
MATERIAL
  2
AcDbMaterial
  3
ObjectDBX Classes
 90
     1153
280
     0
281
     0
  0
CLASS
  1
DICTIONARYVAR
  2
AcDbDictionaryVar
  3
ObjectDBX Classes
 90
        0
280
     0
281
     0
  0
CLASS
  1
XRECORD
  2
AcDbXrecord
  3
AutoCAD 2000
 90
        0
280
     0
281
     0
  0
CLASS
  1
LWPOLYLINE
  2
AcDbPolyline
  3
AutoCAD 2000
 90
        0
280
     0
281
     1
  0
CLASS
  1
HATCH
  2
AcDbHatch
  3
AutoCAD 2000
 90
        0
280
     0
281
     1
  0
CLASS
  1
ACDBPLACEHOLDER
  2
AcDbPlaceHolder
  3
ObjectDBX Classes
 90
        0
280
     0
281
     0
  0
CLASS
  1
LAYOUT
  2
AcDbLayout
  3
ObjectDBX Classes
 90
        0
280
     0
281
     0
  0
ENDSEC
  0
SECTION
  2
TABLES
  0
TABLE
  2
VPORT
  5
8
330
0
100
AcDbSymbolTable
 70
     1
  0
VPORT
  5
29
330
8
100
AcDbSymbolTableRecord
100
AcDbViewportTableRecord
  2
*ACTIVE
 70
     0
 10
0.0
 20
0.0
 11
1.0
 21
1.0
 12
10.42990654205607
 22
4.5
 13
0.0
 23
0.0
 14
0.5
 24
0.5
 15
0.5
 25
0.5
 16
0.0
 26
0.0
 36
1.0
 17
0.0
 27
0.0
 37
0.0
 40
9.0
 41
1.972972972850329
 42
50.0
 43
0.0
 44
0.0
 50
0.0
 51
0.0
 71
     0
 72
   100
 73
     1
 74
     3
 75
     0
 76
     0
 77
     0
 78
     0
  0
ENDTAB
  0
TABLE
  2
LTYPE
  5
5
330
0
100
AcDbSymbolTable
 70
     2
  0
LTYPE
  5
14
330
5
100
AcDbSymbolTableRecord
100
AcDbLinetypeTableRecord
  2
BYBLOCK
 70
     0
  3

 72
    65
 73
     0
 40
0.0
  0
LTYPE
  5
15
330
5
100
AcDbSymbolTableRecord
100
AcDbLinetypeTableRecord
  2
BYLAYER
 70
     0
  3

 72
    65
 73
     0
 40
0.0
  0
LTYPE
  5
16
330
5
100
AcDbSymbolTableRecord
100
AcDbLinetypeTableRecord
  2
CONTINUOUS
 70
     0
  3
Solid line
 72
    65
 73
     0
 40
0.0
  0
LTYPE
  5
62
330
5
100
AcDbSymbolTableRecord
100
AcDbLinetypeTableRecord
  2
NEW_LINE1
 70
     0
  3

 72
    65
 73
     4
 40
1.2
 49
0.5
 74
     4
 75
     0
340
0
 46
1.0
 50
0.0
 44
0.0
 45
0.0
 49
-0.3
 74
     4
 75
     0
340
0
 46
1.0
 50
0.0
 44
0.0
 45
0.0
 49
0.1
 74
     4
 75
     0
340
0
 46
1.0
 50
0.0
 44
0.0
 45
0.0
 49
-0.3
 74
     4
 75
     0
340
0
 46
1.0
 50
0.0
 44
0.0
 45
0.0
  0
ENDTAB
  0
TABLE
  2
LAYER
  5
2
330
0
100
AcDbSymbolTable
 70
     2
  0
LAYER
  5
10
330
2
100
AcDbSymbolTableRecord
100
AcDbLayerTableRecord
  2
0
 70
     0
 62
     7
  6
CONTINUOUS
  0
LAYER
  5
40
330
2
100
AcDbSymbolTableRecord
100
AcDbLayerTableRecord
  2
DEFAULT_1
 70
     0
 62
     7
  6
CONTINUOUS
  0
ENDTAB
  0
TABLE
  2
STYLE
  5
3
330
0
100
AcDbSymbolTable
 70
     1
  0
STYLE
  5
11
330
3
100
AcDbSymbolTableRecord
100
AcDbTextStyleTableRecord
  2
STANDARD
 70
     0
 40
0.0
 41
1.0
 50
0.0
 71
     0
 42
0.2
  3
txt
  4

  0
ENDTAB
  0
TABLE
  2
VIEW
  5
6
330
0
100
AcDbSymbolTable
 70
     0
  0
ENDTAB
  0
TABLE
  2
UCS
  5
7
330
0
100
AcDbSymbolTable
 70
     0
  0
ENDTAB
  0
TABLE
  2
APPID
  5
9
330
0
100
AcDbSymbolTable
 70
     2
  0
APPID
  5
12
330
9
100
AcDbSymbolTableRecord
100
AcDbRegAppTableRecord
  2
ACAD
 70
     0
  0
APPID
  5
3F
330
9
100
AcDbSymbolTableRecord
100
AcDbRegAppTableRecord
  2
ODA
 70
     0
  0
ENDTAB
  0
TABLE
  2
DIMSTYLE
  5
A
330
0
100
AcDbSymbolTable
 70
     1
  0
DIMSTYLE
105
27
330
A
100
AcDbSymbolTableRecord
100
AcDbDimStyleTableRecord
  2
STANDARD
 70
     0
  3

  4

  5

  6

  7

 40
1.0
 41
0.18
 42
0.0625
 43
0.38
 44
0.18
 45
0.0
 46
0.0
 47
0.0
 48
0.0
140
0.18
141
0.09
142
0.0
143
25.4
144
1.0
145
0.0
146
1.0
147
0.09
 71
     0
 72
     0
 73
     1
 74
     1
 75
     0
 76
     0
 77
     0
 78
     0
170
     0
171
     2
172
     0
173
     0
174
     0
175
     0
176
     0
177
     0
178
     0
270
     2
271
     4
272
     4
273
     2
274
     2
340
11
275
     0
280
     0
281
     0
282
     0
283
     1
284
     0
285
     0
286
     0
287
     3
288
     0
  0
ENDTAB
  0
TABLE
  2
BLOCK_RECORD
  5
1
330
0
100
AcDbSymbolTable
 70
     1
  0
BLOCK_RECORD
  5
1F
330
1
100
AcDbSymbolTableRecord
100
AcDbBlockTableRecord
  2
*MODEL_SPACE
  0
BLOCK_RECORD
  5
1B
330
1
100
AcDbSymbolTableRecord
100
AcDbBlockTableRecord
  2
*PAPER_SPACE
  0
ENDTAB
  0
ENDSEC
  0
SECTION
  2
BLOCKS
  0
BLOCK
  5
20
330
1F
100
AcDbEntity
  8
0
100
AcDbBlockBegin
  2
*MODEL_SPACE
 70
     0
 10
0.0
 20
0.0
 30
0.0
  3
*MODEL_SPACE
  1

  0
ENDBLK
  5
21
330
1F
100
AcDbEntity
  8
0
100
AcDbBlockEnd
  0
BLOCK
  5
1C
330
1B
100
AcDbEntity
 67
     1
  8
0
100
AcDbBlockBegin
  2
*PAPER_SPACE
 70
     0
 10
0.0
 20
0.0
 30
0.0
  3
*PAPER_SPACE
  1

  0
ENDBLK
  5
1D
330
1B
100
AcDbEntity
 67
     1
  8
0
100
AcDbBlockEnd
  0
ENDSEC
  0
SECTION
  2
ENTITIES
  0
SPLINE
  5
41
330
1F
100
AcDbEntity
  8
DEFAULT_1
 62
   250
100
AcDbSpline
210
0.0
220
0.0
230
1.0
 70
    11
 71
     3
 72
    48
 73
    44
 74
     0
 42
0.0000000001
 43
0.0000000001
 40
0.0
 40
0.0
 40
0.0
 40
0.0
 40
0.0833333333333333
 40
0.0833333333333333
 40
0.0833333333333333
 40
0.0833333333333333
 40
0.1666666666666667
 40
0.1666666666666667
 40
0.1666666666666667
 40
0.1666666666666667
 40
0.25
 40
0.25
 40
0.25
 40
0.25
 40
0.3333333333333333
 40
0.3333333333333333
 40
0.3333333333333333
 40
0.3333333333333333
 40
0.4166666666666667
 40
0.4166666666666667
 40
0.4166666666666667
 40
0.4166666666666667
 40
0.5
 40
0.5
 40
0.5
 40
0.5
 40
0.5833333333333334
 40
0.5833333333333334
 40
0.5833333333333334
 40
0.5833333333333334
 40
0.6666666666666666
 40
0.6666666666666666
 40
0.6666666666666666
 40
0.6666666666666666
 40
0.75
 40
0.75
 40
0.75
 40
0.75
 40
0.8333333333333334
 40
0.8333333333333334
 40
0.8333333333333334
 40
0.8333333333333334
 40
1.0
 40
1.0
 40
1.0
 40
1.0
 10
-3.9394
 20
-19.8896
 30
0.0
 10
-3.9394
 20
-19.8896
 30
0.0
 10
-3.9394
 20
-19.2147
 30
0.0
 10
-3.9394
 20
-19.2147
 30
0.0
 10
-3.9394
 20
-19.2147
 30
0.0
 10
-3.9394
 20
-19.2147
 30
0.0
 10
-5.1625
 20
-19.2147
 30
0.0
 10
-5.1625
 20
-19.2147
 30
0.0
 10
-5.1625
 20
-19.2147
 30
0.0
 10
-5.1625
 20
-19.2147
 30
0.0
 10
-5.1625
 20
-18.8969
 30
0.0
 10
-5.1625
 20
-18.8969
 30
0.0
 10
-5.1625
 20
-18.8969
 30
0.0
 10
-5.1625
 20
-18.8969
 30
0.0
 10
-3.8757
 20
-17.0698
 30
0.0
 10
-3.8757
 20
-17.0698
 30
0.0
 10
-3.8757
 20
-17.0698
 30
0.0
 10
-3.8757
 20
-17.0698
 30
0.0
 10
-3.5927
 20
-17.0698
 30
0.0
 10
-3.5927
 20
-17.0698
 30
0.0
 10
-3.5927
 20
-17.0698
 30
0.0
 10
-3.5927
 20
-17.0698
 30
0.0
 10
-3.5927
 20
-18.8969
 30
0.0
 10
-3.5927
 20
-18.8969
 30
0.0
 10
-3.5927
 20
-18.8969
 30
0.0
 10
-3.5927
 20
-18.8969
 30
0.0
 10
-3.2119
 20
-18.8969
 30
0.0
 10
-3.2119
 20
-18.8969
 30
0.0
 10
-3.2119
 20
-18.8969
 30
0.0
 10
-3.2119
 20
-18.8969
 30
0.0
 10
-3.2119
 20
-19.2147
 30
0.0
 10
-3.2119
 20
-19.2147
 30
0.0
 10
-3.2119
 20
-19.2147
 30
0.0
 10
-3.2119
 20
-19.2147
 30
0.0
 10
-3.5927
 20
-19.2147
 30
0.0
 10
-3.5927
 20
-19.2147
 30
0.0
 10
-3.5927
 20
-19.2147
 30
0.0
 10
-3.5927
 20
-19.2147
 30
0.0
 10
-3.5927
 20
-19.8896
 30
0.0
 10
-3.5927
 20
-19.8896
 30
0.0
 10
-3.5927
 20
-19.8896
 30
0.0
 10
-3.5927
 20
-19.8896
 30
0.0
 10
-3.9394
 20
-19.8896
 30
0.0
 10
-3.9394
 20
-19.8896
 30
0.0
  0
SPLINE
  5
42
330
1F
100
AcDbEntity
  8
DEFAULT_1
 62
   250
100
AcDbSpline
210
0.0
220
0.0
230
1.0
 70
    11
 71
     3
 72
    16
 73
    12
 74
     0
 42
0.0000000001
 43
0.0000000001
 40
0.0
 40
0.0
 40
0.0
 40
0.0
 40
0.25
 40
0.25
 40
0.25
 40
0.25
 40
0.5
 40
0.5
 40
0.5
 40
0.5
 40
1.0
 40
1.0
 40
1.0
 40
1.0
 10
-3.9394
 20
-18.8969
 30
0.0
 10
-3.9394
 20
-18.8969
 30
0.0
 10
-3.9394
 20
-17.6259
 30
0.0
 10
-3.9394
 20
-17.6259
 30
0.0
 10
-3.9394
 20
-17.6259
 30
0.0
 10
-3.9394
 20
-17.6259
 30
0.0
 10
-4.8218
 20
-18.8969
 30
0.0
 10
-4.8218
 20
-18.8969
 30
0.0
 10
-4.8218
 20
-18.8969
 30
0.0
 10
-4.8218
 20
-18.8969
 30
0.0
 10
-3.9394
 20
-18.8969
 30
0.0
 10
-3.9394
 20
-18.8969
 30
0.0
  0
SPLINE
  5
43
330
1F
100
AcDbEntity
  8
DEFAULT_1
 62
   250
100
AcDbSpline
210
0.0
220
0.0
230
1.0
 70
    11
 71
     3
 72
    52
 73
    48
 74
     0
 42
0.0000000001
 43
0.0000000001
 40
0.0
 40
0.0
 40
0.0
 40
0.0
 40
0.0769230769230769
 40
0.0769230769230769
 40
0.0769230769230769
 40
0.0769230769230769
 40
0.1538461538461539
 40
0.1538461538461539
 40
0.1538461538461539
 40
0.1538461538461539
 40
0.2307692307692308
 40
0.2307692307692308
 40
0.2307692307692308
 40
0.2307692307692308
 40
0.3076923076923077
 40
0.3076923076923077
 40
0.3076923076923077
 40
0.3076923076923077
 40
0.3846153846153846
 40
0.3846153846153846
 40
0.3846153846153846
 40
0.3846153846153846
 40
0.4615384615384616
 40
0.4615384615384616
 40
0.4615384615384616
 40
0.4615384615384616
 40
0.5384615384615384
 40
0.5384615384615384
 40
0.5384615384615384
 40
0.5384615384615384
 40
0.6153846153846154
 40
0.6153846153846154
 40
0.6153846153846154
 40
0.6153846153846154
 40
0.6923076923076923
 40
0.6923076923076923
 40
0.6923076923076923
 40
0.6923076923076923
 40
0.7692307692307693
 40
0.7692307692307693
 40
0.7692307692307693
 40
0.7692307692307693
 40
0.8461538461538461
 40
0.8461538461538461
 40
0.8461538461538461
 40
0.8461538461538461
 40
1.0
 40
1.0
 40
1.0
 40
1.0
 10
-2.858
 20
-18.4991
 30
0.0
 10
-2.858
 20
-18.1655
 30
0.0
 10
-2.8239
 20
-17.897
 30
0.0
 10
-2.7549
 20
-17.6942
 30
0.0
 10
-2.7549
 20
-17.6942
 30
0.0
 10
-2.6867
 20
-17.4906
 30
0.0
 10
-2.5842
 20
-17.3337
 30
0.0
 10
-2.449
 20
-17.2234
 30
0.0
 10
-2.449
 20
-17.2234
 30
0.0
 10
-2.3138
 20
-17.1131
 30
0.0
 10
-2.1437
 20
-17.058
 30
0.0
 10
-1.9389
 20
-17.058
 30
0.0
 10
-1.9389
 20
-17.058
 30
0.0
 10
-1.7872
 20
-17.058
 30
0.0
 10
-1.6546
 20
-17.0888
 30
0.0
 10
-1.5404
 20
-17.1499
 30
0.0
 10
-1.5404
 20
-17.1499
 30
0.0
 10
-1.4261
 20
-17.2103
 30
0.0
 10
-1.3322
 20
-17.2983
 30
0.0
 10
-1.2574
 20
-17.4132
 30
0.0
 10
-1.2574
 20
-17.4132
 30
0.0
 10
-1.1832
 20
-17.528
 30
0.0
 10
-1.1248
 20
-17.6679
 30
0.0
 10
-1.0828
 20
-17.8327
 30
0.0
 10
-1.0828
 20
-17.8327
 30
0.0
 10
-1.0401
 20
-17.9975
 30
0.0
 10
-1.0191
 20
-18.2194
 30
0.0
 10
-1.0191
 20
-18.4991
 30
0.0
 10
-1.0191
 20
-18.4991
 30
0.0
 10
-1.0191
 20
-18.83
 30
0.0
 10
-1.0532
 20
-19.0965
 30
0.0
 10
-1.1208
 20
-19.3
 30
0.0
 10
-1.1208
 20
-19.3
 30
0.0
 10
-1.1891
 20
-19.5036
 30
0.0
 10
-1.2909
 20
-19.6605
 30
0.0
 10
-1.4261
 20
-19.7714
 30
0.0
 10
-1.4261
 20
-19.7714
 30
0.0
 10
-1.5614
 20
-19.8824
 30
0.0
 10
-1.7321
 20
-19.9375
 30
0.0
 10
-1.9389
 20
-19.9375
 30
0.0
 10
-1.9389
 20
-19.9375
 30
0.0
 10
-2.2107
 20
-19.9375
 30
0.0
 10
-2.4241
 20
-19.8404
 30
0.0
 10
-2.579
 20
-19.6454
 30
0.0
 10
-2.579
 20
-19.6454
 30
0.0
 10
-2.7648
 20
-19.411
 30
0.0
 10
-2.858
 20
-19.0282
 30
0.0
 10
-2.858
 20
-18.4991
 30
0.0
  0
SPLINE
  5
44
330
1F
100
AcDbEntity
  8
DEFAULT_1
 62
   250
100
AcDbSpline
210
0.0
220
0.0
230
1.0
 70
    11
 71
     3
 72
    36
 73
    32
 74
     0
 42
0.0000000001
 43
0.0000000001
 40
0.0
 40
0.0
 40
0.0
 40
0.0
 40
0.1111111111111111
 40
0.1111111111111111
 40
0.1111111111111111
 40
0.1111111111111111
 40
0.2222222222222222
 40
0.2222222222222222
 40
0.2222222222222222
 40
0.2222222222222222
 40
0.3333333333333333
 40
0.3333333333333333
 40
0.3333333333333333
 40
0.3333333333333333
 40
0.4444444444444444
 40
0.4444444444444444
 40
0.4444444444444444
 40
0.4444444444444444
 40
0.5555555555555556
 40
0.5555555555555556
 40
0.5555555555555556
 40
0.5555555555555556
 40
0.6666666666666666
 40
0.6666666666666666
 40
0.6666666666666666
 40
0.6666666666666666
 40
0.7777777777777778
 40
0.7777777777777778
 40
0.7777777777777778
 40
0.7777777777777778
 40
1.0
 40
1.0
 40
1.0
 40
1.0
 10
-2.5022
 20
-18.4991
 30
0.0
 10
-2.5022
 20
-18.9619
 30
0.0
 10
-2.4477
 20
-19.2698
 30
0.0
 10
-2.3394
 20
-19.4235
 30
0.0
 10
-2.3394
 20
-19.4235
 30
0.0
 10
-2.231
 20
-19.5764
 30
0.0
 10
-2.0978
 20
-19.6532
 30
0.0
 10
-1.9389
 20
-19.6532
 30
0.0
 10
-1.9389
 20
-19.6532
 30
0.0
 10
-1.7793
 20
-19.6532
 30
0.0
 10
-1.6461
 20
-19.5758
 30
0.0
 10
-1.5377
 20
-19.4221
 30
0.0
 10
-1.5377
 20
-19.4221
 30
0.0
 10
-1.4294
 20
-19.2685
 30
0.0
 10
-1.3749
 20
-18.9606
 30
0.0
 10
-1.3749
 20
-18.4991
 30
0.0
 10
-1.3749
 20
-18.4991
 30
0.0
 10
-1.3749
 20
-18.0349
 30
0.0
 10
-1.4294
 20
-17.7263
 30
0.0
 10
-1.5377
 20
-17.574
 30
0.0
 10
-1.5377
 20
-17.574
 30
0.0
 10
-1.6461
 20
-17.421
 30
0.0
 10
-1.7807
 20
-17.3449
 30
0.0
 10
-1.9422
 20
-17.3449
 30
0.0
 10
-1.9422
 20
-17.3449
 30
0.0
 10
-2.1017
 20
-17.3449
 30
0.0
 10
-2.2284
 20
-17.4125
 30
0.0
 10
-2.3236
 20
-17.5471
 30
0.0
 10
-2.3236
 20
-17.5471
 30
0.0
 10
-2.4424
 20
-17.7184
 30
0.0
 10
-2.5022
 20
-18.0362
 30
0.0
 10
-2.5022
 20
-18.4991
 30
0.0
  0
SPLINE
  5
45
330
1F
100
AcDbEntity
  8
DEFAULT_1
 62
   250
100
AcDbSpline
210
0.0
220
0.0
230
1.0
 70
    11
 71
     3
 72
    52
 73
    48
 74
     0
 42
0.0000000001
 43
0.0000000001
 40
0.0
 40
0.0
 40
0.0
 40
0.0
 40
0.0769230769230769
 40
0.0769230769230769
 40
0.0769230769230769
 40
0.0769230769230769
 40
0.1538461538461539
 40
0.1538461538461539
 40
0.1538461538461539
 40
0.1538461538461539
 40
0.2307692307692308
 40
0.2307692307692308
 40
0.2307692307692308
 40
0.2307692307692308
 40
0.3076923076923077
 40
0.3076923076923077
 40
0.3076923076923077
 40
0.3076923076923077
 40
0.3846153846153846
 40
0.3846153846153846
 40
0.3846153846153846
 40
0.3846153846153846
 40
0.4615384615384616
 40
0.4615384615384616
 40
0.4615384615384616
 40
0.4615384615384616
 40
0.5384615384615384
 40
0.5384615384615384
 40
0.5384615384615384
 40
0.5384615384615384
 40
0.6153846153846154
 40
0.6153846153846154
 40
0.6153846153846154
 40
0.6153846153846154
 40
0.6923076923076923
 40
0.6923076923076923
 40
0.6923076923076923
 40
0.6923076923076923
 40
0.7692307692307693
 40
0.7692307692307693
 40
0.7692307692307693
 40
0.7692307692307693
 40
0.8461538461538461
 40
0.8461538461538461
 40
0.8461538461538461
 40
0.8461538461538461
 40
1.0
 40
1.0
 40
1.0
 40
1.0
 10
-0.6671
 20
-18.4991
 30
0.0
 10
-0.6671
 20
-18.1655
 30
0.0
 10
-0.633
 20
-17.897
 30
0.0
 10
-0.564
 20
-17.6942
 30
0.0
 10
-0.564
 20
-17.6942
 30
0.0
 10
-0.4958
 20
-17.4906
 30
0.0
 10
-0.3933
 20
-17.3337
 30
0.0
 10
-0.2581
 20
-17.2234
 30
0.0
 10
-0.2581
 20
-17.2234
 30
0.0
 10
-0.1229
 20
-17.1131
 30
0.0
 10
0.0472
 20
-17.058
 30
0.0
 10
0.252
 20
-17.058
 30
0.0
 10
0.252
 20
-17.058
 30
0.0
 10
0.4037
 20
-17.058
 30
0.0
 10
0.5363
 20
-17.0888
 30
0.0
 10
0.6505
 20
-17.1499
 30
0.0
 10
0.6505
 20
-17.1499
 30
0.0
 10
0.7648
 20
-17.2103
 30
0.0
 10
0.8587
 20
-17.2983
 30
0.0
 10
0.9335
 20
-17.4132
 30
0.0
 10
0.9335
 20
-17.4132
 30
0.0
 10
1.0077
 20
-17.528
 30
0.0
 10
1.0661
 20
-17.6679
 30
0.0
 10
1.1081
 20
-17.8327
 30
0.0
 10
1.1081
 20
-17.8327
 30
0.0
 10
1.1508
 20
-17.9975
 30
0.0
 10
1.1718
 20
-18.2194
 30
0.0
 10
1.1718
 20
-18.4991
 30
0.0
 10
1.1718
 20
-18.4991
 30
0.0
 10
1.1718
 20
-18.83
 30
0.0
 10
1.1377
 20
-19.0965
 30
0.0
 10
1.0701
 20
-19.3
 30
0.0
 10
1.0701
 20
-19.3
 30
0.0
 10
1.0018
 20
-19.5036
 30
0.0
 10
0.9
 20
-19.6605
 30
0.0
 10
0.7648
 20
-19.7714
 30
0.0
 10
0.7648
 20
-19.7714
 30
0.0
 10
0.6295
 20
-19.8824
 30
0.0
 10
0.4588
 20
-19.9375
 30
0.0
 10
0.252
 20
-19.9375
 30
0.0
 10
0.252
 20
-19.9375
 30
0.0
 10
-0.0198
 20
-19.9375
 30
0.0
 10
-0.2332
 20
-19.8404
 30
0.0
 10
-0.3881
 20
-19.6454
 30
0.0
 10
-0.3881
 20
-19.6454
 30
0.0
 10
-0.5739
 20
-19.411
 30
0.0
 10
-0.6671
 20
-19.0282
 30
0.0
 10
-0.6671
 20
-18.4991
 30
0.0
  0
SPLINE
  5
46
330
1F
100
AcDbEntity
  8
DEFAULT_1
 62
   250
100
AcDbSpline
210
0.0
220
0.0
230
1.0
 70
    11
 71
     3
 72
    36
 73
    32
 74
     0
 42
0.0000000001
 43
0.0000000001
 40
0.0
 40
0.0
 40
0.0
 40
0.0
 40
0.1111111111111111
 40
0.1111111111111111
 40
0.1111111111111111
 40
0.1111111111111111
 40
0.2222222222222222
 40
0.2222222222222222
 40
0.2222222222222222
 40
0.2222222222222222
 40
0.3333333333333333
 40
0.3333333333333333
 40
0.3333333333333333
 40
0.3333333333333333
 40
0.4444444444444444
 40
0.4444444444444444
 40
0.4444444444444444
 40
0.4444444444444444
 40
0.5555555555555556
 40
0.5555555555555556
 40
0.5555555555555556
 40
0.5555555555555556
 40
0.6666666666666666
 40
0.6666666666666666
 40
0.6666666666666666
 40
0.6666666666666666
 40
0.7777777777777778
 40
0.7777777777777778
 40
0.7777777777777778
 40
0.7777777777777778
 40
1.0
 40
1.0
 40
1.0
 40
1.0
 10
-0.3113
 20
-18.4991
 30
0.0
 10
-0.3113
 20
-18.9619
 30
0.0
 10
-0.2568
 20
-19.2698
 30
0.0
 10
-0.1485
 20
-19.4235
 30
0.0
 10
-0.1485
 20
-19.4235
 30
0.0
 10
-0.0401
 20
-19.5764
 30
0.0
 10
0.0931
 20
-19.6532
 30
0.0
 10
0.252
 20
-19.6532
 30
0.0
 10
0.252
 20
-19.6532
 30
0.0
 10
0.4116
 20
-19.6532
 30
0.0
 10
0.5448
 20
-19.5758
 30
0.0
 10
0.6532
 20
-19.4221
 30
0.0
 10
0.6532
 20
-19.4221
 30
0.0
 10
0.7615
 20
-19.2685
 30
0.0
 10
0.816
 20
-18.9606
 30
0.0
 10
0.816
 20
-18.4991
 30
0.0
 10
0.816
 20
-18.4991
 30
0.0
 10
0.816
 20
-18.0349
 30
0.0
 10
0.7615
 20
-17.7263
 30
0.0
 10
0.6532
 20
-17.574
 30
0.0
 10
0.6532
 20
-17.574
 30
0.0
 10
0.5448
 20
-17.421
 30
0.0
 10
0.4102
 20
-17.3449
 30
0.0
 10
0.2487
 20
-17.3449
 30
0.0
 10
0.2487
 20
-17.3449
 30
0.0
 10
0.0892
 20
-17.3449
 30
0.0
 10
-0.0375
 20
-17.4125
 30
0.0
 10
-0.1327
 20
-17.5471
 30
0.0
 10
-0.1327
 20
-17.5471
 30
0.0
 10
-0.2515
 20
-17.7184
 30
0.0
 10
-0.3113
 20
-18.0362
 30
0.0
 10
-0.3113
 20
-18.4991
 30
0.0
  0
SPLINE
  5
47
330
1F
100
AcDbEntity
  8
DEFAULT_1
 62
   250
100
AcDbSpline
210
0.0
220
0.0
230
1.0
 70
    11
 71
     3
 72
    20
 73
    16
 74
     0
 42
0.0000000001
 43
0.0000000001
 40
0.0
 40
0.0
 40
0.0
 40
0.0
 40
0.2
 40
0.2
 40
0.2
 40
0.2
 40
0.4
 40
0.4
 40
0.4
 40
0.4
 40
0.6
 40
0.6
 40
0.6
 40
0.6
 40
1.0
 40
1.0
 40
1.0
 40
1.0
 10
2.5794
 20
-19.0433
 30
0.0
 10
2.5794
 20
-19.0433
 30
0.0
 10
2.5794
 20
-18.6954
 30
0.0
 10
2.5794
 20
-18.6954
 30
0.0
 10
2.5794
 20
-18.6954
 30
0.0
 10
2.5794
 20
-18.6954
 30
0.0
 10
3.6437
 20
-18.6954
 30
0.0
 10
3.6437
 20
-18.6954
 30
0.0
 10
3.6437
 20
-18.6954
 30
0.0
 10
3.6437
 20
-18.6954
 30
0.0
 10
3.6437
 20
-19.0433
 30
0.0
 10
3.6437
 20
-19.0433
 30
0.0
 10
3.6437
 20
-19.0433
 30
0.0
 10
3.6437
 20
-19.0433
 30
0.0
 10
2.5794
 20
-19.0433
 30
0.0
 10
2.5794
 20
-19.0433
 30
0.0
  0
SPLINE
  5
48
330
1F
100
AcDbEntity
  8
DEFAULT_1
 62
   250
100
AcDbSpline
210
0.0
220
0.0
230
1.0
 70
    11
 71
     3
 72
    68
 73
    64
 74
     0
 42
0.0000000001
 43
0.0000000001
 40
0.0
 40
0.0
 40
0.0
 40
0.0
 40
0.0588235294117647
 40
0.0588235294117647
 40
0.0588235294117647
 40
0.0588235294117647
 40
0.1176470588235294
 40
0.1176470588235294
 40
0.1176470588235294
 40
0.1176470588235294
 40
0.1764705882352941
 40
0.1764705882352941
 40
0.1764705882352941
 40
0.1764705882352941
 40
0.2352941176470588
 40
0.2352941176470588
 40
0.2352941176470588
 40
0.2352941176470588
 40
0.2941176470588235
 40
0.2941176470588235
 40
0.2941176470588235
 40
0.2941176470588235
 40
0.3529411764705883
 40
0.3529411764705883
 40
0.3529411764705883
 40
0.3529411764705883
 40
0.4117647058823529
 40
0.4117647058823529
 40
0.4117647058823529
 40
0.4117647058823529
 40
0.4705882352941176
 40
0.4705882352941176
 40
0.4705882352941176
 40
0.4705882352941176
 40
0.5294117647058824
 40
0.5294117647058824
 40
0.5294117647058824
 40
0.5294117647058824
 40
0.5882352941176471
 40
0.5882352941176471
 40
0.5882352941176471
 40
0.5882352941176471
 40
0.6470588235294118
 40
0.6470588235294118
 40
0.6470588235294118
 40
0.6470588235294118
 40
0.7058823529411765
 40
0.7058823529411765
 40
0.7058823529411765
 40
0.7058823529411765
 40
0.7647058823529411
 40
0.7647058823529411
 40
0.7647058823529411
 40
0.7647058823529411
 40
0.8235294117647058
 40
0.8235294117647058
 40
0.8235294117647058
 40
0.8235294117647058
 40
0.8823529411764706
 40
0.8823529411764706
 40
0.8823529411764706
 40
0.8823529411764706
 40
1.0
 40
1.0
 40
1.0
 40
1.0
 10
5.5575
 20
-18.3605
 30
0.0
 10
5.4137
 20
-18.308
 30
0.0
 10
5.3073
 20
-18.2332
 30
0.0
 10
5.2378
 20
-18.1353
 30
0.0
 10
5.2378
 20
-18.1353
 30
0.0
 10
5.1688
 20
-18.0382
 30
0.0
 10
5.134
 20
-17.9213
 30
0.0
 10
5.134
 20
-17.7854
 30
0.0
 10
5.134
 20
-17.7854
 30
0.0
 10
5.134
 20
-17.5799
 30
0.0
 10
5.2075
 20
-17.4079
 30
0.0
 10
5.3553
 20
-17.2681
 30
0.0
 10
5.3553
 20
-17.2681
 30
0.0
 10
5.503
 20
-17.1282
 30
0.0
 10
5.6986
 20
-17.058
 30
0.0
 10
5.9435
 20
-17.058
 30
0.0
 10
5.9435
 20
-17.058
 30
0.0
 10
6.1897
 20
-17.058
 30
0.0
 10
6.388
 20
-17.1295
 30
0.0
 10
6.5383
 20
-17.2727
 30
0.0
 10
6.5383
 20
-17.2727
 30
0.0
 10
6.688
 20
-17.4158
 30
0.0
 10
6.7629
 20
-17.5898
 30
0.0
 10
6.7629
 20
-17.7953
 30
0.0
 10
6.7629
 20
-17.7953
 30
0.0
 10
6.7629
 20
-17.9259
 30
0.0
 10
6.7287
 20
-18.0395
 30
0.0
 10
6.6605
 20
-18.1367
 30
0.0
 10
6.6605
 20
-18.1367
 30
0.0
 10
6.5915
 20
-18.2332
 30
0.0
 10
6.4878
 20
-18.308
 30
0.0
 10
6.3479
 20
-18.3605
 30
0.0
 10
6.3479
 20
-18.3605
 30
0.0
 10
6.5206
 20
-18.417
 30
0.0
 10
6.6526
 20
-18.5076
 30
0.0
 10
6.7432
 20
-18.6337
 30
0.0
 10
6.7432
 20
-18.6337
 30
0.0
 10
6.8331
 20
-18.759
 30
0.0
 10
6.8784
 20
-18.9094
 30
0.0
 10
6.8784
 20
-19.0834
 30
0.0
 10
6.8784
 20
-19.0834
 30
0.0
 10
6.8784
 20
-19.325
 30
0.0
 10
6.7931
 20
-19.5272
 30
0.0
 10
6.623
 20
-19.6913
 30
0.0
 10
6.623
 20
-19.6913
 30
0.0
 10
6.4523
 20
-19.8555
 30
0.0
 10
6.2278
 20
-19.9375
 30
0.0
 10
5.9494
 20
-19.9375
 30
0.0
 10
5.9494
 20
-19.9375
 30
0.0
 10
5.6711
 20
-19.9375
 30
0.0
 10
5.4472
 20
-19.8555
 30
0.0
 10
5.2765
 20
-19.6907
 30
0.0
 10
5.2765
 20
-19.6907
 30
0.0
 10
5.1058
 20
-19.5259
 30
0.0
 10
5.0204
 20
-19.3204
 30
0.0
 10
5.0204
 20
-19.0742
 30
0.0
 10
5.0204
 20
-19.0742
 30
0.0
 10
5.0204
 20
-18.891
 30
0.0
 10
5.0671
 20
-18.7374
 30
0.0
 10
5.1603
 20
-18.6133
 30
0.0
 10
5.1603
 20
-18.6133
 30
0.0
 10
5.2529
 20
-18.4899
 30
0.0
 10
5.3855
 20
-18.4052
 30
0.0
 10
5.5575
 20
-18.3605
 30
0.0
  0
SPLINE
  5
49
330
1F
100
AcDbEntity
  8
DEFAULT_1
 62
   250
100
AcDbSpline
210
0.0
220
0.0
230
1.0
 70
    11
 71
     3
 72
    36
 73
    32
 74
     0
 42
0.0000000001
 43
0.0000000001
 40
0.0
 40
0.0
 40
0.0
 40
0.0
 40
0.1111111111111111
 40
0.1111111111111111
 40
0.1111111111111111
 40
0.1111111111111111
 40
0.2222222222222222
 40
0.2222222222222222
 40
0.2222222222222222
 40
0.2222222222222222
 40
0.3333333333333333
 40
0.3333333333333333
 40
0.3333333333333333
 40
0.3333333333333333
 40
0.4444444444444444
 40
0.4444444444444444
 40
0.4444444444444444
 40
0.4444444444444444
 40
0.5555555555555556
 40
0.5555555555555556
 40
0.5555555555555556
 40
0.5555555555555556
 40
0.6666666666666666
 40
0.6666666666666666
 40
0.6666666666666666
 40
0.6666666666666666
 40
0.7777777777777778
 40
0.7777777777777778
 40
0.7777777777777778
 40
0.7777777777777778
 40
1.0
 40
1.0
 40
1.0
 40
1.0
 10
5.4879
 20
-17.7736
 30
0.0
 10
5.4879
 20
-17.9069
 30
0.0
 10
5.5312
 20
-18.0159
 30
0.0
 10
5.6166
 20
-18.1005
 30
0.0
 10
5.6166
 20
-18.1005
 30
0.0
 10
5.7026
 20
-18.1852
 30
0.0
 10
5.8142
 20
-18.2279
 30
0.0
 10
5.9514
 20
-18.2279
 30
0.0
 10
5.9514
 20
-18.2279
 30
0.0
 10
6.0847
 20
-18.2279
 30
0.0
 10
6.1943
 20
-18.1859
 30
0.0
 10
6.2797
 20
-18.1019
 30
0.0
 10
6.2797
 20
-18.1019
 30
0.0
 10
6.365
 20
-18.0178
 30
0.0
 10
6.407
 20
-17.9147
 30
0.0
 10
6.407
 20
-17.7933
 30
0.0
 10
6.407
 20
-17.7933
 30
0.0
 10
6.407
 20
-17.6659
 30
0.0
 10
6.3637
 20
-17.5596
 30
0.0
 10
6.2757
 20
-17.4729
 30
0.0
 10
6.2757
 20
-17.4729
 30
0.0
 10
6.1878
 20
-17.3862
 30
0.0
 10
6.0788
 20
-17.3429
 30
0.0
 10
5.9475
 20
-17.3429
 30
0.0
 10
5.9475
 20
-17.3429
 30
0.0
 10
5.8155
 20
-17.3429
 30
0.0
 10
5.7059
 20
-17.3856
 30
0.0
 10
5.6185
 20
-17.4696
 30
0.0
 10
5.6185
 20
-17.4696
 30
0.0
 10
5.5312
 20
-17.5543
 30
0.0
 10
5.4879
 20
-17.6561
 30
0.0
 10
5.4879
 20
-17.7736
 30
0.0
  0
SPLINE
  5
4A
330
1F
100
AcDbEntity
  8
DEFAULT_1
 62
   250
100
AcDbSpline
210
0.0
220
0.0
230
1.0
 70
    11
 71
     3
 72
    40
 73
    36
 74
     0
 42
0.0000000001
 43
0.0000000001
 40
0.0
 40
0.0
 40
0.0
 40
0.0
 40
0.1
 40
0.1
 40
0.1
 40
0.1
 40
0.2
 40
0.2
 40
0.2
 40
0.2
 40
0.3
 40
0.3
 40
0.3
 40
0.3
 40
0.4
 40
0.4
 40
0.4
 40
0.4
 40
0.5
 40
0.5
 40
0.5
 40
0.5
 40
0.6
 40
0.6
 40
0.6
 40
0.6
 40
0.7
 40
0.7
 40
0.7
 40
0.7
 40
0.8
 40
0.8
 40
0.8
 40
0.8
 40
1.0
 40
1.0
 40
1.0
 40
1.0
 10
5.3763
 20
-19.0762
 30
0.0
 10
5.3763
 20
-19.1746
 30
0.0
 10
5.3999
 20
-19.2705
 30
0.0
 10
5.4465
 20
-19.3624
 30
0.0
 10
5.4465
 20
-19.3624
 30
0.0
 10
5.4931
 20
-19.455
 30
0.0
 10
5.5627
 20
-19.5265
 30
0.0
 10
5.6553
 20
-19.5771
 30
0.0
 10
5.6553
 20
-19.5771
 30
0.0
 10
5.7479
 20
-19.6276
 30
0.0
 10
5.847
 20
-19.6532
 30
0.0
 10
5.9534
 20
-19.6532
 30
0.0
 10
5.9534
 20
-19.6532
 30
0.0
 10
6.1188
 20
-19.6532
 30
0.0
 10
6.2554
 20
-19.6001
 30
0.0
 10
6.363
 20
-19.4931
 30
0.0
 10
6.363
 20
-19.4931
 30
0.0
 10
6.4707
 20
-19.3867
 30
0.0
 10
6.5246
 20
-19.2514
 30
0.0
 10
6.5246
 20
-19.0873
 30
0.0
 10
6.5246
 20
-19.0873
 30
0.0
 10
6.5246
 20
-18.9206
 30
0.0
 10
6.4694
 20
-18.7827
 30
0.0
 10
6.3585
 20
-18.6737
 30
0.0
 10
6.3585
 20
-18.6737
 30
0.0
 10
6.2475
 20
-18.5647
 30
0.0
 10
6.1083
 20
-18.5102
 30
0.0
 10
5.9416
 20
-18.5102
 30
0.0
 10
5.9416
 20
-18.5102
 30
0.0
 10
5.7787
 20
-18.5102
 30
0.0
 10
5.6441
 20
-18.5641
 30
0.0
 10
5.5371
 20
-18.6717
 30
0.0
 10
5.5371
 20
-18.6717
 30
0.0
 10
5.4301
 20
-18.7801
 30
0.0
 10
5.3763
 20
-18.9146
 30
0.0
 10
5.3763
 20
-19.0762
 30
0.0
  0
SPLINE
  5
4B
330
1F
100
AcDbEntity
  8
DEFAULT_1
 62
   250
100
AcDbSpline
210
0.0
220
0.0
230
1.0
 70
    11
 71
     3
 72
    92
 73
    88
 74
     0
 42
0.0000000001
 43
0.0000000001
 40
0.0
 40
0.0
 40
0.0
 40
0.0
 40
0.0434782608695652
 40
0.0434782608695652
 40
0.0434782608695652
 40
0.0434782608695652
 40
0.0869565217391304
 40
0.0869565217391304
 40
0.0869565217391304
 40
0.0869565217391304
 40
0.1304347826086956
 40
0.1304347826086956
 40
0.1304347826086956
 40
0.1304347826086956
 40
0.1739130434782609
 40
0.1739130434782609
 40
0.1739130434782609
 40
0.1739130434782609
 40
0.2173913043478261
 40
0.2173913043478261
 40
0.2173913043478261
 40
0.2173913043478261
 40
0.2608695652173913
 40
0.2608695652173913
 40
0.2608695652173913
 40
0.2608695652173913
 40
0.3043478260869565
 40
0.3043478260869565
 40
0.3043478260869565
 40
0.3043478260869565
 40
0.3478260869565217
 40
0.3478260869565217
 40
0.3478260869565217
 40
0.3478260869565217
 40
0.391304347826087
 40
0.391304347826087
 40
0.391304347826087
 40
0.391304347826087
 40
0.4347826086956522
 40
0.4347826086956522
 40
0.4347826086956522
 40
0.4347826086956522
 40
0.4782608695652174
 40
0.4782608695652174
 40
0.4782608695652174
 40
0.4782608695652174
 40
0.5217391304347826
 40
0.5217391304347826
 40
0.5217391304347826
 40
0.5217391304347826
 40
0.5652173913043478
 40
0.5652173913043478
 40
0.5652173913043478
 40
0.5652173913043478
 40
0.6086956521739131
 40
0.6086956521739131
 40
0.6086956521739131
 40
0.6086956521739131
 40
0.6521739130434783
 40
0.6521739130434783
 40
0.6521739130434783
 40
0.6521739130434783
 40
0.6956521739130435
 40
0.6956521739130435
 40
0.6956521739130435
 40
0.6956521739130435
 40
0.7391304347826086
 40
0.7391304347826086
 40
0.7391304347826086
 40
0.7391304347826086
 40
0.782608695652174
 40
0.782608695652174
 40
0.782608695652174
 40
0.782608695652174
 40
0.8260869565217391
 40
0.8260869565217391
 40
0.8260869565217391
 40
0.8260869565217391
 40
0.8695652173913043
 40
0.8695652173913043
 40
0.8695652173913043
 40
0.8695652173913043
 40
0.9130434782608695
 40
0.9130434782608695
 40
0.9130434782608695
 40
0.9130434782608695
 40
1.0
 40
1.0
 40
1.0
 40
1.0
 10
7.2153
 20
-19.151
 30
0.0
 10
7.2153
 20
-19.151
 30
0.0
 10
7.579
 20
-19.1201
 30
0.0
 10
7.579
 20
-19.1201
 30
0.0
 10
7.579
 20
-19.1201
 30
0.0
 10
7.6059
 20
-19.2974
 30
0.0
 10
7.6683
 20
-19.43
 30
0.0
 10
7.7661
 20
-19.5193
 30
0.0
 10
7.7661
 20
-19.5193
 30
0.0
 10
7.8646
 20
-19.6086
 30
0.0
 10
7.9828
 20
-19.6532
 30
0.0
 10
8.1213
 20
-19.6532
 30
0.0
 10
8.1213
 20
-19.6532
 30
0.0
 10
8.2881
 20
-19.6532
 30
0.0
 10
8.4292
 20
-19.5902
 30
0.0
 10
8.5441
 20
-19.4648
 30
0.0
 10
8.5441
 20
-19.4648
 30
0.0
 10
8.6597
 20
-19.3388
 30
0.0
 10
8.7174
 20
-19.172
 30
0.0
 10
8.7174
 20
-18.9645
 30
0.0
 10
8.7174
 20
-18.9645
 30
0.0
 10
8.7174
 20
-18.7669
 30
0.0
 10
8.6623
 20
-18.6113
 30
0.0
 10
8.5513
 20
-18.4971
 30
0.0
 10
8.5513
 20
-18.4971
 30
0.0
 10
8.4404
 20
-18.3829
 30
0.0
 10
8.2953
 20
-18.3257
 30
0.0
 10
8.1154
 20
-18.3257
 30
0.0
 10
8.1154
 20
-18.3257
 30
0.0
 10
8.0038
 20
-18.3257
 30
0.0
 10
7.9033
 20
-18.3513
 30
0.0
 10
7.8134
 20
-18.4019
 30
0.0
 10
7.8134
 20
-18.4019
 30
0.0
 10
7.7234
 20
-18.4524
 30
0.0
 10
7.6532
 20
-18.5181
 30
0.0
 10
7.602
 20
-18.5989
 30
0.0
 10
7.602
 20
-18.5989
 30
0.0
 10
7.602
 20
-18.5989
 30
0.0
 10
7.277
 20
-18.5568
 30
0.0
 10
7.277
 20
-18.5568
 30
0.0
 10
7.277
 20
-18.5568
 30
0.0
 10
7.277
 20
-18.5568
 30
0.0
 10
7.5501
 20
-17.1085
 30
0.0
 10
7.5501
 20
-17.1085
 30
0.0
 10
7.5501
 20
-17.1085
 30
0.0
 10
7.5501
 20
-17.1085
 30
0.0
 10
8.9525
 20
-17.1085
 30
0.0
 10
8.9525
 20
-17.1085
 30
0.0
 10
8.9525
 20
-17.1085
 30
0.0
 10
8.9525
 20
-17.1085
 30
0.0
 10
8.9525
 20
-17.4394
 30
0.0
 10
8.9525
 20
-17.4394
 30
0.0
 10
8.9525
 20
-17.4394
 30
0.0
 10
8.9525
 20
-17.4394
 30
0.0
 10
7.8272
 20
-17.4394
 30
0.0
 10
7.8272
 20
-17.4394
 30
0.0
 10
7.8272
 20
-17.4394
 30
0.0
 10
7.8272
 20
-17.4394
 30
0.0
 10
7.6749
 20
-18.1971
 30
0.0
 10
7.6749
 20
-18.1971
 30
0.0
 10
7.6749
 20
-18.1971
 30
0.0
 10
7.8442
 20
-18.0789
 30
0.0
 10
8.0222
 20
-18.0198
 30
0.0
 10
8.208
 20
-18.0198
 30
0.0
 10
8.208
 20
-18.0198
 30
0.0
 10
8.4542
 20
-18.0198
 30
0.0
 10
8.6616
 20
-18.1051
 30
0.0
 10
8.831
 20
-18.2758
 30
0.0
 10
8.831
 20
-18.2758
 30
0.0
 10
9.0004
 20
-18.4465
 30
0.0
 10
9.0851
 20
-18.6658
 30
0.0
 10
9.0851
 20
-18.9337
 30
0.0
 10
9.0851
 20
-18.9337
 30
0.0
 10
9.0851
 20
-19.1891
 30
0.0
 10
9.0102
 20
-19.4097
 30
0.0
 10
8.8619
 20
-19.5955
 30
0.0
 10
8.8619
 20
-19.5955
 30
0.0
 10
8.6807
 20
-19.8233
 30
0.0
 10
8.4338
 20
-19.9375
 30
0.0
 10
8.1213
 20
-19.9375
 30
0.0
 10
8.1213
 20
-19.9375
 30
0.0
 10
7.8646
 20
-19.9375
 30
0.0
 10
7.6552
 20
-19.866
 30
0.0
 10
7.493
 20
-19.7222
 30
0.0
 10
7.493
 20
-19.7222
 30
0.0
 10
7.3308
 20
-19.5784
 30
0.0
 10
7.2383
 20
-19.388
 30
0.0
 10
7.2153
 20
-19.151
 30
0.0
  0
SPLINE
  5
4C
330
1F
100
AcDbEntity
  8
DEFAULT_1
 62
   250
100
AcDbSpline
210
0.0
220
0.0
230
1.0
 70
    11
 71
     3
 72
    52
 73
    48
 74
     0
 42
0.0000000001
 43
0.0000000001
 40
0.0
 40
0.0
 40
0.0
 40
0.0
 40
0.0769230769230769
 40
0.0769230769230769
 40
0.0769230769230769
 40
0.0769230769230769
 40
0.1538461538461539
 40
0.1538461538461539
 40
0.1538461538461539
 40
0.1538461538461539
 40
0.2307692307692308
 40
0.2307692307692308
 40
0.2307692307692308
 40
0.2307692307692308
 40
0.3076923076923077
 40
0.3076923076923077
 40
0.3076923076923077
 40
0.3076923076923077
 40
0.3846153846153846
 40
0.3846153846153846
 40
0.3846153846153846
 40
0.3846153846153846
 40
0.4615384615384616
 40
0.4615384615384616
 40
0.4615384615384616
 40
0.4615384615384616
 40
0.5384615384615384
 40
0.5384615384615384
 40
0.5384615384615384
 40
0.5384615384615384
 40
0.6153846153846154
 40
0.6153846153846154
 40
0.6153846153846154
 40
0.6153846153846154
 40
0.6923076923076923
 40
0.6923076923076923
 40
0.6923076923076923
 40
0.6923076923076923
 40
0.7692307692307693
 40
0.7692307692307693
 40
0.7692307692307693
 40
0.7692307692307693
 40
0.8461538461538461
 40
0.8461538461538461
 40
0.8461538461538461
 40
0.8461538461538461
 40
1.0
 40
1.0
 40
1.0
 40
1.0
 10
9.4062
 20
-18.4991
 30
0.0
 10
9.4062
 20
-18.1655
 30
0.0
 10
9.4403
 20
-17.897
 30
0.0
 10
9.5093
 20
-17.6942
 30
0.0
 10
9.5093
 20
-17.6942
 30
0.0
 10
9.5775
 20
-17.4906
 30
0.0
 10
9.68
 20
-17.3337
 30
0.0
 10
9.8152
 20
-17.2234
 30
0.0
 10
9.8152
 20
-17.2234
 30
0.0
 10
9.9504
 20
-17.1131
 30
0.0
 10
10.1205
 20
-17.058
 30
0.0
 10
10.3253
 20
-17.058
 30
0.0
 10
10.3253
 20
-17.058
 30
0.0
 10
10.477
 20
-17.058
 30
0.0
 10
10.6096
 20
-17.0888
 30
0.0
 10
10.7238
 20
-17.1499
 30
0.0
 10
10.7238
 20
-17.1499
 30
0.0
 10
10.8381
 20
-17.2103
 30
0.0
 10
10.932
 20
-17.2983
 30
0.0
 10
11.0068
 20
-17.4132
 30
0.0
 10
11.0068
 20
-17.4132
 30
0.0
 10
11.081
 20
-17.528
 30
0.0
 10
11.1394
 20
-17.6679
 30
0.0
 10
11.1814
 20
-17.8327
 30
0.0
 10
11.1814
 20
-17.8327
 30
0.0
 10
11.2241
 20
-17.9975
 30
0.0
 10
11.2451
 20
-18.2194
 30
0.0
 10
11.2451
 20
-18.4991
 30
0.0
 10
11.2451
 20
-18.4991
 30
0.0
 10
11.2451
 20
-18.83
 30
0.0
 10
11.211
 20
-19.0965
 30
0.0
 10
11.1434
 20
-19.3
 30
0.0
 10
11.1434
 20
-19.3
 30
0.0
 10
11.0751
 20
-19.5036
 30
0.0
 10
10.9733
 20
-19.6605
 30
0.0
 10
10.8381
 20
-19.7714
 30
0.0
 10
10.8381
 20
-19.7714
 30
0.0
 10
10.7028
 20
-19.8824
 30
0.0
 10
10.5321
 20
-19.9375
 30
0.0
 10
10.3253
 20
-19.9375
 30
0.0
 10
10.3253
 20
-19.9375
 30
0.0
 10
10.0535
 20
-19.9375
 30
0.0
 10
9.8401
 20
-19.8404
 30
0.0
 10
9.6852
 20
-19.6454
 30
0.0
 10
9.6852
 20
-19.6454
 30
0.0
 10
9.4994
 20
-19.411
 30
0.0
 10
9.4062
 20
-19.0282
 30
0.0
 10
9.4062
 20
-18.4991
 30
0.0
  0
SPLINE
  5
4D
330
1F
100
AcDbEntity
  8
DEFAULT_1
 62
   250
100
AcDbSpline
210
0.0
220
0.0
230
1.0
 70
    11
 71
     3
 72
    36
 73
    32
 74
     0
 42
0.0000000001
 43
0.0000000001
 40
0.0
 40
0.0
 40
0.0
 40
0.0
 40
0.1111111111111111
 40
0.1111111111111111
 40
0.1111111111111111
 40
0.1111111111111111
 40
0.2222222222222222
 40
0.2222222222222222
 40
0.2222222222222222
 40
0.2222222222222222
 40
0.3333333333333333
 40
0.3333333333333333
 40
0.3333333333333333
 40
0.3333333333333333
 40
0.4444444444444444
 40
0.4444444444444444
 40
0.4444444444444444
 40
0.4444444444444444
 40
0.5555555555555556
 40
0.5555555555555556
 40
0.5555555555555556
 40
0.5555555555555556
 40
0.6666666666666666
 40
0.6666666666666666
 40
0.6666666666666666
 40
0.6666666666666666
 40
0.7777777777777778
 40
0.7777777777777778
 40
0.7777777777777778
 40
0.7777777777777778
 40
1.0
 40
1.0
 40
1.0
 40
1.0
 10
9.762
 20
-18.4991
 30
0.0
 10
9.762
 20
-18.9619
 30
0.0
 10
9.8165
 20
-19.2698
 30
0.0
 10
9.9248
 20
-19.4235
 30
0.0
 10
9.9248
 20
-19.4235
 30
0.0
 10
10.0332
 20
-19.5764
 30
0.0
 10
10.1664
 20
-19.6532
 30
0.0
 10
10.3253
 20
-19.6532
 30
0.0
 10
10.3253
 20
-19.6532
 30
0.0
 10
10.4849
 20
-19.6532
 30
0.0
 10
10.6181
 20
-19.5758
 30
0.0
 10
10.7265
 20
-19.4221
 30
0.0
 10
10.7265
 20
-19.4221
 30
0.0
 10
10.8348
 20
-19.2685
 30
0.0
 10
10.8893
 20
-18.9606
 30
0.0
 10
10.8893
 20
-18.4991
 30
0.0
 10
10.8893
 20
-18.4991
 30
0.0
 10
10.8893
 20
-18.0349
 30
0.0
 10
10.8348
 20
-17.7263
 30
0.0
 10
10.7265
 20
-17.574
 30
0.0
 10
10.7265
 20
-17.574
 30
0.0
 10
10.6181
 20
-17.421
 30
0.0
 10
10.4835
 20
-17.3449
 30
0.0
 10
10.322
 20
-17.3449
 30
0.0
 10
10.322
 20
-17.3449
 30
0.0
 10
10.1625
 20
-17.3449
 30
0.0
 10
10.0358
 20
-17.4125
 30
0.0
 10
9.9406
 20
-17.5471
 30
0.0
 10
9.9406
 20
-17.5471
 30
0.0
 10
9.8218
 20
-17.7184
 30
0.0
 10
9.762
 20
-18.0362
 30
0.0
 10
9.762
 20
-18.4991
 30
0.0
  0
SPLINE
  5
4E
330
1F
100
AcDbEntity
  8
DEFAULT_1
 62
   250
100
AcDbSpline
210
0.0
220
0.0
230
1.0
 70
    11
 71
     3
 72
    20
 73
    16
 74
     0
 42
0.0000000001
 43
0.0000000001
 40
0.0
 40
0.0
 40
0.0
 40
0.0
 40
0.2
 40
0.2
 40
0.2
 40
0.2
 40
0.4
 40
0.4
 40
0.4
 40
0.4
 40
0.6
 40
0.6
 40
0.6
 40
0.6
 40
1.0
 40
1.0
 40
1.0
 40
1.0
 10
-63.7459
 20
-21.3553
 30
0.0
 10
-63.7459
 20
-21.3553
 30
0.0
 10
-59.822
 20
-21.9282
 30
0.0
 10
-59.822
 20
-21.9282
 30
0.0
 10
-59.822
 20
-21.9282
 30
0.0
 10
-59.822
 20
-21.9282
 30
0.0
 10
-59.822
 20
-20.6635
 30
0.0
 10
-59.822
 20
-20.6635
 30
0.0
 10
-59.822
 20
-20.6635
 30
0.0
 10
-59.822
 20
-20.6635
 30
0.0
 10
-63.7459
 20
-21.3535
 30
0.0
 10
-63.7459
 20
-21.3535
 30
0.0
 10
-63.7459
 20
-21.3535
 30
0.0
 10
-63.7459
 20
-21.3535
 30
0.0
 10
-63.7459
 20
-21.3553
 30
0.0
 10
-63.7459
 20
-21.3553
 30
0.0
  0
SPLINE
  5
4F
330
1F
100
AcDbEntity
  8
DEFAULT_1
 62
   250
100
AcDbSpline
210
0.0
220
0.0
230
1.0
 70
    11
 71
     3
 72
    20
 73
    16
 74
     0
 42
0.0000000001
 43
0.0000000001
 40
0.0
 40
0.0
 40
0.0
 40
0.0
 40
0.2
 40
0.2
 40
0.2
 40
0.2
 40
0.4
 40
0.4
 40
0.4
 40
0.4
 40
0.6
 40
0.6
 40
0.6
 40
0.6
 40
1.0
 40
1.0
 40
1.0
 40
1.0
 10
64.3392
 20
-21.3263
 30
0.0
 10
64.3392
 20
-21.3263
 30
0.0
 10
60.4153
 20
-20.7533
 30
0.0
 10
60.4153
 20
-20.7533
 30
0.0
 10
60.4153
 20
-20.7533
 30
0.0
 10
60.4153
 20
-20.7533
 30
0.0
 10
60.4153
 20
-22.0181
 30
0.0
 10
60.4153
 20
-22.0181
 30
0.0
 10
60.4153
 20
-22.0181
 30
0.0
 10
60.4153
 20
-22.0181
 30
0.0
 10
64.3392
 20
-21.328
 30
0.0
 10
64.3392
 20
-21.328
 30
0.0
 10
64.3392
 20
-21.328
 30
0.0
 10
64.3392
 20
-21.328
 30
0.0
 10
64.3392
 20
-21.3263
 30
0.0
 10
64.3392
 20
-21.3263
 30
0.0
  0
SPLINE
  5
50
330
1F
100
AcDbEntity
  8
DEFAULT_1
 62
   250
100
AcDbSpline
210
0.0
220
0.0
230
1.0
 70
    24
 71
     3
 72
     8
 73
     4
 74
     0
 42
0.0000000001
 43
0.0000000001
 40
0.0
 40
0.0
 40
0.0
 40
0.0
 40
1.0
 40
1.0
 40
1.0
 40
1.0
 10
62.2819
 20
-21.3444
 30
0.0
 10
62.2819
 20
-21.3444
 30
0.0
 10
-62.5632
 20
-21.3444
 30
0.0
 10
-62.5632
 20
-21.3444
 30
0.0
  0
SPLINE
  5
51
330
1F
100
AcDbEntity
  8
DEFAULT_1
 62
   250
100
AcDbSpline
210
0.0
220
0.0
230
1.0
 70
    24
 71
     3
 72
     8
 73
     4
 74
     0
 42
0.0000000001
 43
0.0000000001
 40
0.0
 40
0.0
 40
0.0
 40
0.0
 40
1.0
 40
1.0
 40
1.0
 40
1.0
 10
-63.9218
 20
-21.9753
 30
0.0
 10
-63.9218
 20
-21.9753
 30
0.0
 10
-63.9218
 20
-8.8637
 30
0.0
 10
-63.9218
 20
-8.8637
 30
0.0
  0
SPLINE
  5
52
330
1F
100
AcDbEntity
  8
DEFAULT_1
 62
   250
100
AcDbSpline
210
0.0
220
0.0
230
1.0
 70
    24
 71
     3
 72
     8
 73
     4
 74
     0
 42
0.0000000001
 43
0.0000000001
 40
0.0
 40
0.0
 40
0.0
 40
0.0
 40
1.0
 40
1.0
 40
1.0
 40
1.0
 10
64.4693
 20
-22.1959
 30
0.0
 10
64.4693
 20
-22.1959
 30
0.0
 10
64.4693
 20
-5.1489
 30
0.0
 10
64.4693
 20
-5.1489
 30
0.0
  0
SPLINE
  5
53
330
1F
100
AcDbEntity
  8
DEFAULT_1
 62
   250
100
AcDbSpline
210
0.0
220
0.0
230
1.0
 70
    24
 71
     3
 72
     8
 73
     4
 74
     0
 42
0.0000000001
 43
0.0000000001
 40
0.0
 40
0.0
 40
0.0
 40
0.0
 40
1.0
 40
1.0
 40
1.0
 40
1.0
 10
-64.8266
 20
-3.5251
 30
0.0
 10
-64.8266
 20
-3.5251
 30
0.0
 10
-70.9305
 20
-3.5251
 30
0.0
 10
-70.9305
 20
-3.5251
 30
0.0
  0
SPLINE
  5
54
330
1F
100
AcDbEntity
  8
DEFAULT_1
 62
   250
100
AcDbSpline
210
0.0
220
0.0
230
1.0
 70
    24
 71
     3
 72
     8
 73
     4
 74
     0
 42
0.0000000001
 43
0.0000000001
 40
0.0
 40
0.0
 40
0.0
 40
0.0
 40
1.0
 40
1.0
 40
1.0
 40
1.0
 10
-70.9726
 20
16.3725
 30
0.0
 10
-70.9726
 20
16.3725
 30
0.0
 10
-64.8713
 20
16.3725
 30
0.0
 10
-64.8713
 20
16.3725
 30
0.0
  0
SPLINE
  5
55
330
1F
100
AcDbEntity
  8
DEFAULT_1
 62
   250
100
AcDbSpline
210
0.0
220
0.0
230
1.0
 70
    24
 71
     3
 72
     8
 73
     4
 74
     0
 42
0.0000000001
 43
0.0000000001
 40
0.0
 40
0.0
 40
0.0
 40
0.0
 40
1.0
 40
1.0
 40
1.0
 40
1.0
 10
73.9157
 20
-3.7472
 30
0.0
 10
73.9157
 20
-3.7472
 30
0.0
 10
65.4093
 20
-3.7472
 30
0.0
 10
65.4093
 20
-3.7472
 30
0.0
  0
SPLINE
  5
56
330
1F
100
AcDbEntity
  8
DEFAULT_1
 62
   250
100
AcDbSpline
210
0.0
220
0.0
230
1.0
 70
    24
 71
     3
 72
     8
 73
     4
 74
     0
 42
0.0000000001
 43
0.0000000001
 40
0.0
 40
0.0
 40
0.0
 40
0.0
 40
1.0
 40
1.0
 40
1.0
 40
1.0
 10
65.4093
 20
16.3951
 30
0.0
 10
65.4093
 20
16.3951
 30
0.0
 10
73.9156
 20
16.3951
 30
0.0
 10
73.9156
 20
16.3951
 30
0.0
  0
SPLINE
  5
57
330
1F
100
AcDbEntity
  8
DEFAULT_1
 62
   250
100
AcDbSpline
210
0.0
220
0.0
230
1.0
 70
    11
 71
     3
 72
    84
 73
    80
 74
     0
 42
0.0000000001
 43
0.0000000001
 40
0.0
 40
0.0
 40
0.0
 40
0.0
 40
0.0476190476190476
 40
0.0476190476190476
 40
0.0476190476190476
 40
0.0476190476190476
 40
0.0952380952380952
 40
0.0952380952380952
 40
0.0952380952380952
 40
0.0952380952380952
 40
0.1428571428571428
 40
0.1428571428571428
 40
0.1428571428571428
 40
0.1428571428571428
 40
0.1904761904761905
 40
0.1904761904761905
 40
0.1904761904761905
 40
0.1904761904761905
 40
0.2380952380952381
 40
0.2380952380952381
 40
0.2380952380952381
 40
0.2380952380952381
 40
0.2857142857142857
 40
0.2857142857142857
 40
0.2857142857142857
 40
0.2857142857142857
 40
0.3333333333333333
 40
0.3333333333333333
 40
0.3333333333333333
 40
0.3333333333333333
 40
0.3809523809523809
 40
0.3809523809523809
 40
0.3809523809523809
 40
0.3809523809523809
 40
0.4285714285714285
 40
0.4285714285714285
 40
0.4285714285714285
 40
0.4285714285714285
 40
0.4761904761904762
 40
0.4761904761904762
 40
0.4761904761904762
 40
0.4761904761904762
 40
0.5238095238095238
 40
0.5238095238095238
 40
0.5238095238095238
 40
0.5238095238095238
 40
0.5714285714285714
 40
0.5714285714285714
 40
0.5714285714285714
 40
0.5714285714285714
 40
0.6190476190476191
 40
0.6190476190476191
 40
0.6190476190476191
 40
0.6190476190476191
 40
0.6666666666666666
 40
0.6666666666666666
 40
0.6666666666666666
 40
0.6666666666666666
 40
0.7142857142857143
 40
0.7142857142857143
 40
0.7142857142857143
 40
0.7142857142857143
 40
0.7619047619047619
 40
0.7619047619047619
 40
0.7619047619047619
 40
0.7619047619047619
 40
0.8095238095238095
 40
0.8095238095238095
 40
0.8095238095238095
 40
0.8095238095238095
 40
0.8571428571428571
 40
0.8571428571428571
 40
0.8571428571428571
 40
0.8571428571428571
 40
0.9047619047619048
 40
0.9047619047619048
 40
0.9047619047619048
 40
0.9047619047619048
 40
1.0
 40
1.0
 40
1.0
 40
1.0
 10
33.1154
 20
-12.9859
 30
0.0
 10
33.1154
 20
-12.9859
 30
0.0
 10
32.7537
 20
-12.6629
 30
0.0
 10
32.7537
 20
-12.6629
 30
0.0
 10
32.7537
 20
-12.6629
 30
0.0
 10
32.7537
 20
-12.6629
 30
0.0
 10
32.9152
 20
-12.4725
 30
0.0
 10
32.9152
 20
-12.4725
 30
0.0
 10
32.9152
 20
-12.4725
 30
0.0
 10
32.9152
 20
-12.4725
 30
0.0
 10
33.296
 20
-12.8106
 30
0.0
 10
33.296
 20
-12.8106
 30
0.0
 10
33.296
 20
-12.8106
 30
0.0
 10
33.4601
 20
-12.7003
 30
0.0
 10
33.6039
 20
-12.6261
 30
0.0
 10
33.7266
 20
-12.5874
 30
0.0
 10
33.7266
 20
-12.5874
 30
0.0
 10
33.8881
 20
-12.5361
 30
0.0
 10
34.0693
 20
-12.5105
 30
0.0
 10
34.2689
 20
-12.5105
 30
0.0
 10
34.2689
 20
-12.5105
 30
0.0
 10
34.5578
 20
-12.5105
 30
0.0
 10
34.8152
 20
-12.569
 30
0.0
 10
35.0404
 20
-12.6858
 30
0.0
 10
35.0404
 20
-12.6858
 30
0.0
 10
35.2662
 20
-12.8027
 30
0.0
 10
35.4369
 20
-12.9662
 30
0.0
 10
35.5525
 20
-13.1769
 30
0.0
 10
35.5525
 20
-13.1769
 30
0.0
 10
35.6674
 20
-13.3883
 30
0.0
 10
35.7251
 20
-13.6122
 30
0.0
 10
35.7251
 20
-13.8492
 30
0.0
 10
35.7251
 20
-13.8492
 30
0.0
 10
35.7251
 20
-14.0265
 30
0.0
 10
35.7002
 20
-14.1867
 30
0.0
 10
35.6503
 20
-14.3305
 30
0.0
 10
35.6503
 20
-14.3305
 30
0.0
 10
35.6115
 20
-14.4408
 30
0.0
 10
35.538
 20
-14.5694
 30
0.0
 10
35.429
 20
-14.7172
 30
0.0
 10
35.429
 20
-14.7172
 30
0.0
 10
35.429
 20
-14.7172
 30
0.0
 10
35.7908
 20
-15.0402
 30
0.0
 10
35.7908
 20
-15.0402
 30
0.0
 10
35.7908
 20
-15.0402
 30
0.0
 10
35.7908
 20
-15.0402
 30
0.0
 10
35.6293
 20
-15.2306
 30
0.0
 10
35.6293
 20
-15.2306
 30
0.0
 10
35.6293
 20
-15.2306
 30
0.0
 10
35.6293
 20
-15.2306
 30
0.0
 10
35.2505
 20
-14.8918
 30
0.0
 10
35.2505
 20
-14.8918
 30
0.0
 10
35.2505
 20
-14.8918
 30
0.0
 10
35.0594
 20
-15.0178
 30
0.0
 10
34.8959
 20
-15.1019
 30
0.0
 10
34.7607
 20
-15.1439
 30
0.0
 10
34.7607
 20
-15.1439
 30
0.0
 10
34.6254
 20
-15.1859
 30
0.0
 10
34.4626
 20
-15.2076
 30
0.0
 10
34.2729
 20
-15.2076
 30
0.0
 10
34.2729
 20
-15.2076
 30
0.0
 10
33.9833
 20
-15.2076
 30
0.0
 10
33.7253
 20
-15.1498
 30
0.0
 10
33.4988
 20
-15.0343
 30
0.0
 10
33.4988
 20
-15.0343
 30
0.0
 10
33.2723
 20
-14.9187
 30
0.0
 10
33.101
 20
-14.7572
 30
0.0
 10
32.9841
 20
-14.5484
 30
0.0
 10
32.9841
 20
-14.5484
 30
0.0
 10
32.8679
 20
-14.3403
 30
0.0
 10
32.8095
 20
-14.1085
 30
0.0
 10
32.8095
 20
-13.8532
 30
0.0
 10
32.8095
 20
-13.8532
 30
0.0
 10
32.8095
 20
-13.6811
 30
0.0
 10
32.8318
 20
-13.5308
 30
0.0
 10
32.8777
 20
-13.4021
 30
0.0
 10
32.8777
 20
-13.4021
 30
0.0
 10
32.923
 20
-13.2734
 30
0.0
 10
33.0025
 20
-13.1343
 30
0.0
 10
33.1154
 20
-12.9859
 30
0.0
  0
SPLINE
  5
58
330
1F
100
AcDbEntity
  8
DEFAULT_1
 62
   250
100
AcDbSpline
210
0.0
220
0.0
230
1.0
 70
    11
 71
     3
 72
    32
 73
    28
 74
     0
 42
0.0000000001
 43
0.0000000001
 40
0.0
 40
0.0
 40
0.0
 40
0.0
 40
0.125
 40
0.125
 40
0.125
 40
0.125
 40
0.25
 40
0.25
 40
0.25
 40
0.25
 40
0.375
 40
0.375
 40
0.375
 40
0.375
 40
0.5
 40
0.5
 40
0.5
 40
0.5
 40
0.625
 40
0.625
 40
0.625
 40
0.625
 40
0.75
 40
0.75
 40
0.75
 40
0.75
 40
1.0
 40
1.0
 40
1.0
 40
1.0
 10
33.3747
 20
-13.2163
 30
0.0
 10
33.2802
 20
-13.3371
 30
0.0
 10
33.2152
 20
-13.4428
 30
0.0
 10
33.1804
 20
-13.5328
 30
0.0
 10
33.1804
 20
-13.5328
 30
0.0
 10
33.1463
 20
-13.6234
 30
0.0
 10
33.1285
 20
-13.7297
 30
0.0
 10
33.1285
 20
-13.8512
 30
0.0
 10
33.1285
 20
-13.8512
 30
0.0
 10
33.1285
 20
-14.1322
 30
0.0
 10
33.2237
 20
-14.3639
 30
0.0
 10
33.4141
 20
-14.5478
 30
0.0
 10
33.4141
 20
-14.5478
 30
0.0
 10
33.6045
 20
-14.7309
 30
0.0
 10
33.8888
 20
-14.8229
 30
0.0
 10
34.2676
 20
-14.8229
 30
0.0
 10
34.2676
 20
-14.8229
 30
0.0
 10
34.416
 20
-14.8229
 30
0.0
 10
34.548
 20
-14.8084
 30
0.0
 10
34.6635
 20
-14.7802
 30
0.0
 10
34.6635
 20
-14.7802
 30
0.0
 10
34.7495
 20
-14.7598
 30
0.0
 10
34.8552
 20
-14.7172
 30
0.0
 10
34.9806
 20
-14.6515
 30
0.0
 10
34.9806
 20
-14.6515
 30
0.0
 10
34.9806
 20
-14.6515
 30
0.0
 10
33.3747
 20
-13.2163
 30
0.0
 10
33.3747
 20
-13.2163
 30
0.0
  0
SPLINE
  5
59
330
1F
100
AcDbEntity
  8
DEFAULT_1
 62
   250
100
AcDbSpline
210
0.0
220
0.0
230
1.0
 70
    11
 71
     3
 72
    28
 73
    24
 74
     0
 42
0.0000000001
 43
0.0000000001
 40
0.0
 40
0.0
 40
0.0
 40
0.0
 40
0.1428571428571428
 40
0.1428571428571428
 40
0.1428571428571428
 40
0.1428571428571428
 40
0.2857142857142857
 40
0.2857142857142857
 40
0.2857142857142857
 40
0.2857142857142857
 40
0.4285714285714285
 40
0.4285714285714285
 40
0.4285714285714285
 40
0.4285714285714285
 40
0.5714285714285714
 40
0.5714285714285714
 40
0.5714285714285714
 40
0.5714285714285714
 40
0.7142857142857143
 40
0.7142857142857143
 40
0.7142857142857143
 40
0.7142857142857143
 40
1.0
 40
1.0
 40
1.0
 40
1.0
 10
33.573
 20
-13.0588
 30
0.0
 10
33.573
 20
-13.0588
 30
0.0
 10
35.173
 20
-14.488
 30
0.0
 10
35.173
 20
-14.488
 30
0.0
 10
35.173
 20
-14.488
 30
0.0
 10
35.2537
 20
-14.3895
 30
0.0
 10
35.3102
 20
-14.2983
 30
0.0
 10
35.3424
 20
-14.2149
 30
0.0
 10
35.3424
 20
-14.2149
 30
0.0
 10
35.385
 20
-14.1059
 30
0.0
 10
35.4061
 20
-13.9877
 30
0.0
 10
35.4061
 20
-13.861
 30
0.0
 10
35.4061
 20
-13.861
 30
0.0
 10
35.4061
 20
-13.5814
 30
0.0
 10
35.3076
 20
-13.3509
 30
0.0
 10
35.11
 20
-13.1684
 30
0.0
 10
35.11
 20
-13.1684
 30
0.0
 10
34.9123
 20
-12.9865
 30
0.0
 10
34.6353
 20
-12.8953
 30
0.0
 10
34.2788
 20
-12.8953
 30
0.0
 10
34.2788
 20
-12.8953
 30
0.0
 10
34.0122
 20
-12.8953
 30
0.0
 10
33.7765
 20
-12.9498
 30
0.0
 10
33.573
 20
-13.0588
 30
0.0
  0
SPLINE
  5
5A
330
1F
100
AcDbEntity
  8
DEFAULT_1
 62
   250
100
AcDbSpline
210
0.0
220
0.0
230
1.0
 70
    11
 71
     3
 72
    48
 73
    44
 74
     0
 42
0.0000000001
 43
0.0000000001
 40
0.0
 40
0.0
 40
0.0
 40
0.0
 40
0.0833333333333333
 40
0.0833333333333333
 40
0.0833333333333333
 40
0.0833333333333333
 40
0.1666666666666667
 40
0.1666666666666667
 40
0.1666666666666667
 40
0.1666666666666667
 40
0.25
 40
0.25
 40
0.25
 40
0.25
 40
0.3333333333333333
 40
0.3333333333333333
 40
0.3333333333333333
 40
0.3333333333333333
 40
0.4166666666666667
 40
0.4166666666666667
 40
0.4166666666666667
 40
0.4166666666666667
 40
0.5
 40
0.5
 40
0.5
 40
0.5
 40
0.5833333333333334
 40
0.5833333333333334
 40
0.5833333333333334
 40
0.5833333333333334
 40
0.6666666666666666
 40
0.6666666666666666
 40
0.6666666666666666
 40
0.6666666666666666
 40
0.75
 40
0.75
 40
0.75
 40
0.75
 40
0.8333333333333334
 40
0.8333333333333334
 40
0.8333333333333334
 40
0.8333333333333334
 40
1.0
 40
1.0
 40
1.0
 40
1.0
 10
35.6772
 20
-11.0531
 30
0.0
 10
35.6772
 20
-11.0531
 30
0.0
 10
35.0023
 20
-11.0531
 30
0.0
 10
35.0023
 20
-11.0531
 30
0.0
 10
35.0023
 20
-11.0531
 30
0.0
 10
35.0023
 20
-11.0531
 30
0.0
 10
35.0023
 20
-12.2762
 30
0.0
 10
35.0023
 20
-12.2762
 30
0.0
 10
35.0023
 20
-12.2762
 30
0.0
 10
35.0023
 20
-12.2762
 30
0.0
 10
34.6845
 20
-12.2762
 30
0.0
 10
34.6845
 20
-12.2762
 30
0.0
 10
34.6845
 20
-12.2762
 30
0.0
 10
34.6845
 20
-12.2762
 30
0.0
 10
32.8574
 20
-10.9894
 30
0.0
 10
32.8574
 20
-10.9894
 30
0.0
 10
32.8574
 20
-10.9894
 30
0.0
 10
32.8574
 20
-10.9894
 30
0.0
 10
32.8574
 20
-10.7064
 30
0.0
 10
32.8574
 20
-10.7064
 30
0.0
 10
32.8574
 20
-10.7064
 30
0.0
 10
32.8574
 20
-10.7064
 30
0.0
 10
34.6845
 20
-10.7064
 30
0.0
 10
34.6845
 20
-10.7064
 30
0.0
 10
34.6845
 20
-10.7064
 30
0.0
 10
34.6845
 20
-10.7064
 30
0.0
 10
34.6845
 20
-10.3256
 30
0.0
 10
34.6845
 20
-10.3256
 30
0.0
 10
34.6845
 20
-10.3256
 30
0.0
 10
34.6845
 20
-10.3256
 30
0.0
 10
35.0023
 20
-10.3256
 30
0.0
 10
35.0023
 20
-10.3256
 30
0.0
 10
35.0023
 20
-10.3256
 30
0.0
 10
35.0023
 20
-10.3256
 30
0.0
 10
35.0023
 20
-10.7064
 30
0.0
 10
35.0023
 20
-10.7064
 30
0.0
 10
35.0023
 20
-10.7064
 30
0.0
 10
35.0023
 20
-10.7064
 30
0.0
 10
35.6772
 20
-10.7064
 30
0.0
 10
35.6772
 20
-10.7064
 30
0.0
 10
35.6772
 20
-10.7064
 30
0.0
 10
35.6772
 20
-10.7064
 30
0.0
 10
35.6772
 20
-11.0531
 30
0.0
 10
35.6772
 20
-11.0531
 30
0.0
  0
SPLINE
  5
5B
330
1F
100
AcDbEntity
  8
DEFAULT_1
 62
   250
100
AcDbSpline
210
0.0
220
0.0
230
1.0
 70
    11
 71
     3
 72
    16
 73
    12
 74
     0
 42
0.0000000001
 43
0.0000000001
 40
0.0
 40
0.0
 40
0.0
 40
0.0
 40
0.25
 40
0.25
 40
0.25
 40
0.25
 40
0.5
 40
0.5
 40
0.5
 40
0.5
 40
1.0
 40
1.0
 40
1.0
 40
1.0
 10
34.6845
 20
-11.0531
 30
0.0
 10
34.6845
 20
-11.0531
 30
0.0
 10
33.4135
 20
-11.0531
 30
0.0
 10
33.4135
 20
-11.0531
 30
0.0
 10
33.4135
 20
-11.0531
 30
0.0
 10
33.4135
 20
-11.0531
 30
0.0
 10
34.6845
 20
-11.9355
 30
0.0
 10
34.6845
 20
-11.9355
 30
0.0
 10
34.6845
 20
-11.9355
 30
0.0
 10
34.6845
 20
-11.9355
 30
0.0
 10
34.6845
 20
-11.0531
 30
0.0
 10
34.6845
 20
-11.0531
 30
0.0
  0
SPLINE
  5
5C
330
1F
100
AcDbEntity
  8
DEFAULT_1
 62
   250
100
AcDbSpline
210
0.0
220
0.0
230
1.0
 70
    11
 71
     3
 72
    52
 73
    48
 74
     0
 42
0.0000000001
 43
0.0000000001
 40
0.0
 40
0.0
 40
0.0
 40
0.0
 40
0.0769230769230769
 40
0.0769230769230769
 40
0.0769230769230769
 40
0.0769230769230769
 40
0.1538461538461539
 40
0.1538461538461539
 40
0.1538461538461539
 40
0.1538461538461539
 40
0.2307692307692308
 40
0.2307692307692308
 40
0.2307692307692308
 40
0.2307692307692308
 40
0.3076923076923077
 40
0.3076923076923077
 40
0.3076923076923077
 40
0.3076923076923077
 40
0.3846153846153846
 40
0.3846153846153846
 40
0.3846153846153846
 40
0.3846153846153846
 40
0.4615384615384616
 40
0.4615384615384616
 40
0.4615384615384616
 40
0.4615384615384616
 40
0.5384615384615384
 40
0.5384615384615384
 40
0.5384615384615384
 40
0.5384615384615384
 40
0.6153846153846154
 40
0.6153846153846154
 40
0.6153846153846154
 40
0.6153846153846154
 40
0.6923076923076923
 40
0.6923076923076923
 40
0.6923076923076923
 40
0.6923076923076923
 40
0.7692307692307693
 40
0.7692307692307693
 40
0.7692307692307693
 40
0.7692307692307693
 40
0.8461538461538461
 40
0.8461538461538461
 40
0.8461538461538461
 40
0.8461538461538461
 40
1.0
 40
1.0
 40
1.0
 40
1.0
 10
34.2867
 20
-9.9717
 30
0.0
 10
33.9531
 20
-9.9717
 30
0.0
 10
33.6846
 20
-9.9376
 30
0.0
 10
33.4818
 20
-9.8686
 30
0.0
 10
33.4818
 20
-9.8686
 30
0.0
 10
33.2782
 20
-9.8004
 30
0.0
 10
33.1213
 20
-9.6979
 30
0.0
 10
33.011
 20
-9.5627
 30
0.0
 10
33.011
 20
-9.5627
 30
0.0
 10
32.9007
 20
-9.4275
 30
0.0
 10
32.8456
 20
-9.2574
 30
0.0
 10
32.8456
 20
-9.0526
 30
0.0
 10
32.8456
 20
-9.0526
 30
0.0
 10
32.8456
 20
-8.9009
 30
0.0
 10
32.8764
 20
-8.7683
 30
0.0
 10
32.9375
 20
-8.6541
 30
0.0
 10
32.9375
 20
-8.6541
 30
0.0
 10
32.9979
 20
-8.5398
 30
0.0
 10
33.0859
 20
-8.4459
 30
0.0
 10
33.2008
 20
-8.3711
 30
0.0
 10
33.2008
 20
-8.3711
 30
0.0
 10
33.3156
 20
-8.2969
 30
0.0
 10
33.4555
 20
-8.2385
 30
0.0
 10
33.6203
 20
-8.1965
 30
0.0
 10
33.6203
 20
-8.1965
 30
0.0
 10
33.7851
 20
-8.1538
 30
0.0
 10
34.007
 20
-8.1328
 30
0.0
 10
34.2867
 20
-8.1328
 30
0.0
 10
34.2867
 20
-8.1328
 30
0.0
 10
34.6176
 20
-8.1328
 30
0.0
 10
34.8841
 20
-8.1669
 30
0.0
 10
35.0876
 20
-8.2345
 30
0.0
 10
35.0876
 20
-8.2345
 30
0.0
 10
35.2912
 20
-8.3028
 30
0.0
 10
35.4481
 20
-8.4046
 30
0.0
 10
35.559
 20
-8.5398
 30
0.0
 10
35.559
 20
-8.5398
 30
0.0
 10
35.67
 20
-8.6751
 30
0.0
 10
35.7251
 20
-8.8458
 30
0.0
 10
35.7251
 20
-9.0526
 30
0.0
 10
35.7251
 20
-9.0526
 30
0.0
 10
35.7251
 20
-9.3244
 30
0.0
 10
35.628
 20
-9.5378
 30
0.0
 10
35.433
 20
-9.6927
 30
0.0
 10
35.433
 20
-9.6927
 30
0.0
 10
35.1986
 20
-9.8785
 30
0.0
 10
34.8158
 20
-9.9717
 30
0.0
 10
34.2867
 20
-9.9717
 30
0.0
  0
SPLINE
  5
5D
330
1F
100
AcDbEntity
  8
DEFAULT_1
 62
   250
100
AcDbSpline
210
0.0
220
0.0
230
1.0
 70
    11
 71
     3
 72
    36
 73
    32
 74
     0
 42
0.0000000001
 43
0.0000000001
 40
0.0
 40
0.0
 40
0.0
 40
0.0
 40
0.1111111111111111
 40
0.1111111111111111
 40
0.1111111111111111
 40
0.1111111111111111
 40
0.2222222222222222
 40
0.2222222222222222
 40
0.2222222222222222
 40
0.2222222222222222
 40
0.3333333333333333
 40
0.3333333333333333
 40
0.3333333333333333
 40
0.3333333333333333
 40
0.4444444444444444
 40
0.4444444444444444
 40
0.4444444444444444
 40
0.4444444444444444
 40
0.5555555555555556
 40
0.5555555555555556
 40
0.5555555555555556
 40
0.5555555555555556
 40
0.6666666666666666
 40
0.6666666666666666
 40
0.6666666666666666
 40
0.6666666666666666
 40
0.7777777777777778
 40
0.7777777777777778
 40
0.7777777777777778
 40
0.7777777777777778
 40
1.0
 40
1.0
 40
1.0
 40
1.0
 10
34.2867
 20
-9.6159
 30
0.0
 10
34.7495
 20
-9.6159
 30
0.0
 10
35.0574
 20
-9.5614
 30
0.0
 10
35.2111
 20
-9.4531
 30
0.0
 10
35.2111
 20
-9.4531
 30
0.0
 10
35.364
 20
-9.3447
 30
0.0
 10
35.4408
 20
-9.2115
 30
0.0
 10
35.4408
 20
-9.0526
 30
0.0
 10
35.4408
 20
-9.0526
 30
0.0
 10
35.4408
 20
-8.893
 30
0.0
 10
35.3634
 20
-8.7598
 30
0.0
 10
35.2097
 20
-8.6514
 30
0.0
 10
35.2097
 20
-8.6514
 30
0.0
 10
35.0561
 20
-8.5431
 30
0.0
 10
34.7482
 20
-8.4886
 30
0.0
 10
34.2867
 20
-8.4886
 30
0.0
 10
34.2867
 20
-8.4886
 30
0.0
 10
33.8225
 20
-8.4886
 30
0.0
 10
33.5139
 20
-8.5431
 30
0.0
 10
33.3616
 20
-8.6514
 30
0.0
 10
33.3616
 20
-8.6514
 30
0.0
 10
33.2086
 20
-8.7598
 30
0.0
 10
33.1325
 20
-8.8944
 30
0.0
 10
33.1325
 20
-9.0559
 30
0.0
 10
33.1325
 20
-9.0559
 30
0.0
 10
33.1325
 20
-9.2154
 30
0.0
 10
33.2001
 20
-9.3421
 30
0.0
 10
33.3347
 20
-9.4373
 30
0.0
 10
33.3347
 20
-9.4373
 30
0.0
 10
33.506
 20
-9.5561
 30
0.0
 10
33.8238
 20
-9.6159
 30
0.0
 10
34.2867
 20
-9.6159
 30
0.0
  0
SPLINE
  5
5E
330
1F
100
AcDbEntity
  8
DEFAULT_1
 62
   250
100
AcDbSpline
210
0.0
220
0.0
230
1.0
 70
    11
 71
     3
 72
    20
 73
    16
 74
     0
 42
0.0000000001
 43
0.0000000001
 40
0.0
 40
0.0
 40
0.0
 40
0.0
 40
0.2
 40
0.2
 40
0.2
 40
0.2
 40
0.4
 40
0.4
 40
0.4
 40
0.4
 40
0.6
 40
0.6
 40
0.6
 40
0.6
 40
1.0
 40
1.0
 40
1.0
 40
1.0
 10
36.1088
 20
14.358
 30
0.0
 10
36.1088
 20
14.358
 30
0.0
 10
36.6818
 20
18.2819
 30
0.0
 10
36.6818
 20
18.2819
 30
0.0
 10
36.6818
 20
18.2819
 30
0.0
 10
36.6818
 20
18.2819
 30
0.0
 10
35.417
 20
18.2819
 30
0.0
 10
35.417
 20
18.2819
 30
0.0
 10
35.417
 20
18.2819
 30
0.0
 10
35.417
 20
18.2819
 30
0.0
 10
36.1071
 20
14.358
 30
0.0
 10
36.1071
 20
14.358
 30
0.0
 10
36.1071
 20
14.358
 30
0.0
 10
36.1071
 20
14.358
 30
0.0
 10
36.1088
 20
14.358
 30
0.0
 10
36.1088
 20
14.358
 30
0.0
  0
SPLINE
  5
5F
330
1F
100
AcDbEntity
  8
DEFAULT_1
 62
   250
100
AcDbSpline
210
0.0
220
0.0
230
1.0
 70
    11
 71
     3
 72
    20
 73
    16
 74
     0
 42
0.0000000001
 43
0.0000000001
 40
0.0
 40
0.0
 40
0.0
 40
0.0
 40
0.2
 40
0.2
 40
0.2
 40
0.2
 40
0.4
 40
0.4
 40
0.4
 40
0.4
 40
0.6
 40
0.6
 40
0.6
 40
0.6
 40
1.0
 40
1.0
 40
1.0
 40
1.0
 10
36.1126
 20
-1.6116
 30
0.0
 10
36.1126
 20
-1.6116
 30
0.0
 10
35.5396
 20
-5.5355
 30
0.0
 10
35.5396
 20
-5.5355
 30
0.0
 10
35.5396
 20
-5.5355
 30
0.0
 10
35.5396
 20
-5.5355
 30
0.0
 10
36.8044
 20
-5.5355
 30
0.0
 10
36.8044
 20
-5.5355
 30
0.0
 10
36.8044
 20
-5.5355
 30
0.0
 10
36.8044
 20
-5.5355
 30
0.0
 10
36.1143
 20
-1.6116
 30
0.0
 10
36.1143
 20
-1.6116
 30
0.0
 10
36.1143
 20
-1.6116
 30
0.0
 10
36.1143
 20
-1.6116
 30
0.0
 10
36.1126
 20
-1.6116
 30
0.0
 10
36.1126
 20
-1.6116
 30
0.0
  0
SPLINE
  5
60
330
1F
100
AcDbEntity
  8
DEFAULT_1
 62
   250
100
AcDbSpline
210
0.0
220
0.0
230
1.0
 70
    24
 71
     3
 72
     8
 73
     4
 74
     0
 42
0.0000000001
 43
0.0000000001
 40
0.0
 40
0.0
 40
0.0
 40
0.0
 40
1.0
 40
1.0
 40
1.0
 40
1.0
 10
36.1098
 20
20.046
 30
0.0
 10
36.1098
 20
20.046
 30
0.0
 10
36.1098
 20
-14.9621
 30
0.0
 10
36.1098
 20
-14.9621
 30
0.0
  0
SPLINE
  5
61
330
1F
100
AcDbEntity
  8
DEFAULT_1
  6
NEW_LINE1
 62
   250
100
AcDbSpline
210
0.0
220
0.0
230
1.0
 70
    24
 71
     3
 72
     8
 73
     4
 74
     0
 42
0.0000000001
 43
0.0000000001
 40
0.0
 40
0.0
 40
0.0
 40
0.0
 40
1.0
 40
1.0
 40
1.0
 40
1.0
 10
-64.9111
 20
6.478
 30
0.0
 10
-64.9111
 20
6.478
 30
0.0
 10
65.1997
 20
6.478
 30
0.0
 10
65.1997
 20
6.478
 30
0.0
  0
SPLINE
  5
63
330
1F
100
AcDbEntity
  8
DEFAULT_1
 62
   250
100
AcDbSpline
210
0.0
220
0.0
230
1.0
 70
    11
 71
     3
 72
   120
 73
   116
 74
     0
 42
0.0000000001
 43
0.0000000001
 40
0.0
 40
0.0
 40
0.0
 40
0.0
 40
0.0333333333333333
 40
0.0333333333333333
 40
0.0333333333333333
 40
0.0333333333333333
 40
0.0666666666666667
 40
0.0666666666666667
 40
0.0666666666666667
 40
0.0666666666666667
 40
0.1
 40
0.1
 40
0.1
 40
0.1
 40
0.1333333333333333
 40
0.1333333333333333
 40
0.1333333333333333
 40
0.1333333333333333
 40
0.1666666666666667
 40
0.1666666666666667
 40
0.1666666666666667
 40
0.1666666666666667
 40
0.2
 40
0.2
 40
0.2
 40
0.2
 40
0.2333333333333333
 40
0.2333333333333333
 40
0.2333333333333333
 40
0.2333333333333333
 40
0.2666666666666667
 40
0.2666666666666667
 40
0.2666666666666667
 40
0.2666666666666667
 40
0.3
 40
0.3
 40
0.3
 40
0.3
 40
0.3333333333333333
 40
0.3333333333333333
 40
0.3333333333333333
 40
0.3333333333333333
 40
0.3666666666666666
 40
0.3666666666666666
 40
0.3666666666666666
 40
0.3666666666666666
 40
0.4
 40
0.4
 40
0.4
 40
0.4
 40
0.4333333333333333
 40
0.4333333333333333
 40
0.4333333333333333
 40
0.4333333333333333
 40
0.4666666666666667
 40
0.4666666666666667
 40
0.4666666666666667
 40
0.4666666666666667
 40
0.5
 40
0.5
 40
0.5
 40
0.5
 40
0.5333333333333333
 40
0.5333333333333333
 40
0.5333333333333333
 40
0.5333333333333333
 40
0.5666666666666667
 40
0.5666666666666667
 40
0.5666666666666667
 40
0.5666666666666667
 40
0.6
 40
0.6
 40
0.6
 40
0.6
 40
0.6333333333333333
 40
0.6333333333333333
 40
0.6333333333333333
 40
0.6333333333333333
 40
0.6666666666666666
 40
0.6666666666666666
 40
0.6666666666666666
 40
0.6666666666666666
 40
0.7
 40
0.7
 40
0.7
 40
0.7
 40
0.7333333333333333
 40
0.7333333333333333
 40
0.7333333333333333
 40
0.7333333333333333
 40
0.7666666666666667
 40
0.7666666666666667
 40
0.7666666666666667
 40
0.7666666666666667
 40
0.8
 40
0.8
 40
0.8
 40
0.8
 40
0.8333333333333334
 40
0.8333333333333334
 40
0.8333333333333334
 40
0.8333333333333334
 40
0.8666666666666667
 40
0.8666666666666667
 40
0.8666666666666667
 40
0.8666666666666667
 40
0.9
 40
0.9
 40
0.9
 40
0.9
 40
0.9333333333333333
 40
0.9333333333333333
 40
0.9333333333333333
 40
0.9333333333333333
 40
1.0
 40
1.0
 40
1.0
 40
1.0
 10
-72.1542
 20
2.7798
 30
0.0
 10
-72.1542
 20
2.7798
 30
0.0
 10
-72.4844
 20
2.7798
 30
0.0
 10
-72.4844
 20
2.7798
 30
0.0
 10
-72.4844
 20
2.7798
 30
0.0
 10
-72.4844
 20
2.7798
 30
0.0
 10
-72.4864
 20
3.974
 30
0.0
 10
-72.4864
 20
3.974
 30
0.0
 10
-72.4864
 20
3.974
 30
0.0
 10
-72.4864
 20
3.974
 30
0.0
 10
-71.4405
 20
3.974
 30
0.0
 10
-71.4405
 20
3.974
 30
0.0
 10
-71.4405
 20
3.974
 30
0.0
 10
-71.2941
 20
3.7909
 30
0.0
 10
-71.1845
 20
3.6018
 30
0.0
 10
-71.1103
 20
3.4068
 30
0.0
 10
-71.1103
 20
3.4068
 30
0.0
 10
-71.0367
 20
3.2118
 30
0.0
 10
-71.0
 20
3.0116
 30
0.0
 10
-71.0
 20
2.8067
 30
0.0
 10
-71.0
 20
2.8067
 30
0.0
 10
-71.0
 20
2.5297
 30
0.0
 10
-71.0591
 20
2.2776
 30
0.0
 10
-71.1779
 20
2.0517
 30
0.0
 10
-71.1779
 20
2.0517
 30
0.0
 10
-71.2961
 20
1.8252
 30
0.0
 10
-71.4681
 20
1.6545
 30
0.0
 10
-71.692
 20
1.539
 30
0.0
 10
-71.692
 20
1.539
 30
0.0
 10
-71.9165
 20
1.4234
 30
0.0
 10
-72.1673
 20
1.3656
 30
0.0
 10
-72.4443
 20
1.3656
 30
0.0
 10
-72.4443
 20
1.3656
 30
0.0
 10
-72.7188
 20
1.3656
 30
0.0
 10
-72.9748
 20
1.4234
 30
0.0
 10
-73.2125
 20
1.5383
 30
0.0
 10
-73.2125
 20
1.5383
 30
0.0
 10
-73.4508
 20
1.6525
 30
0.0
 10
-73.6274
 20
1.818
 30
0.0
 10
-73.743
 20
2.0333
 30
0.0
 10
-73.743
 20
2.0333
 30
0.0
 10
-73.8579
 20
2.2487
 30
0.0
 10
-73.9156
 20
2.4968
 30
0.0
 10
-73.9156
 20
2.7778
 30
0.0
 10
-73.9156
 20
2.7778
 30
0.0
 10
-73.9156
 20
2.9814
 30
0.0
 10
-73.8828
 20
3.1658
 30
0.0
 10
-73.8165
 20
3.3306
 30
0.0
 10
-73.8165
 20
3.3306
 30
0.0
 10
-73.7508
 20
3.4954
 30
0.0
 10
-73.6589
 20
3.6248
 30
0.0
 10
-73.5408
 20
3.718
 30
0.0
 10
-73.5408
 20
3.718
 30
0.0
 10
-73.4226
 20
3.8119
 30
0.0
 10
-73.269
 20
3.8828
 30
0.0
 10
-73.0792
 20
3.932
 30
0.0
 10
-73.0792
 20
3.932
 30
0.0
 10
-73.0792
 20
3.932
 30
0.0
 10
-72.9866
 20
3.5952
 30
0.0
 10
-72.9866
 20
3.5952
 30
0.0
 10
-72.9866
 20
3.5952
 30
0.0
 10
-73.1304
 20
3.5525
 30
0.0
 10
-73.2433
 20
3.5
 30
0.0
 10
-73.3254
 20
3.4377
 30
0.0
 10
-73.3254
 20
3.4377
 30
0.0
 10
-73.4075
 20
3.3746
 30
0.0
 10
-73.4731
 20
3.2847
 30
0.0
 10
-73.5224
 20
3.1678
 30
0.0
 10
-73.5224
 20
3.1678
 30
0.0
 10
-73.5716
 20
3.0516
 30
0.0
 10
-73.5966
 20
2.9216
 30
0.0
 10
-73.5966
 20
2.7798
 30
0.0
 10
-73.5966
 20
2.7798
 30
0.0
 10
-73.5966
 20
2.6091
 30
0.0
 10
-73.5703
 20
2.4614
 30
0.0
 10
-73.5184
 20
2.3373
 30
0.0
 10
-73.5184
 20
2.3373
 30
0.0
 10
-73.4666
 20
2.2126
 30
0.0
 10
-73.3983
 20
2.1128
 30
0.0
 10
-73.3136
 20
2.036
 30
0.0
 10
-73.3136
 20
2.036
 30
0.0
 10
-73.2289
 20
1.9598
 30
0.0
 10
-73.1363
 20
1.9007
 30
0.0
 10
-73.0346
 20
1.858
 30
0.0
 10
-73.0346
 20
1.858
 30
0.0
 10
-72.8606
 20
1.7865
 30
0.0
 10
-72.6715
 20
1.7504
 30
0.0
 10
-72.4673
 20
1.7504
 30
0.0
 10
-72.4673
 20
1.7504
 30
0.0
 10
-72.2159
 20
1.7504
 30
0.0
 10
-72.0058
 20
1.7937
 30
0.0
 10
-71.8364
 20
1.8804
 30
0.0
 10
-71.8364
 20
1.8804
 30
0.0
 10
-71.667
 20
1.967
 30
0.0
 10
-71.5416
 20
2.0931
 30
0.0
 10
-71.4595
 20
2.2585
 30
0.0
 10
-71.4595
 20
2.2585
 30
0.0
 10
-71.3775
 20
2.424
 30
0.0
 10
-71.3361
 20
2.5993
 30
0.0
 10
-71.3361
 20
2.7851
 30
0.0
 10
-71.3361
 20
2.7851
 30
0.0
 10
-71.3361
 20
2.9472
 30
0.0
 10
-71.3676
 20
3.1048
 30
0.0
 10
-71.43
 20
3.2584
 30
0.0
 10
-71.43
 20
3.2584
 30
0.0
 10
-71.4917
 20
3.4127
 30
0.0
 10
-71.558
 20
3.5289
 30
0.0
 10
-71.6289
 20
3.6084
 30
0.0
 10
-71.6289
 20
3.6084
 30
0.0
 10
-71.6289
 20
3.6084
 30
0.0
 10
-72.1542
 20
3.6084
 30
0.0
 10
-72.1542
 20
3.6084
 30
0.0
 10
-72.1542
 20
3.6084
 30
0.0
 10
-72.1542
 20
3.6084
 30
0.0
 10
-72.1542
 20
2.7798
 30
0.0
 10
-72.1542
 20
2.7798
 30
0.0
  0
SPLINE
  5
64
330
1F
100
AcDbEntity
  8
DEFAULT_1
 62
   250
100
AcDbSpline
210
0.0
220
0.0
230
1.0
 70
    11
 71
     3
 72
    80
 73
    76
 74
     0
 42
0.0000000001
 43
0.0000000001
 40
0.0
 40
0.0
 40
0.0
 40
0.0
 40
0.05
 40
0.05
 40
0.05
 40
0.05
 40
0.1
 40
0.1
 40
0.1
 40
0.1
 40
0.15
 40
0.15
 40
0.15
 40
0.15
 40
0.2
 40
0.2
 40
0.2
 40
0.2
 40
0.25
 40
0.25
 40
0.25
 40
0.25
 40
0.3
 40
0.3
 40
0.3
 40
0.3
 40
0.35
 40
0.35
 40
0.35
 40
0.35
 40
0.4
 40
0.4
 40
0.4
 40
0.4
 40
0.45
 40
0.45
 40
0.45
 40
0.45
 40
0.5
 40
0.5
 40
0.5
 40
0.5
 40
0.55
 40
0.55
 40
0.55
 40
0.55
 40
0.6
 40
0.6
 40
0.6
 40
0.6
 40
0.65
 40
0.65
 40
0.65
 40
0.65
 40
0.7
 40
0.7
 40
0.7
 40
0.7
 40
0.75
 40
0.75
 40
0.75
 40
0.75
 40
0.8
 40
0.8
 40
0.8
 40
0.8
 40
0.85
 40
0.85
 40
0.85
 40
0.85
 40
0.9
 40
0.9
 40
0.9
 40
0.9
 40
1.0
 40
1.0
 40
1.0
 40
1.0
 10
-73.177
 20
7.2744
 30
0.0
 10
-73.177
 20
7.2744
 30
0.0
 10
-73.1501
 20
6.9303
 30
0.0
 10
-73.1501
 20
6.9303
 30
0.0
 10
-73.1501
 20
6.9303
 30
0.0
 10
-73.286
 20
6.8995
 30
0.0
 10
-73.3852
 20
6.8561
 30
0.0
 10
-73.4462
 20
6.7997
 30
0.0
 10
-73.4462
 20
6.7997
 30
0.0
 10
-73.5454
 20
6.7058
 30
0.0
 10
-73.5946
 20
6.5902
 30
0.0
 10
-73.5946
 20
6.453
 30
0.0
 10
-73.5946
 20
6.453
 30
0.0
 10
-73.5946
 20
6.3427
 30
0.0
 10
-73.5637
 20
6.2462
 30
0.0
 10
-73.502
 20
6.1628
 30
0.0
 10
-73.502
 20
6.1628
 30
0.0
 10
-73.4226
 20
6.0539
 30
0.0
 10
-73.3064
 20
5.9679
 30
0.0
 10
-73.1541
 20
5.9048
 30
0.0
 10
-73.1541
 20
5.9048
 30
0.0
 10
-73.0017
 20
5.8425
 30
0.0
 10
-72.7844
 20
5.8096
 30
0.0
 10
-72.5021
 20
5.807
 30
0.0
 10
-72.5021
 20
5.807
 30
0.0
 10
-72.6288
 20
5.8904
 30
0.0
 10
-72.7234
 20
5.9921
 30
0.0
 10
-72.7851
 20
6.1129
 30
0.0
 10
-72.7851
 20
6.1129
 30
0.0
 10
-72.8461
 20
6.2331
 30
0.0
 10
-72.877
 20
6.3598
 30
0.0
 10
-72.877
 20
6.4918
 30
0.0
 10
-72.877
 20
6.4918
 30
0.0
 10
-72.877
 20
6.7229
 30
0.0
 10
-72.7923
 20
6.9192
 30
0.0
 10
-72.6223
 20
7.0813
 30
0.0
 10
-72.6223
 20
7.0813
 30
0.0
 10
-72.4522
 20
7.2435
 30
0.0
 10
-72.2329
 20
7.3249
 30
0.0
 10
-71.9638
 20
7.3249
 30
0.0
 10
-71.9638
 20
7.3249
 30
0.0
 10
-71.7865
 20
7.3249
 30
0.0
 10
-71.6224
 20
7.2862
 30
0.0
 10
-71.4701
 20
7.21
 30
0.0
 10
-71.4701
 20
7.21
 30
0.0
 10
-71.3184
 20
7.1339
 30
0.0
 10
-71.2015
 20
7.0288
 30
0.0
 10
-71.1208
 20
6.8955
 30
0.0
 10
-71.1208
 20
6.8955
 30
0.0
 10
-71.04
 20
6.7623
 30
0.0
 10
-71.0
 20
6.6113
 30
0.0
 10
-71.0
 20
6.4419
 30
0.0
 10
-71.0
 20
6.4419
 30
0.0
 10
-71.0
 20
6.153
 30
0.0
 10
-71.1057
 20
5.918
 30
0.0
 10
-71.3184
 20
5.7361
 30
0.0
 10
-71.3184
 20
5.7361
 30
0.0
 10
-71.5305
 20
5.5536
 30
0.0
 10
-71.8804
 20
5.463
 30
0.0
 10
-72.3675
 20
5.463
 30
0.0
 10
-72.3675
 20
5.463
 30
0.0
 10
-72.9125
 20
5.463
 30
0.0
 10
-73.3083
 20
5.5634
 30
0.0
 10
-73.5559
 20
5.765
 30
0.0
 10
-73.5559
 20
5.765
 30
0.0
 10
-73.7712
 20
5.9403
 30
0.0
 10
-73.8795
 20
6.1766
 30
0.0
 10
-73.8795
 20
6.4747
 30
0.0
 10
-73.8795
 20
6.4747
 30
0.0
 10
-73.8795
 20
6.6959
 30
0.0
 10
-73.8172
 20
6.8778
 30
0.0
 10
-73.6924
 20
7.0196
 30
0.0
 10
-73.6924
 20
7.0196
 30
0.0
 10
-73.5683
 20
7.1614
 30
0.0
 10
-73.3963
 20
7.2461
 30
0.0
 10
-73.177
 20
7.2744
 30
0.0
  0
SPLINE
  5
65
330
1F
100
AcDbEntity
  8
DEFAULT_1
 62
   250
100
AcDbSpline
210
0.0
220
0.0
230
1.0
 70
    11
 71
     3
 72
    40
 73
    36
 74
     0
 42
0.0000000001
 43
0.0000000001
 40
0.0
 40
0.0
 40
0.0
 40
0.0
 40
0.1
 40
0.1
 40
0.1
 40
0.1
 40
0.2
 40
0.2
 40
0.2
 40
0.2
 40
0.3
 40
0.3
 40
0.3
 40
0.3
 40
0.4
 40
0.4
 40
0.4
 40
0.4
 40
0.5
 40
0.5
 40
0.5
 40
0.5
 40
0.6
 40
0.6
 40
0.6
 40
0.6
 40
0.7
 40
0.7
 40
0.7
 40
0.7
 40
0.8
 40
0.8
 40
0.8
 40
0.8
 40
1.0
 40
1.0
 40
1.0
 40
1.0
 10
-71.9618
 20
5.8608
 30
0.0
 10
-71.8423
 20
5.8608
 30
0.0
 10
-71.7281
 20
5.8864
 30
0.0
 10
-71.6191
 20
5.937
 30
0.0
 10
-71.6191
 20
5.937
 30
0.0
 10
-71.5101
 20
5.9875
 30
0.0
 10
-71.4274
 20
6.0585
 30
0.0
 10
-71.3703
 20
6.1491
 30
0.0
 10
-71.3703
 20
6.1491
 30
0.0
 10
-71.3131
 20
6.2403
 30
0.0
 10
-71.2843
 20
6.3362
 30
0.0
 10
-71.2843
 20
6.436
 30
0.0
 10
-71.2843
 20
6.436
 30
0.0
 10
-71.2843
 20
6.5824
 30
0.0
 10
-71.3433
 20
6.7078
 30
0.0
 10
-71.4615
 20
6.8128
 30
0.0
 10
-71.4615
 20
6.8128
 30
0.0
 10
-71.5797
 20
6.9179
 30
0.0
 10
-71.7399
 20
6.9704
 30
0.0
 10
-71.9421
 20
6.9704
 30
0.0
 10
-71.9421
 20
6.9704
 30
0.0
 10
-72.1371
 20
6.9704
 30
0.0
 10
-72.2907
 20
6.9185
 30
0.0
 10
-72.403
 20
6.8148
 30
0.0
 10
-72.403
 20
6.8148
 30
0.0
 10
-72.5153
 20
6.711
 30
0.0
 10
-72.5711
 20
6.5804
 30
0.0
 10
-72.5711
 20
6.4228
 30
0.0
 10
-72.5711
 20
6.4228
 30
0.0
 10
-72.5711
 20
6.2659
 30
0.0
 10
-72.5153
 20
6.1333
 30
0.0
 10
-72.403
 20
6.0243
 30
0.0
 10
-72.403
 20
6.0243
 30
0.0
 10
-72.2907
 20
5.9153
 30
0.0
 10
-72.1437
 20
5.8608
 30
0.0
 10
-71.9618
 20
5.8608
 30
0.0
  0
SPLINE
  5
66
330
1F
100
AcDbEntity
  8
DEFAULT_1
 62
   250
100
AcDbSpline
210
0.0
220
0.0
230
1.0
 70
    11
 71
     3
 72
    20
 73
    16
 74
     0
 42
0.0000000001
 43
0.0000000001
 40
0.0
 40
0.0
 40
0.0
 40
0.0
 40
0.2
 40
0.2
 40
0.2
 40
0.2
 40
0.4
 40
0.4
 40
0.4
 40
0.4
 40
0.6
 40
0.6
 40
0.6
 40
0.6
 40
1.0
 40
1.0
 40
1.0
 40
1.0
 10
-71.0
 20
7.5055
 30
0.0
 10
-71.0
 20
7.5055
 30
0.0
 10
-73.9156
 20
8.3229
 30
0.0
 10
-73.9156
 20
8.3229
 30
0.0
 10
-73.9156
 20
8.3229
 30
0.0
 10
-73.9156
 20
8.3229
 30
0.0
 10
-73.9156
 20
8.5999
 30
0.0
 10
-73.9156
 20
8.5999
 30
0.0
 10
-73.9156
 20
8.5999
 30
0.0
 10
-73.9156
 20
8.5999
 30
0.0
 10
-71.0
 20
7.7845
 30
0.0
 10
-71.0
 20
7.7845
 30
0.0
 10
-71.0
 20
7.7845
 30
0.0
 10
-71.0
 20
7.7845
 30
0.0
 10
-71.0
 20
7.5055
 30
0.0
 10
-71.0
 20
7.5055
 30
0.0
  0
SPLINE
  5
67
330
1F
100
AcDbEntity
  8
DEFAULT_1
 62
   250
100
AcDbSpline
210
0.0
220
0.0
230
1.0
 70
    11
 71
     3
 72
    48
 73
    44
 74
     0
 42
0.0000000001
 43
0.0000000001
 40
0.0
 40
0.0
 40
0.0
 40
0.0
 40
0.0833333333333333
 40
0.0833333333333333
 40
0.0833333333333333
 40
0.0833333333333333
 40
0.1666666666666667
 40
0.1666666666666667
 40
0.1666666666666667
 40
0.1666666666666667
 40
0.25
 40
0.25
 40
0.25
 40
0.25
 40
0.3333333333333333
 40
0.3333333333333333
 40
0.3333333333333333
 40
0.3333333333333333
 40
0.4166666666666667
 40
0.4166666666666667
 40
0.4166666666666667
 40
0.4166666666666667
 40
0.5
 40
0.5
 40
0.5
 40
0.5
 40
0.5833333333333334
 40
0.5833333333333334
 40
0.5833333333333334
 40
0.5833333333333334
 40
0.6666666666666666
 40
0.6666666666666666
 40
0.6666666666666666
 40
0.6666666666666666
 40
0.75
 40
0.75
 40
0.75
 40
0.75
 40
0.8333333333333334
 40
0.8333333333333334
 40
0.8333333333333334
 40
0.8333333333333334
 40
1.0
 40
1.0
 40
1.0
 40
1.0
 10
-71.0479
 20
9.8729
 30
0.0
 10
-71.0479
 20
9.8729
 30
0.0
 10
-71.7228
 20
9.8729
 30
0.0
 10
-71.7228
 20
9.8729
 30
0.0
 10
-71.7228
 20
9.8729
 30
0.0
 10
-71.7228
 20
9.8729
 30
0.0
 10
-71.7228
 20
8.6498
 30
0.0
 10
-71.7228
 20
8.6498
 30
0.0
 10
-71.7228
 20
8.6498
 30
0.0
 10
-71.7228
 20
8.6498
 30
0.0
 10
-72.0406
 20
8.6498
 30
0.0
 10
-72.0406
 20
8.6498
 30
0.0
 10
-72.0406
 20
8.6498
 30
0.0
 10
-72.0406
 20
8.6498
 30
0.0
 10
-73.8677
 20
9.9366
 30
0.0
 10
-73.8677
 20
9.9366
 30
0.0
 10
-73.8677
 20
9.9366
 30
0.0
 10
-73.8677
 20
9.9366
 30
0.0
 10
-73.8677
 20
10.2196
 30
0.0
 10
-73.8677
 20
10.2196
 30
0.0
 10
-73.8677
 20
10.2196
 30
0.0
 10
-73.8677
 20
10.2196
 30
0.0
 10
-72.0406
 20
10.2196
 30
0.0
 10
-72.0406
 20
10.2196
 30
0.0
 10
-72.0406
 20
10.2196
 30
0.0
 10
-72.0406
 20
10.2196
 30
0.0
 10
-72.0406
 20
10.6004
 30
0.0
 10
-72.0406
 20
10.6004
 30
0.0
 10
-72.0406
 20
10.6004
 30
0.0
 10
-72.0406
 20
10.6004
 30
0.0
 10
-71.7228
 20
10.6004
 30
0.0
 10
-71.7228
 20
10.6004
 30
0.0
 10
-71.7228
 20
10.6004
 30
0.0
 10
-71.7228
 20
10.6004
 30
0.0
 10
-71.7228
 20
10.2196
 30
0.0
 10
-71.7228
 20
10.2196
 30
0.0
 10
-71.7228
 20
10.2196
 30
0.0
 10
-71.7228
 20
10.2196
 30
0.0
 10
-71.0479
 20
10.2196
 30
0.0
 10
-71.0479
 20
10.2196
 30
0.0
 10
-71.0479
 20
10.2196
 30
0.0
 10
-71.0479
 20
10.2196
 30
0.0
 10
-71.0479
 20
9.8729
 30
0.0
 10
-71.0479
 20
9.8729
 30
0.0
  0
SPLINE
  5
68
330
1F
100
AcDbEntity
  8
DEFAULT_1
 62
   250
100
AcDbSpline
210
0.0
220
0.0
230
1.0
 70
    11
 71
     3
 72
    16
 73
    12
 74
     0
 42
0.0000000001
 43
0.0000000001
 40
0.0
 40
0.0
 40
0.0
 40
0.0
 40
0.25
 40
0.25
 40
0.25
 40
0.25
 40
0.5
 40
0.5
 40
0.5
 40
0.5
 40
1.0
 40
1.0
 40
1.0
 40
1.0
 10
-72.0406
 20
9.8729
 30
0.0
 10
-72.0406
 20
9.8729
 30
0.0
 10
-73.3116
 20
9.8729
 30
0.0
 10
-73.3116
 20
9.8729
 30
0.0
 10
-73.3116
 20
9.8729
 30
0.0
 10
-73.3116
 20
9.8729
 30
0.0
 10
-72.0406
 20
8.9905
 30
0.0
 10
-72.0406
 20
8.9905
 30
0.0
 10
-72.0406
 20
8.9905
 30
0.0
 10
-72.0406
 20
8.9905
 30
0.0
 10
-72.0406
 20
9.8729
 30
0.0
 10
-72.0406
 20
9.8729
 30
0.0
  0
SPLINE
  5
69
330
1F
100
AcDbEntity
  8
DEFAULT_1
 62
   250
100
AcDbSpline
210
0.0
220
0.0
230
1.0
 70
    11
 71
     3
 72
    28
 73
    24
 74
     0
 42
0.0000000001
 43
0.0000000001
 40
0.0
 40
0.0
 40
0.0
 40
0.0
 40
0.1428571428571428
 40
0.1428571428571428
 40
0.1428571428571428
 40
0.1428571428571428
 40
0.2857142857142857
 40
0.2857142857142857
 40
0.2857142857142857
 40
0.2857142857142857
 40
0.4285714285714285
 40
0.4285714285714285
 40
0.4285714285714285
 40
0.4285714285714285
 40
0.5714285714285714
 40
0.5714285714285714
 40
0.5714285714285714
 40
0.5714285714285714
 40
0.7142857142857143
 40
0.7142857142857143
 40
0.7142857142857143
 40
0.7142857142857143
 40
1.0
 40
1.0
 40
1.0
 40
1.0
 10
-72.8691
 20
11.0679
 30
0.0
 10
-72.8691
 20
11.0679
 30
0.0
 10
-73.4062
 20
10.9713
 30
0.0
 10
-73.4062
 20
10.9713
 30
0.0
 10
-73.4062
 20
10.9713
 30
0.0
 10
-73.4062
 20
10.9713
 30
0.0
 10
-73.8677
 20
10.9713
 30
0.0
 10
-73.8677
 20
10.9713
 30
0.0
 10
-73.8677
 20
10.9713
 30
0.0
 10
-73.8677
 20
10.9713
 30
0.0
 10
-73.8677
 20
11.3659
 30
0.0
 10
-73.8677
 20
11.3659
 30
0.0
 10
-73.8677
 20
11.3659
 30
0.0
 10
-73.8677
 20
11.3659
 30
0.0
 10
-73.4062
 20
11.3659
 30
0.0
 10
-73.4062
 20
11.3659
 30
0.0
 10
-73.4062
 20
11.3659
 30
0.0
 10
-73.4062
 20
11.3659
 30
0.0
 10
-72.8691
 20
11.2793
 30
0.0
 10
-72.8691
 20
11.2793
 30
0.0
 10
-72.8691
 20
11.2793
 30
0.0
 10
-72.8691
 20
11.2793
 30
0.0
 10
-72.8691
 20
11.0679
 30
0.0
 10
-72.8691
 20
11.0679
 30
0.0
  0
SPLINE
  5
6A
330
1F
100
AcDbEntity
  8
DEFAULT_1
 62
   250
100
AcDbSpline
210
0.0
220
0.0
230
1.0
 70
    11
 71
     3
 72
    28
 73
    24
 74
     0
 42
0.0000000001
 43
0.0000000001
 40
0.0
 40
0.0
 40
0.0
 40
0.0
 40
0.1428571428571428
 40
0.1428571428571428
 40
0.1428571428571428
 40
0.1428571428571428
 40
0.2857142857142857
 40
0.2857142857142857
 40
0.2857142857142857
 40
0.2857142857142857
 40
0.4285714285714285
 40
0.4285714285714285
 40
0.4285714285714285
 40
0.4285714285714285
 40
0.5714285714285714
 40
0.5714285714285714
 40
0.5714285714285714
 40
0.5714285714285714
 40
0.7142857142857143
 40
0.7142857142857143
 40
0.7142857142857143
 40
0.7142857142857143
 40
1.0
 40
1.0
 40
1.0
 40
1.0
 10
-72.8691
 20
11.7047
 30
0.0
 10
-72.8691
 20
11.7047
 30
0.0
 10
-73.4062
 20
11.6102
 30
0.0
 10
-73.4062
 20
11.6102
 30
0.0
 10
-73.4062
 20
11.6102
 30
0.0
 10
-73.4062
 20
11.6102
 30
0.0
 10
-73.8677
 20
11.6102
 30
0.0
 10
-73.8677
 20
11.6102
 30
0.0
 10
-73.8677
 20
11.6102
 30
0.0
 10
-73.8677
 20
11.6102
 30
0.0
 10
-73.8677
 20
12.0047
 30
0.0
 10
-73.8677
 20
12.0047
 30
0.0
 10
-73.8677
 20
12.0047
 30
0.0
 10
-73.8677
 20
12.0047
 30
0.0
 10
-73.4062
 20
12.0047
 30
0.0
 10
-73.4062
 20
12.0047
 30
0.0
 10
-73.4062
 20
12.0047
 30
0.0
 10
-73.4062
 20
12.0047
 30
0.0
 10
-72.8691
 20
11.9122
 30
0.0
 10
-72.8691
 20
11.9122
 30
0.0
 10
-72.8691
 20
11.9122
 30
0.0
 10
-72.8691
 20
11.9122
 30
0.0
 10
-72.8691
 20
11.7047
 30
0.0
 10
-72.8691
 20
11.7047
 30
0.0
  0
SPLINE
  5
6B
330
1F
100
AcDbEntity
  8
DEFAULT_1
 62
   250
100
AcDbSpline
210
0.0
220
0.0
230
1.0
 70
    11
 71
     3
 72
    20
 73
    16
 74
     0
 42
0.0000000001
 43
0.0000000001
 40
0.0
 40
0.0
 40
0.0
 40
0.0
 40
0.2
 40
0.2
 40
0.2
 40
0.2
 40
0.4
 40
0.4
 40
0.4
 40
0.4
 40
0.6
 40
0.6
 40
0.6
 40
0.6
 40
1.0
 40
1.0
 40
1.0
 40
1.0
 10
-70.2623
 20
16.5602
 30
0.0
 10
-70.2623
 20
16.5602
 30
0.0
 10
-69.6893
 20
20.4842
 30
0.0
 10
-69.6893
 20
20.4842
 30
0.0
 10
-69.6893
 20
20.4842
 30
0.0
 10
-69.6893
 20
20.4842
 30
0.0
 10
-70.9541
 20
20.4842
 30
0.0
 10
-70.9541
 20
20.4842
 30
0.0
 10
-70.9541
 20
20.4842
 30
0.0
 10
-70.9541
 20
20.4842
 30
0.0
 10
-70.264
 20
16.5602
 30
0.0
 10
-70.264
 20
16.5602
 30
0.0
 10
-70.264
 20
16.5602
 30
0.0
 10
-70.264
 20
16.5602
 30
0.0
 10
-70.2623
 20
16.5602
 30
0.0
 10
-70.2623
 20
16.5602
 30
0.0
  0
SPLINE
  5
6C
330
1F
100
AcDbEntity
  8
DEFAULT_1
 62
   250
100
AcDbSpline
210
0.0
220
0.0
230
1.0
 70
    11
 71
     3
 72
    20
 73
    16
 74
     0
 42
0.0000000001
 43
0.0000000001
 40
0.0
 40
0.0
 40
0.0
 40
0.0
 40
0.2
 40
0.2
 40
0.2
 40
0.2
 40
0.4
 40
0.4
 40
0.4
 40
0.4
 40
0.6
 40
0.6
 40
0.6
 40
0.6
 40
1.0
 40
1.0
 40
1.0
 40
1.0
 10
-70.2585
 20
-3.4626
 30
0.0
 10
-70.2585
 20
-3.4626
 30
0.0
 10
-70.8315
 20
-7.3865
 30
0.0
 10
-70.8315
 20
-7.3865
 30
0.0
 10
-70.8315
 20
-7.3865
 30
0.0
 10
-70.8315
 20
-7.3865
 30
0.0
 10
-69.5667
 20
-7.3865
 30
0.0
 10
-69.5667
 20
-7.3865
 30
0.0
 10
-69.5667
 20
-7.3865
 30
0.0
 10
-69.5667
 20
-7.3865
 30
0.0
 10
-70.2568
 20
-3.4626
 30
0.0
 10
-70.2568
 20
-3.4626
 30
0.0
 10
-70.2568
 20
-3.4626
 30
0.0
 10
-70.2568
 20
-3.4626
 30
0.0
 10
-70.2585
 20
-3.4626
 30
0.0
 10
-70.2585
 20
-3.4626
 30
0.0
  0
SPLINE
  5
6D
330
1F
100
AcDbEntity
  8
DEFAULT_1
 62
   250
100
AcDbSpline
210
0.0
220
0.0
230
1.0
 70
    24
 71
     3
 72
     8
 73
     4
 74
     0
 42
0.0000000001
 43
0.0000000001
 40
0.0
 40
0.0
 40
0.0
 40
0.0
 40
1.0
 40
1.0
 40
1.0
 40
1.0
 10
-70.2613
 20
21.5336
 30
0.0
 10
-70.2613
 20
21.5336
 30
0.0
 10
-70.2613
 20
-9.2484
 30
0.0
 10
-70.2613
 20
-9.2484
 30
0.0
  0
SPLINE
  5
6E
330
1F
100
AcDbEntity
  8
DEFAULT_1
 62
   250
100
AcDbSpline
210
0.0
220
0.0
230
1.0
 70
    11
 71
     3
 72
    84
 73
    80
 74
     0
 42
0.0000000001
 43
0.0000000001
 40
0.0
 40
0.0
 40
0.0
 40
0.0
 40
0.0476190476190476
 40
0.0476190476190476
 40
0.0476190476190476
 40
0.0476190476190476
 40
0.0952380952380952
 40
0.0952380952380952
 40
0.0952380952380952
 40
0.0952380952380952
 40
0.1428571428571428
 40
0.1428571428571428
 40
0.1428571428571428
 40
0.1428571428571428
 40
0.1904761904761905
 40
0.1904761904761905
 40
0.1904761904761905
 40
0.1904761904761905
 40
0.2380952380952381
 40
0.2380952380952381
 40
0.2380952380952381
 40
0.2380952380952381
 40
0.2857142857142857
 40
0.2857142857142857
 40
0.2857142857142857
 40
0.2857142857142857
 40
0.3333333333333333
 40
0.3333333333333333
 40
0.3333333333333333
 40
0.3333333333333333
 40
0.3809523809523809
 40
0.3809523809523809
 40
0.3809523809523809
 40
0.3809523809523809
 40
0.4285714285714285
 40
0.4285714285714285
 40
0.4285714285714285
 40
0.4285714285714285
 40
0.4761904761904762
 40
0.4761904761904762
 40
0.4761904761904762
 40
0.4761904761904762
 40
0.5238095238095238
 40
0.5238095238095238
 40
0.5238095238095238
 40
0.5238095238095238
 40
0.5714285714285714
 40
0.5714285714285714
 40
0.5714285714285714
 40
0.5714285714285714
 40
0.6190476190476191
 40
0.6190476190476191
 40
0.6190476190476191
 40
0.6190476190476191
 40
0.6666666666666666
 40
0.6666666666666666
 40
0.6666666666666666
 40
0.6666666666666666
 40
0.7142857142857143
 40
0.7142857142857143
 40
0.7142857142857143
 40
0.7142857142857143
 40
0.7619047619047619
 40
0.7619047619047619
 40
0.7619047619047619
 40
0.7619047619047619
 40
0.8095238095238095
 40
0.8095238095238095
 40
0.8095238095238095
 40
0.8095238095238095
 40
0.8571428571428571
 40
0.8571428571428571
 40
0.8571428571428571
 40
0.8571428571428571
 40
0.9047619047619048
 40
0.9047619047619048
 40
0.9047619047619048
 40
0.9047619047619048
 40
1.0
 40
1.0
 40
1.0
 40
1.0
 10
69.4343
 20
4.8202
 30
0.0
 10
69.4343
 20
4.8202
 30
0.0
 10
69.0726
 20
5.1432
 30
0.0
 10
69.0726
 20
5.1432
 30
0.0
 10
69.0726
 20
5.1432
 30
0.0
 10
69.0726
 20
5.1432
 30
0.0
 10
69.2341
 20
5.3336
 30
0.0
 10
69.2341
 20
5.3336
 30
0.0
 10
69.2341
 20
5.3336
 30
0.0
 10
69.2341
 20
5.3336
 30
0.0
 10
69.6149
 20
4.9955
 30
0.0
 10
69.6149
 20
4.9955
 30
0.0
 10
69.6149
 20
4.9955
 30
0.0
 10
69.779
 20
5.1058
 30
0.0
 10
69.9228
 20
5.18
 30
0.0
 10
70.0455
 20
5.2187
 30
0.0
 10
70.0455
 20
5.2187
 30
0.0
 10
70.207
 20
5.27
 30
0.0
 10
70.3882
 20
5.2956
 30
0.0
 10
70.5878
 20
5.2956
 30
0.0
 10
70.5878
 20
5.2956
 30
0.0
 10
70.8767
 20
5.2956
 30
0.0
 10
71.1341
 20
5.2371
 30
0.0
 10
71.3593
 20
5.1203
 30
0.0
 10
71.3593
 20
5.1203
 30
0.0
 10
71.5851
 20
5.0034
 30
0.0
 10
71.7558
 20
4.8399
 30
0.0
 10
71.8714
 20
4.6292
 30
0.0
 10
71.8714
 20
4.6292
 30
0.0
 10
71.9863
 20
4.4178
 30
0.0
 10
72.044
 20
4.1939
 30
0.0
 10
72.044
 20
3.9569
 30
0.0
 10
72.044
 20
3.9569
 30
0.0
 10
72.044
 20
3.7796
 30
0.0
 10
72.0191
 20
3.6194
 30
0.0
 10
71.9692
 20
3.4756
 30
0.0
 10
71.9692
 20
3.4756
 30
0.0
 10
71.9304
 20
3.3653
 30
0.0
 10
71.8569
 20
3.2367
 30
0.0
 10
71.7479
 20
3.0889
 30
0.0
 10
71.7479
 20
3.0889
 30
0.0
 10
71.7479
 20
3.0889
 30
0.0
 10
72.1097
 20
2.7659
 30
0.0
 10
72.1097
 20
2.7659
 30
0.0
 10
72.1097
 20
2.7659
 30
0.0
 10
72.1097
 20
2.7659
 30
0.0
 10
71.9482
 20
2.5755
 30
0.0
 10
71.9482
 20
2.5755
 30
0.0
 10
71.9482
 20
2.5755
 30
0.0
 10
71.9482
 20
2.5755
 30
0.0
 10
71.5694
 20
2.9143
 30
0.0
 10
71.5694
 20
2.9143
 30
0.0
 10
71.5694
 20
2.9143
 30
0.0
 10
71.3783
 20
2.7883
 30
0.0
 10
71.2148
 20
2.7042
 30
0.0
 10
71.0796
 20
2.6622
 30
0.0
 10
71.0796
 20
2.6622
 30
0.0
 10
70.9443
 20
2.6202
 30
0.0
 10
70.7815
 20
2.5985
 30
0.0
 10
70.5918
 20
2.5985
 30
0.0
 10
70.5918
 20
2.5985
 30
0.0
 10
70.3022
 20
2.5985
 30
0.0
 10
70.0442
 20
2.6563
 30
0.0
 10
69.8177
 20
2.7718
 30
0.0
 10
69.8177
 20
2.7718
 30
0.0
 10
69.5912
 20
2.8874
 30
0.0
 10
69.4199
 20
3.0489
 30
0.0
 10
69.303
 20
3.2577
 30
0.0
 10
69.303
 20
3.2577
 30
0.0
 10
69.1868
 20
3.4658
 30
0.0
 10
69.1284
 20
3.6976
 30
0.0
 10
69.1284
 20
3.9529
 30
0.0
 10
69.1284
 20
3.9529
 30
0.0
 10
69.1284
 20
4.125
 30
0.0
 10
69.1507
 20
4.2753
 30
0.0
 10
69.1966
 20
4.404
 30
0.0
 10
69.1966
 20
4.404
 30
0.0
 10
69.2419
 20
4.5327
 30
0.0
 10
69.3214
 20
4.6718
 30
0.0
 10
69.4343
 20
4.8202
 30
0.0
  0
SPLINE
  5
6F
330
1F
100
AcDbEntity
  8
DEFAULT_1
 62
   250
100
AcDbSpline
210
0.0
220
0.0
230
1.0
 70
    11
 71
     3
 72
    32
 73
    28
 74
     0
 42
0.0000000001
 43
0.0000000001
 40
0.0
 40
0.0
 40
0.0
 40
0.0
 40
0.125
 40
0.125
 40
0.125
 40
0.125
 40
0.25
 40
0.25
 40
0.25
 40
0.25
 40
0.375
 40
0.375
 40
0.375
 40
0.375
 40
0.5
 40
0.5
 40
0.5
 40
0.5
 40
0.625
 40
0.625
 40
0.625
 40
0.625
 40
0.75
 40
0.75
 40
0.75
 40
0.75
 40
1.0
 40
1.0
 40
1.0
 40
1.0
 10
69.6936
 20
4.5898
 30
0.0
 10
69.5991
 20
4.469
 30
0.0
 10
69.5341
 20
4.3633
 30
0.0
 10
69.4993
 20
4.2733
 30
0.0
 10
69.4993
 20
4.2733
 30
0.0
 10
69.4652
 20
4.1827
 30
0.0
 10
69.4474
 20
4.0764
 30
0.0
 10
69.4474
 20
3.9549
 30
0.0
 10
69.4474
 20
3.9549
 30
0.0
 10
69.4474
 20
3.6739
 30
0.0
 10
69.5426
 20
3.4422
 30
0.0
 10
69.733
 20
3.2583
 30
0.0
 10
69.733
 20
3.2583
 30
0.0
 10
69.9234
 20
3.0752
 30
0.0
 10
70.2077
 20
2.9832
 30
0.0
 10
70.5865
 20
2.9832
 30
0.0
 10
70.5865
 20
2.9832
 30
0.0
 10
70.7349
 20
2.9832
 30
0.0
 10
70.8669
 20
2.9977
 30
0.0
 10
70.9824
 20
3.0259
 30
0.0
 10
70.9824
 20
3.0259
 30
0.0
 10
71.0684
 20
3.0463
 30
0.0
 10
71.1741
 20
3.0889
 30
0.0
 10
71.2995
 20
3.1546
 30
0.0
 10
71.2995
 20
3.1546
 30
0.0
 10
71.2995
 20
3.1546
 30
0.0
 10
69.6936
 20
4.5898
 30
0.0
 10
69.6936
 20
4.5898
 30
0.0
  0
SPLINE
  5
70
330
1F
100
AcDbEntity
  8
DEFAULT_1
 62
   250
100
AcDbSpline
210
0.0
220
0.0
230
1.0
 70
    11
 71
     3
 72
    28
 73
    24
 74
     0
 42
0.0000000001
 43
0.0000000001
 40
0.0
 40
0.0
 40
0.0
 40
0.0
 40
0.1428571428571428
 40
0.1428571428571428
 40
0.1428571428571428
 40
0.1428571428571428
 40
0.2857142857142857
 40
0.2857142857142857
 40
0.2857142857142857
 40
0.2857142857142857
 40
0.4285714285714285
 40
0.4285714285714285
 40
0.4285714285714285
 40
0.4285714285714285
 40
0.5714285714285714
 40
0.5714285714285714
 40
0.5714285714285714
 40
0.5714285714285714
 40
0.7142857142857143
 40
0.7142857142857143
 40
0.7142857142857143
 40
0.7142857142857143
 40
1.0
 40
1.0
 40
1.0
 40
1.0
 10
69.8919
 20
4.7473
 30
0.0
 10
69.8919
 20
4.7473
 30
0.0
 10
71.4919
 20
3.3181
 30
0.0
 10
71.4919
 20
3.3181
 30
0.0
 10
71.4919
 20
3.3181
 30
0.0
 10
71.5726
 20
3.4166
 30
0.0
 10
71.6291
 20
3.5078
 30
0.0
 10
71.6613
 20
3.5912
 30
0.0
 10
71.6613
 20
3.5912
 30
0.0
 10
71.7039
 20
3.7002
 30
0.0
 10
71.725
 20
3.8184
 30
0.0
 10
71.725
 20
3.9451
 30
0.0
 10
71.725
 20
3.9451
 30
0.0
 10
71.725
 20
4.2247
 30
0.0
 10
71.6265
 20
4.4552
 30
0.0
 10
71.4289
 20
4.6377
 30
0.0
 10
71.4289
 20
4.6377
 30
0.0
 10
71.2312
 20
4.8196
 30
0.0
 10
70.9542
 20
4.9108
 30
0.0
 10
70.5977
 20
4.9108
 30
0.0
 10
70.5977
 20
4.9108
 30
0.0
 10
70.3311
 20
4.9108
 30
0.0
 10
70.0954
 20
4.8563
 30
0.0
 10
69.8919
 20
4.7473
 30
0.0
  0
SPLINE
  5
71
330
1F
100
AcDbEntity
  8
DEFAULT_1
 62
   250
100
AcDbSpline
210
0.0
220
0.0
230
1.0
 70
    11
 71
     3
 72
    92
 73
    88
 74
     0
 42
0.0000000001
 43
0.0000000001
 40
0.0
 40
0.0
 40
0.0
 40
0.0
 40
0.0434782608695652
 40
0.0434782608695652
 40
0.0434782608695652
 40
0.0434782608695652
 40
0.0869565217391304
 40
0.0869565217391304
 40
0.0869565217391304
 40
0.0869565217391304
 40
0.1304347826086956
 40
0.1304347826086956
 40
0.1304347826086956
 40
0.1304347826086956
 40
0.1739130434782609
 40
0.1739130434782609
 40
0.1739130434782609
 40
0.1739130434782609
 40
0.2173913043478261
 40
0.2173913043478261
 40
0.2173913043478261
 40
0.2173913043478261
 40
0.2608695652173913
 40
0.2608695652173913
 40
0.2608695652173913
 40
0.2608695652173913
 40
0.3043478260869565
 40
0.3043478260869565
 40
0.3043478260869565
 40
0.3043478260869565
 40
0.3478260869565217
 40
0.3478260869565217
 40
0.3478260869565217
 40
0.3478260869565217
 40
0.391304347826087
 40
0.391304347826087
 40
0.391304347826087
 40
0.391304347826087
 40
0.4347826086956522
 40
0.4347826086956522
 40
0.4347826086956522
 40
0.4347826086956522
 40
0.4782608695652174
 40
0.4782608695652174
 40
0.4782608695652174
 40
0.4782608695652174
 40
0.5217391304347826
 40
0.5217391304347826
 40
0.5217391304347826
 40
0.5217391304347826
 40
0.5652173913043478
 40
0.5652173913043478
 40
0.5652173913043478
 40
0.5652173913043478
 40
0.6086956521739131
 40
0.6086956521739131
 40
0.6086956521739131
 40
0.6086956521739131
 40
0.6521739130434783
 40
0.6521739130434783
 40
0.6521739130434783
 40
0.6521739130434783
 40
0.6956521739130435
 40
0.6956521739130435
 40
0.6956521739130435
 40
0.6956521739130435
 40
0.7391304347826086
 40
0.7391304347826086
 40
0.7391304347826086
 40
0.7391304347826086
 40
0.782608695652174
 40
0.782608695652174
 40
0.782608695652174
 40
0.782608695652174
 40
0.8260869565217391
 40
0.8260869565217391
 40
0.8260869565217391
 40
0.8260869565217391
 40
0.8695652173913043
 40
0.8695652173913043
 40
0.8695652173913043
 40
0.8695652173913043
 40
0.9130434782608695
 40
0.9130434782608695
 40
0.9130434782608695
 40
0.9130434782608695
 40
1.0
 40
1.0
 40
1.0
 40
1.0
 10
71.2575
 20
5.6435
 30
0.0
 10
71.2575
 20
5.6435
 30
0.0
 10
71.2266
 20
6.0072
 30
0.0
 10
71.2266
 20
6.0072
 30
0.0
 10
71.2266
 20
6.0072
 30
0.0
 10
71.4039
 20
6.0341
 30
0.0
 10
71.5365
 20
6.0965
 30
0.0
 10
71.6258
 20
6.1943
 30
0.0
 10
71.6258
 20
6.1943
 30
0.0
 10
71.7151
 20
6.2928
 30
0.0
 10
71.7597
 20
6.411
 30
0.0
 10
71.7597
 20
6.5495
 30
0.0
 10
71.7597
 20
6.5495
 30
0.0
 10
71.7597
 20
6.7163
 30
0.0
 10
71.6967
 20
6.8574
 30
0.0
 10
71.5713
 20
6.9723
 30
0.0
 10
71.5713
 20
6.9723
 30
0.0
 10
71.4453
 20
7.0879
 30
0.0
 10
71.2785
 20
7.1456
 30
0.0
 10
71.071
 20
7.1456
 30
0.0
 10
71.071
 20
7.1456
 30
0.0
 10
70.8734
 20
7.1456
 30
0.0
 10
70.7178
 20
7.0905
 30
0.0
 10
70.6036
 20
6.9795
 30
0.0
 10
70.6036
 20
6.9795
 30
0.0
 10
70.4894
 20
6.8686
 30
0.0
 10
70.4322
 20
6.7235
 30
0.0
 10
70.4322
 20
6.5436
 30
0.0
 10
70.4322
 20
6.5436
 30
0.0
 10
70.4322
 20
6.432
 30
0.0
 10
70.4578
 20
6.3315
 30
0.0
 10
70.5084
 20
6.2416
 30
0.0
 10
70.5084
 20
6.2416
 30
0.0
 10
70.5589
 20
6.1516
 30
0.0
 10
70.6246
 20
6.0814
 30
0.0
 10
70.7054
 20
6.0302
 30
0.0
 10
70.7054
 20
6.0302
 30
0.0
 10
70.7054
 20
6.0302
 30
0.0
 10
70.6633
 20
5.7052
 30
0.0
 10
70.6633
 20
5.7052
 30
0.0
 10
70.6633
 20
5.7052
 30
0.0
 10
70.6633
 20
5.7052
 30
0.0
 10
69.215
 20
5.9783
 30
0.0
 10
69.215
 20
5.9783
 30
0.0
 10
69.215
 20
5.9783
 30
0.0
 10
69.215
 20
5.9783
 30
0.0
 10
69.215
 20
7.3807
 30
0.0
 10
69.215
 20
7.3807
 30
0.0
 10
69.215
 20
7.3807
 30
0.0
 10
69.215
 20
7.3807
 30
0.0
 10
69.5459
 20
7.3807
 30
0.0
 10
69.5459
 20
7.3807
 30
0.0
 10
69.5459
 20
7.3807
 30
0.0
 10
69.5459
 20
7.3807
 30
0.0
 10
69.5459
 20
6.2554
 30
0.0
 10
69.5459
 20
6.2554
 30
0.0
 10
69.5459
 20
6.2554
 30
0.0
 10
69.5459
 20
6.2554
 30
0.0
 10
70.3036
 20
6.1031
 30
0.0
 10
70.3036
 20
6.1031
 30
0.0
 10
70.3036
 20
6.1031
 30
0.0
 10
70.1854
 20
6.2724
 30
0.0
 10
70.1263
 20
6.4504
 30
0.0
 10
70.1263
 20
6.6362
 30
0.0
 10
70.1263
 20
6.6362
 30
0.0
 10
70.1263
 20
6.8824
 30
0.0
 10
70.2116
 20
7.0898
 30
0.0
 10
70.3823
 20
7.2592
 30
0.0
 10
70.3823
 20
7.2592
 30
0.0
 10
70.553
 20
7.4286
 30
0.0
 10
70.7723
 20
7.5133
 30
0.0
 10
71.0402
 20
7.5133
 30
0.0
 10
71.0402
 20
7.5133
 30
0.0
 10
71.2956
 20
7.5133
 30
0.0
 10
71.5162
 20
7.4384
 30
0.0
 10
71.702
 20
7.2901
 30
0.0
 10
71.702
 20
7.2901
 30
0.0
 10
71.9298
 20
7.1089
 30
0.0
 10
72.044
 20
6.862
 30
0.0
 10
72.044
 20
6.5495
 30
0.0
 10
72.044
 20
6.5495
 30
0.0
 10
72.044
 20
6.2928
 30
0.0
 10
71.9725
 20
6.0834
 30
0.0
 10
71.8287
 20
5.9212
 30
0.0
 10
71.8287
 20
5.9212
 30
0.0
 10
71.6849
 20
5.759
 30
0.0
 10
71.4945
 20
5.6665
 30
0.0
 10
71.2575
 20
5.6435
 30
0.0
  0
SPLINE
  5
72
330
1F
100
AcDbEntity
  8
DEFAULT_1
 62
   250
100
AcDbSpline
210
0.0
220
0.0
230
1.0
 70
    11
 71
     3
 72
    52
 73
    48
 74
     0
 42
0.0000000001
 43
0.0000000001
 40
0.0
 40
0.0
 40
0.0
 40
0.0
 40
0.0769230769230769
 40
0.0769230769230769
 40
0.0769230769230769
 40
0.0769230769230769
 40
0.1538461538461539
 40
0.1538461538461539
 40
0.1538461538461539
 40
0.1538461538461539
 40
0.2307692307692308
 40
0.2307692307692308
 40
0.2307692307692308
 40
0.2307692307692308
 40
0.3076923076923077
 40
0.3076923076923077
 40
0.3076923076923077
 40
0.3076923076923077
 40
0.3846153846153846
 40
0.3846153846153846
 40
0.3846153846153846
 40
0.3846153846153846
 40
0.4615384615384616
 40
0.4615384615384616
 40
0.4615384615384616
 40
0.4615384615384616
 40
0.5384615384615384
 40
0.5384615384615384
 40
0.5384615384615384
 40
0.5384615384615384
 40
0.6153846153846154
 40
0.6153846153846154
 40
0.6153846153846154
 40
0.6153846153846154
 40
0.6923076923076923
 40
0.6923076923076923
 40
0.6923076923076923
 40
0.6923076923076923
 40
0.7692307692307693
 40
0.7692307692307693
 40
0.7692307692307693
 40
0.7692307692307693
 40
0.8461538461538461
 40
0.8461538461538461
 40
0.8461538461538461
 40
0.8461538461538461
 40
1.0
 40
1.0
 40
1.0
 40
1.0
 10
70.6056
 20
7.8344
 30
0.0
 10
70.272
 20
7.8344
 30
0.0
 10
70.0035
 20
7.8685
 30
0.0
 10
69.8007
 20
7.9375
 30
0.0
 10
69.8007
 20
7.9375
 30
0.0
 10
69.5971
 20
8.0057
 30
0.0
 10
69.4402
 20
8.1082
 30
0.0
 10
69.3299
 20
8.2434
 30
0.0
 10
69.3299
 20
8.2434
 30
0.0
 10
69.2196
 20
8.3786
 30
0.0
 10
69.1645
 20
8.5487
 30
0.0
 10
69.1645
 20
8.7535
 30
0.0
 10
69.1645
 20
8.7535
 30
0.0
 10
69.1645
 20
8.9052
 30
0.0
 10
69.1953
 20
9.0378
 30
0.0
 10
69.2564
 20
9.152
 30
0.0
 10
69.2564
 20
9.152
 30
0.0
 10
69.3168
 20
9.2663
 30
0.0
 10
69.4048
 20
9.3602
 30
0.0
 10
69.5197
 20
9.435
 30
0.0
 10
69.5197
 20
9.435
 30
0.0
 10
69.6345
 20
9.5092
 30
0.0
 10
69.7744
 20
9.5676
 30
0.0
 10
69.9392
 20
9.6096
 30
0.0
 10
69.9392
 20
9.6096
 30
0.0
 10
70.104
 20
9.6523
 30
0.0
 10
70.3259
 20
9.6733
 30
0.0
 10
70.6056
 20
9.6733
 30
0.0
 10
70.6056
 20
9.6733
 30
0.0
 10
70.9365
 20
9.6733
 30
0.0
 10
71.203
 20
9.6392
 30
0.0
 10
71.4065
 20
9.5716
 30
0.0
 10
71.4065
 20
9.5716
 30
0.0
 10
71.6101
 20
9.5033
 30
0.0
 10
71.767
 20
9.4015
 30
0.0
 10
71.8779
 20
9.2663
 30
0.0
 10
71.8779
 20
9.2663
 30
0.0
 10
71.9889
 20
9.131
 30
0.0
 10
72.044
 20
8.9603
 30
0.0
 10
72.044
 20
8.7535
 30
0.0
 10
72.044
 20
8.7535
 30
0.0
 10
72.044
 20
8.4817
 30
0.0
 10
71.9469
 20
8.2683
 30
0.0
 10
71.7519
 20
8.1134
 30
0.0
 10
71.7519
 20
8.1134
 30
0.0
 10
71.5175
 20
7.9276
 30
0.0
 10
71.1347
 20
7.8344
 30
0.0
 10
70.6056
 20
7.8344
 30
0.0
  0
SPLINE
  5
73
330
1F
100
AcDbEntity
  8
DEFAULT_1
 62
   250
100
AcDbSpline
210
0.0
220
0.0
230
1.0
 70
    11
 71
     3
 72
    36
 73
    32
 74
     0
 42
0.0000000001
 43
0.0000000001
 40
0.0
 40
0.0
 40
0.0
 40
0.0
 40
0.1111111111111111
 40
0.1111111111111111
 40
0.1111111111111111
 40
0.1111111111111111
 40
0.2222222222222222
 40
0.2222222222222222
 40
0.2222222222222222
 40
0.2222222222222222
 40
0.3333333333333333
 40
0.3333333333333333
 40
0.3333333333333333
 40
0.3333333333333333
 40
0.4444444444444444
 40
0.4444444444444444
 40
0.4444444444444444
 40
0.4444444444444444
 40
0.5555555555555556
 40
0.5555555555555556
 40
0.5555555555555556
 40
0.5555555555555556
 40
0.6666666666666666
 40
0.6666666666666666
 40
0.6666666666666666
 40
0.6666666666666666
 40
0.7777777777777778
 40
0.7777777777777778
 40
0.7777777777777778
 40
0.7777777777777778
 40
1.0
 40
1.0
 40
1.0
 40
1.0
 10
70.6056
 20
8.1902
 30
0.0
 10
71.0684
 20
8.1902
 30
0.0
 10
71.3763
 20
8.2447
 30
0.0
 10
71.53
 20
8.353
 30
0.0
 10
71.53
 20
8.353
 30
0.0
 10
71.6829
 20
8.4614
 30
0.0
 10
71.7597
 20
8.5946
 30
0.0
 10
71.7597
 20
8.7535
 30
0.0
 10
71.7597
 20
8.7535
 30
0.0
 10
71.7597
 20
8.9131
 30
0.0
 10
71.6823
 20
9.0463
 30
0.0
 10
71.5286
 20
9.1547
 30
0.0
 10
71.5286
 20
9.1547
 30
0.0
 10
71.375
 20
9.263
 30
0.0
 10
71.0671
 20
9.3175
 30
0.0
 10
70.6056
 20
9.3175
 30
0.0
 10
70.6056
 20
9.3175
 30
0.0
 10
70.1414
 20
9.3175
 30
0.0
 10
69.8328
 20
9.263
 30
0.0
 10
69.6805
 20
9.1547
 30
0.0
 10
69.6805
 20
9.1547
 30
0.0
 10
69.5275
 20
9.0463
 30
0.0
 10
69.4514
 20
8.9117
 30
0.0
 10
69.4514
 20
8.7502
 30
0.0
 10
69.4514
 20
8.7502
 30
0.0
 10
69.4514
 20
8.5907
 30
0.0
 10
69.519
 20
8.464
 30
0.0
 10
69.6536
 20
8.3688
 30
0.0
 10
69.6536
 20
8.3688
 30
0.0
 10
69.8249
 20
8.25
 30
0.0
 10
70.1427
 20
8.1902
 30
0.0
 10
70.6056
 20
8.1902
 30
0.0
  0
SPLINE
  5
74
330
1F
100
AcDbEntity
  8
DEFAULT_1
 62
   250
100
AcDbSpline
210
0.0
220
0.0
230
1.0
 70
    11
 71
     3
 72
    20
 73
    16
 74
     0
 42
0.0000000001
 43
0.0000000001
 40
0.0
 40
0.0
 40
0.0
 40
0.0
 40
0.2
 40
0.2
 40
0.2
 40
0.2
 40
0.4
 40
0.4
 40
0.4
 40
0.4
 40
0.6
 40
0.6
 40
0.6
 40
0.6
 40
1.0
 40
1.0
 40
1.0
 40
1.0
 10
72.8742
 20
16.5081
 30
0.0
 10
72.8742
 20
16.5081
 30
0.0
 10
73.4472
 20
20.432
 30
0.0
 10
73.4472
 20
20.432
 30
0.0
 10
73.4472
 20
20.432
 30
0.0
 10
73.4472
 20
20.432
 30
0.0
 10
72.1824
 20
20.432
 30
0.0
 10
72.1824
 20
20.432
 30
0.0
 10
72.1824
 20
20.432
 30
0.0
 10
72.1824
 20
20.432
 30
0.0
 10
72.8725
 20
16.5081
 30
0.0
 10
72.8725
 20
16.5081
 30
0.0
 10
72.8725
 20
16.5081
 30
0.0
 10
72.8725
 20
16.5081
 30
0.0
 10
72.8742
 20
16.5081
 30
0.0
 10
72.8742
 20
16.5081
 30
0.0
  0
SPLINE
  5
75
330
1F
100
AcDbEntity
  8
DEFAULT_1
 62
   250
100
AcDbSpline
210
0.0
220
0.0
230
1.0
 70
    11
 71
     3
 72
    20
 73
    16
 74
     0
 42
0.0000000001
 43
0.0000000001
 40
0.0
 40
0.0
 40
0.0
 40
0.0
 40
0.2
 40
0.2
 40
0.2
 40
0.2
 40
0.4
 40
0.4
 40
0.4
 40
0.4
 40
0.6
 40
0.6
 40
0.6
 40
0.6
 40
1.0
 40
1.0
 40
1.0
 40
1.0
 10
72.8415
 20
-3.7595
 30
0.0
 10
72.8415
 20
-3.7595
 30
0.0
 10
72.2685
 20
-7.6835
 30
0.0
 10
72.2685
 20
-7.6835
 30
0.0
 10
72.2685
 20
-7.6835
 30
0.0
 10
72.2685
 20
-7.6835
 30
0.0
 10
73.5333
 20
-7.6835
 30
0.0
 10
73.5333
 20
-7.6835
 30
0.0
 10
73.5333
 20
-7.6835
 30
0.0
 10
73.5333
 20
-7.6835
 30
0.0
 10
72.8432
 20
-3.7595
 30
0.0
 10
72.8432
 20
-3.7595
 30
0.0
 10
72.8432
 20
-3.7595
 30
0.0
 10
72.8432
 20
-3.7595
 30
0.0
 10
72.8415
 20
-3.7595
 30
0.0
 10
72.8415
 20
-3.7595
 30
0.0
  0
SPLINE
  5
76
330
1F
100
AcDbEntity
  8
DEFAULT_1
 62
   250
100
AcDbSpline
210
0.0
220
0.0
230
1.0
 70
    24
 71
     3
 72
     8
 73
     4
 74
     0
 42
0.0000000001
 43
0.0000000001
 40
0.0
 40
0.0
 40
0.0
 40
0.0
 40
1.0
 40
1.0
 40
1.0
 40
1.0
 10
72.8752
 20
22.1961
 30
0.0
 10
72.8752
 20
22.1961
 30
0.0
 10
72.8752
 20
-9.7636
 30
0.0
 10
72.8752
 20
-9.7636
 30
0.0
  0
SPLINE
  5
77
330
1F
100
AcDbEntity
  8
DEFAULT_1
 62
   250
100
AcDbSpline
210
0.0
220
0.0
230
1.0
 70
    24
 71
     3
 72
     8
 73
     4
 74
     0
 42
0.0000000001
 43
0.0000000001
 40
0.0
 40
0.0
 40
0.0
 40
0.0
 40
1.0
 40
1.0
 40
1.0
 40
1.0
 10
44.271
 20
-1.7979
 30
0.0
 10
44.271
 20
-1.7979
 30
0.0
 10
24.8822
 20
-1.7979
 30
0.0
 10
24.8822
 20
-1.7979
 30
0.0
  0
SPLINE
  5
78
330
1F
100
AcDbEntity
  8
DEFAULT_1
 62
   250
100
AcDbSpline
210
0.0
220
0.0
230
1.0
 70
    24
 71
     3
 72
     8
 73
     4
 74
     0
 42
0.0000000001
 43
0.0000000001
 40
0.0
 40
0.0
 40
0.0
 40
0.0
 40
1.0
 40
1.0
 40
1.0
 40
1.0
 10
64.4676
 20
-3.8178
 30
0.0
 10
64.4676
 20
-3.8178
 30
0.0
 10
64.4676
 20
16.379
 30
0.0
 10
64.4676
 20
16.379
 30
0.0
  0
SPLINE
  5
79
330
1F
100
AcDbEntity
  8
DEFAULT_1
 62
   250
100
AcDbSpline
210
0.0
220
0.0
230
1.0
 70
    24
 71
     3
 72
     8
 73
     4
 74
     0
 42
0.0000000001
 43
0.0000000001
 40
0.0
 40
0.0
 40
0.0
 40
0.0
 40
1.0
 40
1.0
 40
1.0
 40
1.0
 10
44.271
 20
-3.8178
 30
0.0
 10
44.271
 20
-3.8178
 30
0.0
 10
44.271
 20
16.379
 30
0.0
 10
44.271
 20
16.379
 30
0.0
  0
SPLINE
  5
7A
330
1F
100
AcDbEntity
  8
DEFAULT_1
 62
   250
100
AcDbSpline
210
0.0
220
0.0
230
1.0
 70
    24
 71
     3
 72
     8
 73
     4
 74
     0
 42
0.0000000001
 43
0.0000000001
 40
0.0
 40
0.0
 40
0.0
 40
0.0
 40
1.0
 40
1.0
 40
1.0
 40
1.0
 10
64.4676
 20
16.379
 30
0.0
 10
64.4676
 20
16.379
 30
0.0
 10
44.271
 20
16.379
 30
0.0
 10
44.271
 20
16.379
 30
0.0
  0
SPLINE
  5
7B
330
1F
100
AcDbEntity
  8
DEFAULT_1
 62
   250
100
AcDbSpline
210
0.0
220
0.0
230
1.0
 70
    24
 71
     3
 72
     8
 73
     4
 74
     0
 42
0.0000000001
 43
0.0000000001
 40
0.0
 40
0.0
 40
0.0
 40
0.0
 40
1.0
 40
1.0
 40
1.0
 40
1.0
 10
64.4676
 20
-3.8178
 30
0.0
 10
64.4676
 20
-3.8178
 30
0.0
 10
44.271
 20
-3.8178
 30
0.0
 10
44.271
 20
-3.8178
 30
0.0
  0
SPLINE
  5
7C
330
1F
100
AcDbEntity
  8
DEFAULT_1
 62
   250
100
AcDbSpline
210
0.0
220
0.0
230
1.0
 70
     8
 71
     3
 72
    12
 73
     8
 74
     0
 42
0.0000000001
 43
0.0000000001
 40
0.0
 40
0.0
 40
0.0
 40
0.0
 40
0.3333333333333333
 40
0.3333333333333333
 40
0.3333333333333333
 40
0.3333333333333333
 40
1.0
 40
1.0
 40
1.0
 40
1.0
 10
24.8822
 20
14.4605
 30
0.0
 10
24.8822
 20
14.6834
 30
0.0
 10
24.7011
 20
14.8641
 30
0.0
 10
24.4784
 20
14.8641
 30
0.0
 10
24.4784
 20
14.8641
 30
0.0
 10
24.255
 20
14.8641
 30
0.0
 10
24.0743
 20
14.6834
 30
0.0
 10
24.0743
 20
14.4605
 30
0.0
  0
SPLINE
  5
7D
330
1F
100
AcDbEntity
  8
DEFAULT_1
 62
   250
100
AcDbSpline
210
0.0
220
0.0
230
1.0
 70
     8
 71
     3
 72
     8
 73
     4
 74
     0
 42
0.0000000001
 43
0.0000000001
 40
0.0
 40
0.0
 40
0.0
 40
0.0
 40
1.0
 40
1.0
 40
1.0
 40
1.0
 10
21.0446
 20
13.5515
 30
0.0
 10
20.933
 20
13.5515
 30
0.0
 10
20.8427
 20
13.4611
 30
0.0
 10
20.8427
 20
13.3496
 30
0.0
  0
SPLINE
  5
7E
330
1F
100
AcDbEntity
  8
DEFAULT_1
 62
   250
100
AcDbSpline
210
0.0
220
0.0
230
1.0
 70
     8
 71
     3
 72
     8
 73
     4
 74
     0
 42
0.0000000001
 43
0.0000000001
 40
0.0
 40
0.0
 40
0.0
 40
0.0
 40
1.0
 40
1.0
 40
1.0
 40
1.0
 10
20.8427
 20
-0.7884
 30
0.0
 10
20.8427
 20
-0.8998
 30
0.0
 10
20.933
 20
-0.9901
 30
0.0
 10
21.0446
 20
-0.9901
 30
0.0
  0
SPLINE
  5
7F
330
1F
100
AcDbEntity
  8
DEFAULT_1
 62
   250
100
AcDbSpline
210
0.0
220
0.0
230
1.0
 70
     8
 71
     3
 72
    12
 73
     8
 74
     0
 42
0.0000000001
 43
0.0000000001
 40
0.0
 40
0.0
 40
0.0
 40
0.0
 40
0.3333333333333333
 40
0.3333333333333333
 40
0.3333333333333333
 40
0.3333333333333333
 40
1.0
 40
1.0
 40
1.0
 40
1.0
 10
24.0743
 20
-1.8992
 30
0.0
 10
24.0743
 20
-2.1222
 30
0.0
 10
24.255
 20
-2.3035
 30
0.0
 10
24.4784
 20
-2.3035
 30
0.0
 10
24.4784
 20
-2.3035
 30
0.0
 10
24.7011
 20
-2.3035
 30
0.0
 10
24.8822
 20
-2.1222
 30
0.0
 10
24.8822
 20
-1.8992
 30
0.0
  0
SPLINE
  5
80
330
1F
100
AcDbEntity
  8
DEFAULT_1
 62
   250
100
AcDbSpline
210
0.0
220
0.0
230
1.0
 70
    24
 71
     3
 72
     8
 73
     4
 74
     0
 42
0.0000000001
 43
0.0000000001
 40
0.0
 40
0.0
 40
0.0
 40
0.0
 40
1.0
 40
1.0
 40
1.0
 40
1.0
 10
24.8822
 20
14.4605
 30
0.0
 10
24.8822
 20
14.4605
 30
0.0
 10
24.8822
 20
-1.8992
 30
0.0
 10
24.8822
 20
-1.8992
 30
0.0
  0
SPLINE
  5
81
330
1F
100
AcDbEntity
  8
DEFAULT_1
 62
   250
100
AcDbSpline
210
0.0
220
0.0
230
1.0
 70
    24
 71
     3
 72
     8
 73
     4
 74
     0
 42
0.0000000001
 43
0.0000000001
 40
0.0
 40
0.0
 40
0.0
 40
0.0
 40
1.0
 40
1.0
 40
1.0
 40
1.0
 10
24.0743
 20
14.4605
 30
0.0
 10
24.0743
 20
14.4605
 30
0.0
 10
24.0743
 20
-1.8992
 30
0.0
 10
24.0743
 20
-1.8992
 30
0.0
  0
SPLINE
  5
82
330
1F
100
AcDbEntity
  8
DEFAULT_1
 62
   250
100
AcDbSpline
210
0.0
220
0.0
230
1.0
 70
    24
 71
     3
 72
     8
 73
     4
 74
     0
 42
0.0000000001
 43
0.0000000001
 40
0.0
 40
0.0
 40
0.0
 40
0.0
 40
1.0
 40
1.0
 40
1.0
 40
1.0
 10
20.8427
 20
13.3492
 30
0.0
 10
20.8427
 20
13.3492
 30
0.0
 10
20.8427
 20
-0.7884
 30
0.0
 10
20.8427
 20
-0.7884
 30
0.0
  0
SPLINE
  5
83
330
1F
100
AcDbEntity
  8
DEFAULT_1
 62
   250
100
AcDbSpline
210
0.0
220
0.0
230
1.0
 70
    24
 71
     3
 72
     8
 73
     4
 74
     0
 42
0.0000000001
 43
0.0000000001
 40
0.0
 40
0.0
 40
0.0
 40
0.0
 40
1.0
 40
1.0
 40
1.0
 40
1.0
 10
44.271
 20
14.3592
 30
0.0
 10
44.271
 20
14.3592
 30
0.0
 10
24.8822
 20
14.3592
 30
0.0
 10
24.8822
 20
14.3592
 30
0.0
  0
SPLINE
  5
84
330
1F
100
AcDbEntity
  8
DEFAULT_1
 62
   250
100
AcDbSpline
210
0.0
220
0.0
230
1.0
 70
    24
 71
     3
 72
     8
 73
     4
 74
     0
 42
0.0000000001
 43
0.0000000001
 40
0.0
 40
0.0
 40
0.0
 40
0.0
 40
1.0
 40
1.0
 40
1.0
 40
1.0
 10
24.0743
 20
13.5515
 30
0.0
 10
24.0743
 20
13.5515
 30
0.0
 10
21.0446
 20
13.5515
 30
0.0
 10
21.0446
 20
13.5515
 30
0.0
  0
SPLINE
  5
85
330
1F
100
AcDbEntity
  8
DEFAULT_1
 62
   250
100
AcDbSpline
210
0.0
220
0.0
230
1.0
 70
    24
 71
     3
 72
     8
 73
     4
 74
     0
 42
0.0000000001
 43
0.0000000001
 40
0.0
 40
0.0
 40
0.0
 40
0.0
 40
1.0
 40
1.0
 40
1.0
 40
1.0
 10
24.0743
 20
-0.9901
 30
0.0
 10
24.0743
 20
-0.9901
 30
0.0
 10
21.0446
 20
-0.9901
 30
0.0
 10
21.0446
 20
-0.9901
 30
0.0
  0
SPLINE
  5
86
330
1F
100
AcDbEntity
  8
DEFAULT_1
 62
   250
100
AcDbSpline
210
0.0
220
0.0
230
1.0
 70
    24
 71
     3
 72
     8
 73
     4
 74
     0
 42
0.0000000001
 43
0.0000000001
 40
0.0
 40
0.0
 40
0.0
 40
0.0
 40
1.0
 40
1.0
 40
1.0
 40
1.0
 10
-36.5876
 20
-1.3186
 30
0.0
 10
-36.5876
 20
-1.3186
 30
0.0
 10
-36.5876
 20
14.4349
 30
0.0
 10
-36.5876
 20
14.4349
 30
0.0
  0
SPLINE
  5
87
330
1F
100
AcDbEntity
  8
DEFAULT_1
 62
   250
100
AcDbSpline
210
0.0
220
0.0
230
1.0
 70
     8
 71
     3
 72
    28
 73
    24
 74
     0
 42
0.0000000001
 43
0.0000000001
 40
0.0
 40
0.0
 40
0.0
 40
0.0
 40
0.1428571428571428
 40
0.1428571428571428
 40
0.1428571428571428
 40
0.1428571428571428
 40
0.2857142857142857
 40
0.2857142857142857
 40
0.2857142857142857
 40
0.2857142857142857
 40
0.4285714285714285
 40
0.4285714285714285
 40
0.4285714285714285
 40
0.4285714285714285
 40
0.5714285714285714
 40
0.5714285714285714
 40
0.5714285714285714
 40
0.5714285714285714
 40
0.7142857142857143
 40
0.7142857142857143
 40
0.7142857142857143
 40
0.7142857142857143
 40
1.0
 40
1.0
 40
1.0
 40
1.0
 10
-58.1174
 20
-4.2303
 30
0.0
 10
-58.1174
 20
-4.2303
 30
0.0
 10
-58.0138
 20
-4.2311
 30
0.0
 10
-58.0138
 20
-4.2311
 30
0.0
 10
-58.0138
 20
-4.2311
 30
0.0
 10
-58.0138
 20
-4.2311
 30
0.0
 10
-57.915
 20
-4.2332
 30
0.0
 10
-57.915
 20
-4.2332
 30
0.0
 10
-57.915
 20
-4.2332
 30
0.0
 10
-57.915
 20
-4.2332
 30
0.0
 10
-57.8318
 20
-4.2359
 30
0.0
 10
-57.8318
 20
-4.2359
 30
0.0
 10
-57.8318
 20
-4.2359
 30
0.0
 10
-57.8318
 20
-4.2359
 30
0.0
 10
-57.7676
 20
-4.2395
 30
0.0
 10
-57.7676
 20
-4.2395
 30
0.0
 10
-57.7676
 20
-4.2395
 30
0.0
 10
-57.7676
 20
-4.2395
 30
0.0
 10
-57.7267
 20
-4.2429
 30
0.0
 10
-57.7267
 20
-4.2429
 30
0.0
 10
-57.7267
 20
-4.2429
 30
0.0
 10
-57.7267
 20
-4.2429
 30
0.0
 10
-57.7133
 20
-4.2456
 30
0.0
 10
-57.7133
 20
-4.2456
 30
0.0
  0
SPLINE
  5
88
330
1F
100
AcDbEntity
  8
DEFAULT_1
 62
   250
100
AcDbSpline
210
0.0
220
0.0
230
1.0
 70
     8
 71
     3
 72
    28
 73
    24
 74
     0
 42
0.0000000001
 43
0.0000000001
 40
0.0
 40
0.0
 40
0.0
 40
0.0
 40
0.1428571428571428
 40
0.1428571428571428
 40
0.1428571428571428
 40
0.1428571428571428
 40
0.2857142857142857
 40
0.2857142857142857
 40
0.2857142857142857
 40
0.2857142857142857
 40
0.4285714285714285
 40
0.4285714285714285
 40
0.4285714285714285
 40
0.4285714285714285
 40
0.5714285714285714
 40
0.5714285714285714
 40
0.5714285714285714
 40
0.5714285714285714
 40
0.7142857142857143
 40
0.7142857142857143
 40
0.7142857142857143
 40
0.7142857142857143
 40
1.0
 40
1.0
 40
1.0
 40
1.0
 10
-63.9744
 20
-4.2456
 30
0.0
 10
-63.9744
 20
-4.2456
 30
0.0
 10
-63.9608
 20
-4.2429
 30
0.0
 10
-63.9608
 20
-4.2429
 30
0.0
 10
-63.9608
 20
-4.2429
 30
0.0
 10
-63.9608
 20
-4.2429
 30
0.0
 10
-63.9201
 20
-4.2395
 30
0.0
 10
-63.9201
 20
-4.2395
 30
0.0
 10
-63.9201
 20
-4.2395
 30
0.0
 10
-63.9201
 20
-4.2395
 30
0.0
 10
-63.8563
 20
-4.2359
 30
0.0
 10
-63.8563
 20
-4.2359
 30
0.0
 10
-63.8563
 20
-4.2359
 30
0.0
 10
-63.8563
 20
-4.2359
 30
0.0
 10
-63.7731
 20
-4.2332
 30
0.0
 10
-63.7731
 20
-4.2332
 30
0.0
 10
-63.7731
 20
-4.2332
 30
0.0
 10
-63.7731
 20
-4.2332
 30
0.0
 10
-63.6745
 20
-4.2311
 30
0.0
 10
-63.6745
 20
-4.2311
 30
0.0
 10
-63.6745
 20
-4.2311
 30
0.0
 10
-63.6745
 20
-4.2311
 30
0.0
 10
-63.5703
 20
-4.2303
 30
0.0
 10
-63.5703
 20
-4.2303
 30
0.0
  0
SPLINE
  5
89
330
1F
100
AcDbEntity
  8
DEFAULT_1
 62
   250
100
AcDbSpline
210
0.0
220
0.0
230
1.0
 70
     8
 71
     3
 72
    28
 73
    24
 74
     0
 42
0.0000000001
 43
0.0000000001
 40
0.0
 40
0.0
 40
0.0
 40
0.0
 40
0.1428571428571428
 40
0.1428571428571428
 40
0.1428571428571428
 40
0.1428571428571428
 40
0.2857142857142857
 40
0.2857142857142857
 40
0.2857142857142857
 40
0.2857142857142857
 40
0.4285714285714285
 40
0.4285714285714285
 40
0.4285714285714285
 40
0.4285714285714285
 40
0.5714285714285714
 40
0.5714285714285714
 40
0.5714285714285714
 40
0.5714285714285714
 40
0.7142857142857143
 40
0.7142857142857143
 40
0.7142857142857143
 40
0.7142857142857143
 40
1.0
 40
1.0
 40
1.0
 40
1.0
 10
-57.7133
 20
17.3613
 30
0.0
 10
-57.7133
 20
17.3613
 30
0.0
 10
-57.7267
 20
17.3592
 30
0.0
 10
-57.7267
 20
17.3592
 30
0.0
 10
-57.7267
 20
17.3592
 30
0.0
 10
-57.7267
 20
17.3592
 30
0.0
 10
-57.7676
 20
17.3557
 30
0.0
 10
-57.7676
 20
17.3557
 30
0.0
 10
-57.7676
 20
17.3557
 30
0.0
 10
-57.7676
 20
17.3557
 30
0.0
 10
-57.8318
 20
17.3522
 30
0.0
 10
-57.8318
 20
17.3522
 30
0.0
 10
-57.8318
 20
17.3522
 30
0.0
 10
-57.8318
 20
17.3522
 30
0.0
 10
-57.915
 20
17.3493
 30
0.0
 10
-57.915
 20
17.3493
 30
0.0
 10
-57.915
 20
17.3493
 30
0.0
 10
-57.915
 20
17.3493
 30
0.0
 10
-58.0138
 20
17.3471
 30
0.0
 10
-58.0138
 20
17.3471
 30
0.0
 10
-58.0138
 20
17.3471
 30
0.0
 10
-58.0138
 20
17.3471
 30
0.0
 10
-58.1174
 20
17.3462
 30
0.0
 10
-58.1174
 20
17.3462
 30
0.0
  0
SPLINE
  5
8A
330
1F
100
AcDbEntity
  8
DEFAULT_1
 62
   250
100
AcDbSpline
210
0.0
220
0.0
230
1.0
 70
     8
 71
     3
 72
    28
 73
    24
 74
     0
 42
0.0000000001
 43
0.0000000001
 40
0.0
 40
0.0
 40
0.0
 40
0.0
 40
0.1428571428571428
 40
0.1428571428571428
 40
0.1428571428571428
 40
0.1428571428571428
 40
0.2857142857142857
 40
0.2857142857142857
 40
0.2857142857142857
 40
0.2857142857142857
 40
0.4285714285714285
 40
0.4285714285714285
 40
0.4285714285714285
 40
0.4285714285714285
 40
0.5714285714285714
 40
0.5714285714285714
 40
0.5714285714285714
 40
0.5714285714285714
 40
0.7142857142857143
 40
0.7142857142857143
 40
0.7142857142857143
 40
0.7142857142857143
 40
1.0
 40
1.0
 40
1.0
 40
1.0
 10
-63.5703
 20
17.3462
 30
0.0
 10
-63.5703
 20
17.3462
 30
0.0
 10
-63.6745
 20
17.3471
 30
0.0
 10
-63.6745
 20
17.3471
 30
0.0
 10
-63.6745
 20
17.3471
 30
0.0
 10
-63.6745
 20
17.3471
 30
0.0
 10
-63.7731
 20
17.3493
 30
0.0
 10
-63.7731
 20
17.3493
 30
0.0
 10
-63.7731
 20
17.3493
 30
0.0
 10
-63.7731
 20
17.3493
 30
0.0
 10
-63.8563
 20
17.3522
 30
0.0
 10
-63.8563
 20
17.3522
 30
0.0
 10
-63.8563
 20
17.3522
 30
0.0
 10
-63.8563
 20
17.3522
 30
0.0
 10
-63.9201
 20
17.3557
 30
0.0
 10
-63.9201
 20
17.3557
 30
0.0
 10
-63.9201
 20
17.3557
 30
0.0
 10
-63.9201
 20
17.3557
 30
0.0
 10
-63.9608
 20
17.3592
 30
0.0
 10
-63.9608
 20
17.3592
 30
0.0
 10
-63.9608
 20
17.3592
 30
0.0
 10
-63.9608
 20
17.3592
 30
0.0
 10
-63.9744
 20
17.3613
 30
0.0
 10
-63.9744
 20
17.3613
 30
0.0
  0
SPLINE
  5
8B
330
1F
100
AcDbEntity
  8
DEFAULT_1
 62
   250
100
AcDbSpline
210
0.0
220
0.0
230
1.0
 70
     8
 71
     3
 72
     8
 73
     4
 74
     0
 42
0.0000000001
 43
0.0000000001
 40
0.0
 40
0.0
 40
0.0
 40
0.0
 40
1.0
 40
1.0
 40
1.0
 40
1.0
 10
-57.7133
 20
20.2919
 30
0.0
 10
-57.7133
 20
20.5145
 30
0.0
 10
-57.8947
 20
20.6958
 30
0.0
 10
-58.1174
 20
20.6958
 30
0.0
  0
SPLINE
  5
8C
330
1F
100
AcDbEntity
  8
DEFAULT_1
 62
   250
100
AcDbSpline
210
0.0
220
0.0
230
1.0
 70
     8
 71
     3
 72
     8
 73
     4
 74
     0
 42
0.0000000001
 43
0.0000000001
 40
0.0
 40
0.0
 40
0.0
 40
0.0
 40
1.0
 40
1.0
 40
1.0
 40
1.0
 10
-63.5703
 20
20.6958
 30
0.0
 10
-63.7937
 20
20.6958
 30
0.0
 10
-63.9744
 20
20.5145
 30
0.0
 10
-63.9744
 20
20.2919
 30
0.0
  0
SPLINE
  5
8D
330
1F
100
AcDbEntity
  8
DEFAULT_1
 62
   250
100
AcDbSpline
210
0.0
220
0.0
230
1.0
 70
     8
 71
     3
 72
     8
 73
     4
 74
     0
 42
0.0000000001
 43
0.0000000001
 40
0.0
 40
0.0
 40
0.0
 40
0.0
 40
1.0
 40
1.0
 40
1.0
 40
1.0
 10
-56.7035
 20
16.3535
 30
0.0
 10
-56.7035
 20
16.9113
 30
0.0
 10
-57.1559
 20
17.3635
 30
0.0
 10
-57.7133
 20
17.3635
 30
0.0
  0
SPLINE
  5
8E
330
1F
100
AcDbEntity
  8
DEFAULT_1
 62
   250
100
AcDbSpline
210
0.0
220
0.0
230
1.0
 70
     8
 71
     3
 72
     8
 73
     4
 74
     0
 42
0.0000000001
 43
0.0000000001
 40
0.0
 40
0.0
 40
0.0
 40
0.0
 40
1.0
 40
1.0
 40
1.0
 40
1.0
 10
-57.7133
 20
-4.2472
 30
0.0
 10
-57.1559
 20
-4.2472
 30
0.0
 10
-56.7035
 20
-3.7952
 30
0.0
 10
-56.7035
 20
-3.2372
 30
0.0
  0
SPLINE
  5
8F
330
1F
100
AcDbEntity
  8
DEFAULT_1
 62
   250
100
AcDbSpline
210
0.0
220
0.0
230
1.0
 70
     8
 71
     3
 72
     8
 73
     4
 74
     0
 42
0.0000000001
 43
0.0000000001
 40
0.0
 40
0.0
 40
0.0
 40
0.0
 40
1.0
 40
1.0
 40
1.0
 40
1.0
 10
-63.9744
 20
-7.1756
 30
0.0
 10
-63.9744
 20
-7.3992
 30
0.0
 10
-63.7937
 20
-7.5795
 30
0.0
 10
-63.5703
 20
-7.5795
 30
0.0
  0
SPLINE
  5
90
330
1F
100
AcDbEntity
  8
DEFAULT_1
 62
   250
100
AcDbSpline
210
0.0
220
0.0
230
1.0
 70
     8
 71
     3
 72
     8
 73
     4
 74
     0
 42
0.0000000001
 43
0.0000000001
 40
0.0
 40
0.0
 40
0.0
 40
0.0
 40
1.0
 40
1.0
 40
1.0
 40
1.0
 10
-58.1174
 20
-7.5795
 30
0.0
 10
-57.8947
 20
-7.5795
 30
0.0
 10
-57.7133
 20
-7.3992
 30
0.0
 10
-57.7133
 20
-7.1756
 30
0.0
  0
SPLINE
  5
91
330
1F
100
AcDbEntity
  8
DEFAULT_1
 62
   250
100
AcDbSpline
210
0.0
220
0.0
230
1.0
 70
    24
 71
     3
 72
     8
 73
     4
 74
     0
 42
0.0000000001
 43
0.0000000001
 40
0.0
 40
0.0
 40
0.0
 40
0.0
 40
1.0
 40
1.0
 40
1.0
 40
1.0
 10
-63.5703
 20
20.6958
 30
0.0
 10
-63.5703
 20
20.6958
 30
0.0
 10
-58.1174
 20
20.6958
 30
0.0
 10
-58.1174
 20
20.6958
 30
0.0
  0
SPLINE
  5
92
330
1F
100
AcDbEntity
  8
DEFAULT_1
 62
   250
100
AcDbSpline
210
0.0
220
0.0
230
1.0
 70
    24
 71
     3
 72
     8
 73
     4
 74
     0
 42
0.0000000001
 43
0.0000000001
 40
0.0
 40
0.0
 40
0.0
 40
0.0
 40
1.0
 40
1.0
 40
1.0
 40
1.0
 10
-63.5703
 20
17.3462
 30
0.0
 10
-63.5703
 20
17.3462
 30
0.0
 10
-58.1174
 20
17.3462
 30
0.0
 10
-58.1174
 20
17.3462
 30
0.0
  0
SPLINE
  5
93
330
1F
100
AcDbEntity
  8
DEFAULT_1
 62
   250
100
AcDbSpline
210
0.0
220
0.0
230
1.0
 70
    24
 71
     3
 72
     8
 73
     4
 74
     0
 42
0.0000000001
 43
0.0000000001
 40
0.0
 40
0.0
 40
0.0
 40
0.0
 40
1.0
 40
1.0
 40
1.0
 40
1.0
 10
-63.5703
 20
-4.2303
 30
0.0
 10
-63.5703
 20
-4.2303
 30
0.0
 10
-58.1174
 20
-4.2303
 30
0.0
 10
-58.1174
 20
-4.2303
 30
0.0
  0
SPLINE
  5
94
330
1F
100
AcDbEntity
  8
DEFAULT_1
 62
   250
100
AcDbSpline
210
0.0
220
0.0
230
1.0
 70
    24
 71
     3
 72
     8
 73
     4
 74
     0
 42
0.0000000001
 43
0.0000000001
 40
0.0
 40
0.0
 40
0.0
 40
0.0
 40
1.0
 40
1.0
 40
1.0
 40
1.0
 10
-63.5703
 20
-7.5795
 30
0.0
 10
-63.5703
 20
-7.5795
 30
0.0
 10
-58.1174
 20
-7.5795
 30
0.0
 10
-58.1174
 20
-7.5795
 30
0.0
  0
SPLINE
  5
95
330
1F
100
AcDbEntity
  8
DEFAULT_1
 62
   250
100
AcDbSpline
210
0.0
220
0.0
230
1.0
 70
    24
 71
     3
 72
     8
 73
     4
 74
     0
 42
0.0000000001
 43
0.0000000001
 40
0.0
 40
0.0
 40
0.0
 40
0.0
 40
1.0
 40
1.0
 40
1.0
 40
1.0
 10
-56.7035
 20
16.3535
 30
0.0
 10
-56.7035
 20
16.3535
 30
0.0
 10
-56.7035
 20
-3.2372
 30
0.0
 10
-56.7035
 20
-3.2372
 30
0.0
  0
SPLINE
  5
96
330
1F
100
AcDbEntity
  8
DEFAULT_1
 62
   250
100
AcDbSpline
210
0.0
220
0.0
230
1.0
 70
    24
 71
     3
 72
     8
 73
     4
 74
     0
 42
0.0000000001
 43
0.0000000001
 40
0.0
 40
0.0
 40
0.0
 40
0.0
 40
1.0
 40
1.0
 40
1.0
 40
1.0
 10
-57.7133
 20
-4.2456
 30
0.0
 10
-57.7133
 20
-4.2456
 30
0.0
 10
-57.7133
 20
-7.1756
 30
0.0
 10
-57.7133
 20
-7.1756
 30
0.0
  0
SPLINE
  5
97
330
1F
100
AcDbEntity
  8
DEFAULT_1
 62
   250
100
AcDbSpline
210
0.0
220
0.0
230
1.0
 70
    24
 71
     3
 72
     8
 73
     4
 74
     0
 42
0.0000000001
 43
0.0000000001
 40
0.0
 40
0.0
 40
0.0
 40
0.0
 40
1.0
 40
1.0
 40
1.0
 40
1.0
 10
-57.7133
 20
20.2919
 30
0.0
 10
-57.7133
 20
20.2919
 30
0.0
 10
-57.7133
 20
17.3613
 30
0.0
 10
-57.7133
 20
17.3613
 30
0.0
  0
SPLINE
  5
98
330
1F
100
AcDbEntity
  8
DEFAULT_1
 62
   250
100
AcDbSpline
210
0.0
220
0.0
230
1.0
 70
    24
 71
     3
 72
     8
 73
     4
 74
     0
 42
0.0000000001
 43
0.0000000001
 40
0.0
 40
0.0
 40
0.0
 40
0.0
 40
1.0
 40
1.0
 40
1.0
 40
1.0
 10
-63.9744
 20
-7.1756
 30
0.0
 10
-63.9744
 20
-7.1756
 30
0.0
 10
-63.9744
 20
20.2919
 30
0.0
 10
-63.9744
 20
20.2919
 30
0.0
  0
SPLINE
  5
99
330
1F
100
AcDbEntity
  8
DEFAULT_1
 62
   250
100
AcDbSpline
210
0.0
220
0.0
230
1.0
 70
    24
 71
     3
 72
     8
 73
     4
 74
     0
 42
0.0000000001
 43
0.0000000001
 40
0.0
 40
0.0
 40
0.0
 40
0.0
 40
1.0
 40
1.0
 40
1.0
 40
1.0
 10
-56.7035
 20
14.4349
 30
0.0
 10
-56.7035
 20
14.4349
 30
0.0
 10
-36.5876
 20
14.4349
 30
0.0
 10
-36.5876
 20
14.4349
 30
0.0
  0
SPLINE
  5
9A
330
1F
100
AcDbEntity
  8
DEFAULT_1
 62
   250
100
AcDbSpline
210
0.0
220
0.0
230
1.0
 70
    24
 71
     3
 72
     8
 73
     4
 74
     0
 42
0.0000000001
 43
0.0000000001
 40
0.0
 40
0.0
 40
0.0
 40
0.0
 40
1.0
 40
1.0
 40
1.0
 40
1.0
 10
-36.5876
 20
13.8289
 30
0.0
 10
-36.5876
 20
13.8289
 30
0.0
 10
-34.1641
 20
13.8289
 30
0.0
 10
-34.1641
 20
13.8289
 30
0.0
  0
SPLINE
  5
9B
330
1F
100
AcDbEntity
  8
DEFAULT_1
 62
   250
100
AcDbSpline
210
0.0
220
0.0
230
1.0
 70
    24
 71
     3
 72
     8
 73
     4
 74
     0
 42
0.0000000001
 43
0.0000000001
 40
0.0
 40
0.0
 40
0.0
 40
0.0
 40
1.0
 40
1.0
 40
1.0
 40
1.0
 10
-36.5876
 20
-0.7128
 30
0.0
 10
-36.5876
 20
-0.7128
 30
0.0
 10
-34.1641
 20
-0.7128
 30
0.0
 10
-34.1641
 20
-0.7128
 30
0.0
  0
SPLINE
  5
9C
330
1F
100
AcDbEntity
  8
DEFAULT_1
 62
   250
100
AcDbSpline
210
0.0
220
0.0
230
1.0
 70
    24
 71
     3
 72
     8
 73
     4
 74
     0
 42
0.0000000001
 43
0.0000000001
 40
0.0
 40
0.0
 40
0.0
 40
0.0
 40
1.0
 40
1.0
 40
1.0
 40
1.0
 10
-56.7035
 20
-1.3186
 30
0.0
 10
-56.7035
 20
-1.3186
 30
0.0
 10
-36.5876
 20
-1.3186
 30
0.0
 10
-36.5876
 20
-1.3186
 30
0.0
  0
SPLINE
  5
9D
330
1F
100
AcDbEntity
  8
DEFAULT_1
 62
   250
100
AcDbSpline
210
0.0
220
0.0
230
1.0
 70
    24
 71
     3
 72
     8
 73
     4
 74
     0
 42
0.0000000001
 43
0.0000000001
 40
0.0
 40
0.0
 40
0.0
 40
0.0
 40
1.0
 40
1.0
 40
1.0
 40
1.0
 10
-34.1641
 20
-0.7128
 30
0.0
 10
-34.1641
 20
-0.7128
 30
0.0
 10
-34.1641
 20
13.8289
 30
0.0
 10
-34.1641
 20
13.8289
 30
0.0
  0
SPLINE
  5
9E
330
1F
100
AcDbEntity
  8
DEFAULT_1
 62
   250
100
AcDbSpline
210
0.0
220
0.0
230
1.0
 70
    24
 71
     3
 72
     8
 73
     4
 74
     0
 42
0.0000000001
 43
0.0000000001
 40
0.0
 40
0.0
 40
0.0
 40
0.0
 40
1.0
 40
1.0
 40
1.0
 40
1.0
 10
-31.5578
 20
0.0823
 30
0.0
 10
-31.5578
 20
0.0823
 30
0.0
 10
-31.5578
 20
12.8614
 30
0.0
 10
-31.5578
 20
12.8614
 30
0.0
  0
SPLINE
  5
9F
330
1F
100
AcDbEntity
  8
DEFAULT_1
 62
   250
100
AcDbSpline
210
0.0
220
0.0
230
1.0
 70
    24
 71
     3
 72
     8
 73
     4
 74
     0
 42
0.0000000001
 43
0.0000000001
 40
0.0
 40
0.0
 40
0.0
 40
0.0
 40
1.0
 40
1.0
 40
1.0
 40
1.0
 10
-31.2821
 20
14.4239
 30
0.0
 10
-31.2821
 20
14.4239
 30
0.0
 10
-31.5578
 20
12.8614
 30
0.0
 10
-31.5578
 20
12.8614
 30
0.0
  0
SPLINE
  5
A0
330
1F
100
AcDbEntity
  8
DEFAULT_1
 62
   250
100
AcDbSpline
210
0.0
220
0.0
230
1.0
 70
    24
 71
     3
 72
     8
 73
     4
 74
     0
 42
0.0000000001
 43
0.0000000001
 40
0.0
 40
0.0
 40
0.0
 40
0.0
 40
1.0
 40
1.0
 40
1.0
 40
1.0
 10
-31.2821
 20
-1.4804
 30
0.0
 10
-31.2821
 20
-1.4804
 30
0.0
 10
-31.5578
 20
0.0823
 30
0.0
 10
-31.5578
 20
0.0823
 30
0.0
  0
SPLINE
  5
A1
330
1F
100
AcDbEntity
  8
DEFAULT_1
 62
   250
100
AcDbSpline
210
0.0
220
0.0
230
1.0
 70
    24
 71
     3
 72
     8
 73
     4
 74
     0
 42
0.0000000001
 43
0.0000000001
 40
0.0
 40
0.0
 40
0.0
 40
0.0
 40
1.0
 40
1.0
 40
1.0
 40
1.0
 10
-30.3169
 20
0.0823
 30
0.0
 10
-30.3169
 20
0.0823
 30
0.0
 10
-30.8978
 20
-1.5141
 30
0.0
 10
-30.8978
 20
-1.5141
 30
0.0
  0
SPLINE
  5
A2
330
1F
100
AcDbEntity
  8
DEFAULT_1
 62
   250
100
AcDbSpline
210
0.0
220
0.0
230
1.0
 70
    24
 71
     3
 72
     8
 73
     4
 74
     0
 42
0.0000000001
 43
0.0000000001
 40
0.0
 40
0.0
 40
0.0
 40
0.0
 40
1.0
 40
1.0
 40
1.0
 40
1.0
 10
-30.3169
 20
12.8614
 30
0.0
 10
-30.3169
 20
12.8614
 30
0.0
 10
-30.8978
 20
14.4577
 30
0.0
 10
-30.8978
 20
14.4577
 30
0.0
  0
SPLINE
  5
A3
330
1F
100
AcDbEntity
  8
DEFAULT_1
 62
   250
100
AcDbSpline
210
0.0
220
0.0
230
1.0
 70
    24
 71
     3
 72
     8
 73
     4
 74
     0
 42
0.0000000001
 43
0.0000000001
 40
0.0
 40
0.0
 40
0.0
 40
0.0
 40
1.0
 40
1.0
 40
1.0
 40
1.0
 10
-31.5578
 20
0.0823
 30
0.0
 10
-31.5578
 20
0.0823
 30
0.0
 10
-33.9538
 20
0.0823
 30
0.0
 10
-33.9538
 20
0.0823
 30
0.0
  0
SPLINE
  5
A4
330
1F
100
AcDbEntity
  8
DEFAULT_1
 62
   250
100
AcDbSpline
210
0.0
220
0.0
230
1.0
 70
    24
 71
     3
 72
     8
 73
     4
 74
     0
 42
0.0000000001
 43
0.0000000001
 40
0.0
 40
0.0
 40
0.0
 40
0.0
 40
1.0
 40
1.0
 40
1.0
 40
1.0
 10
-31.5578
 20
12.8614
 30
0.0
 10
-31.5578
 20
12.8614
 30
0.0
 10
-33.9538
 20
12.8614
 30
0.0
 10
-33.9538
 20
12.8614
 30
0.0
  0
SPLINE
  5
A5
330
1F
100
AcDbEntity
  8
DEFAULT_1
 62
   250
100
AcDbSpline
210
0.0
220
0.0
230
1.0
 70
     8
 71
     3
 72
    12
 73
     8
 74
     0
 42
0.0000000001
 43
0.0000000001
 40
0.0
 40
0.0
 40
0.0
 40
0.0
 40
0.3333333333333333
 40
0.3333333333333333
 40
0.3333333333333333
 40
0.3333333333333333
 40
1.0
 40
1.0
 40
1.0
 40
1.0
 10
-31.2821
 20
-1.4804
 30
0.0
 10
-31.2666
 20
-1.5694
 30
0.0
 10
-31.1929
 20
-1.6367
 30
0.0
 10
-31.1029
 20
-1.6445
 30
0.0
 10
-31.1029
 20
-1.6445
 30
0.0
 10
-31.0128
 20
-1.6524
 30
0.0
 10
-30.929
 20
-1.5987
 30
0.0
 10
-30.8978
 20
-1.5141
 30
0.0
  0
SPLINE
  5
A6
330
1F
100
AcDbEntity
  8
DEFAULT_1
 62
   250
100
AcDbSpline
210
0.0
220
0.0
230
1.0
 70
     8
 71
     3
 72
    12
 73
     8
 74
     0
 42
0.0000000001
 43
0.0000000001
 40
0.0
 40
0.0
 40
0.0
 40
0.0
 40
0.3333333333333333
 40
0.3333333333333333
 40
0.3333333333333333
 40
0.3333333333333333
 40
1.0
 40
1.0
 40
1.0
 40
1.0
 10
-30.8978
 20
14.4577
 30
0.0
 10
-30.929
 20
14.5422
 30
0.0
 10
-31.0128
 20
14.5961
 30
0.0
 10
-31.1029
 20
14.5882
 30
0.0
 10
-31.1029
 20
14.5882
 30
0.0
 10
-31.1929
 20
14.5804
 30
0.0
 10
-31.2666
 20
14.5131
 30
0.0
 10
-31.2821
 20
14.4239
 30
0.0
  0
SPLINE
  5
A7
330
1F
100
AcDbEntity
  8
DEFAULT_1
 62
   250
100
AcDbSpline
210
0.0
220
0.0
230
1.0
 70
     8
 71
     3
 72
    40
 73
    36
 74
     0
 42
0.0000000001
 43
0.0000000001
 40
0.0
 40
0.0
 40
0.0
 40
0.0
 40
0.1
 40
0.1
 40
0.1
 40
0.1
 40
0.2
 40
0.2
 40
0.2
 40
0.2
 40
0.3
 40
0.3
 40
0.3
 40
0.3
 40
0.4
 40
0.4
 40
0.4
 40
0.4
 40
0.5
 40
0.5
 40
0.5
 40
0.5
 40
0.6
 40
0.6
 40
0.6
 40
0.6
 40
0.7
 40
0.7
 40
0.7
 40
0.7
 40
0.8
 40
0.8
 40
0.8
 40
0.8
 40
1.0
 40
1.0
 40
1.0
 40
1.0
 10
-30.3169
 20
12.8614
 30
0.0
 10
-30.3169
 20
12.8614
 30
0.0
 10
-30.1158
 20
14.4833
 30
0.0
 10
-30.1158
 20
14.4833
 30
0.0
 10
-30.1158
 20
14.4833
 30
0.0
 10
-30.1158
 20
14.4833
 30
0.0
 10
-29.9822
 20
14.6543
 30
0.0
 10
-29.9822
 20
14.6543
 30
0.0
 10
-29.9822
 20
14.6543
 30
0.0
 10
-29.9822
 20
14.6543
 30
0.0
 10
-29.7642
 20
14.7013
 30
0.0
 10
-29.7642
 20
14.7013
 30
0.0
 10
-29.7642
 20
14.7013
 30
0.0
 10
-29.7642
 20
14.7013
 30
0.0
 10
-29.4684
 20
14.7013
 30
0.0
 10
-29.4684
 20
14.7013
 30
0.0
 10
-29.4684
 20
14.7013
 30
0.0
 10
-29.4684
 20
14.7013
 30
0.0
 10
-29.2661
 20
14.6856
 30
0.0
 10
-29.2661
 20
14.6856
 30
0.0
 10
-29.2661
 20
14.6856
 30
0.0
 10
-29.2661
 20
14.6856
 30
0.0
 10
-29.0793
 20
14.67
 30
0.0
 10
-29.0793
 20
14.67
 30
0.0
 10
-29.0793
 20
14.67
 30
0.0
 10
-29.0793
 20
14.67
 30
0.0
 10
-28.9703
 20
14.4673
 30
0.0
 10
-28.9703
 20
14.4673
 30
0.0
 10
-28.9703
 20
14.4673
 30
0.0
 10
-28.9703
 20
14.4673
 30
0.0
 10
-28.8925
 20
14.2175
 30
0.0
 10
-28.8925
 20
14.2175
 30
0.0
 10
-28.8925
 20
14.2175
 30
0.0
 10
-28.8925
 20
14.2175
 30
0.0
 10
-28.7368
 20
12.8351
 30
0.0
 10
-28.7368
 20
12.8351
 30
0.0
  0
SPLINE
  5
A8
330
1F
100
AcDbEntity
  8
DEFAULT_1
 62
   250
100
AcDbSpline
210
0.0
220
0.0
230
1.0
 70
    24
 71
     3
 72
     8
 73
     4
 74
     0
 42
0.0000000001
 43
0.0000000001
 40
0.0
 40
0.0
 40
0.0
 40
0.0
 40
1.0
 40
1.0
 40
1.0
 40
1.0
 10
-30.3169
 20
0.0823
 30
0.0
 10
-30.3169
 20
0.0823
 30
0.0
 10
-30.3169
 20
12.8614
 30
0.0
 10
-30.3169
 20
12.8614
 30
0.0
  0
SPLINE
  5
A9
330
1F
100
AcDbEntity
  8
DEFAULT_1
 62
   250
100
AcDbSpline
210
0.0
220
0.0
230
1.0
 70
    24
 71
     3
 72
     8
 73
     4
 74
     0
 42
0.0000000001
 43
0.0000000001
 40
0.0
 40
0.0
 40
0.0
 40
0.0
 40
1.0
 40
1.0
 40
1.0
 40
1.0
 10
-28.7194
 20
0.0823
 30
0.0
 10
-28.7194
 20
0.0823
 30
0.0
 10
-28.7194
 20
12.8614
 30
0.0
 10
-28.7194
 20
12.8614
 30
0.0
  0
SPLINE
  5
AA
330
1F
100
AcDbEntity
  8
DEFAULT_1
 62
   250
100
AcDbSpline
210
0.0
220
0.0
230
1.0
 70
    24
 71
     3
 72
     8
 73
     4
 74
     0
 42
0.0000000001
 43
0.0000000001
 40
0.0
 40
0.0
 40
0.0
 40
0.0
 40
1.0
 40
1.0
 40
1.0
 40
1.0
 10
-27.1218
 20
0.0823
 30
0.0
 10
-27.1218
 20
0.0823
 30
0.0
 10
-27.1218
 20
12.8614
 30
0.0
 10
-27.1218
 20
12.8614
 30
0.0
  0
SPLINE
  5
AB
330
1F
100
AcDbEntity
  8
DEFAULT_1
 62
   250
100
AcDbSpline
210
0.0
220
0.0
230
1.0
 70
    24
 71
     3
 72
     8
 73
     4
 74
     0
 42
0.0000000001
 43
0.0000000001
 40
0.0
 40
0.0
 40
0.0
 40
0.0
 40
1.0
 40
1.0
 40
1.0
 40
1.0
 10
-25.5245
 20
0.0823
 30
0.0
 10
-25.5245
 20
0.0823
 30
0.0
 10
-25.5245
 20
12.8614
 30
0.0
 10
-25.5245
 20
12.8614
 30
0.0
  0
SPLINE
  5
AC
330
1F
100
AcDbEntity
  8
DEFAULT_1
 62
   250
100
AcDbSpline
210
0.0
220
0.0
230
1.0
 70
    24
 71
     3
 72
     8
 73
     4
 74
     0
 42
0.0000000001
 43
0.0000000001
 40
0.0
 40
0.0
 40
0.0
 40
0.0
 40
1.0
 40
1.0
 40
1.0
 40
1.0
 10
-23.9271
 20
0.0823
 30
0.0
 10
-23.9271
 20
0.0823
 30
0.0
 10
-23.9271
 20
12.8614
 30
0.0
 10
-23.9271
 20
12.8614
 30
0.0
  0
SPLINE
  5
AD
330
1F
100
AcDbEntity
  8
DEFAULT_1
 62
   250
100
AcDbSpline
210
0.0
220
0.0
230
1.0
 70
    24
 71
     3
 72
     8
 73
     4
 74
     0
 42
0.0000000001
 43
0.0000000001
 40
0.0
 40
0.0
 40
0.0
 40
0.0
 40
1.0
 40
1.0
 40
1.0
 40
1.0
 10
-22.3298
 20
0.0823
 30
0.0
 10
-22.3298
 20
0.0823
 30
0.0
 10
-22.3298
 20
12.8614
 30
0.0
 10
-22.3298
 20
12.8614
 30
0.0
  0
SPLINE
  5
AE
330
1F
100
AcDbEntity
  8
DEFAULT_1
 62
   250
100
AcDbSpline
210
0.0
220
0.0
230
1.0
 70
    24
 71
     3
 72
     8
 73
     4
 74
     0
 42
0.0000000001
 43
0.0000000001
 40
0.0
 40
0.0
 40
0.0
 40
0.0
 40
1.0
 40
1.0
 40
1.0
 40
1.0
 10
-20.732
 20
0.0823
 30
0.0
 10
-20.732
 20
0.0823
 30
0.0
 10
-20.732
 20
12.8614
 30
0.0
 10
-20.732
 20
12.8614
 30
0.0
  0
SPLINE
  5
AF
330
1F
100
AcDbEntity
  8
DEFAULT_1
 62
   250
100
AcDbSpline
210
0.0
220
0.0
230
1.0
 70
    24
 71
     3
 72
     8
 73
     4
 74
     0
 42
0.0000000001
 43
0.0000000001
 40
0.0
 40
0.0
 40
0.0
 40
0.0
 40
1.0
 40
1.0
 40
1.0
 40
1.0
 10
-19.1345
 20
0.0823
 30
0.0
 10
-19.1345
 20
0.0823
 30
0.0
 10
-19.1345
 20
12.8614
 30
0.0
 10
-19.1345
 20
12.8614
 30
0.0
  0
SPLINE
  5
B0
330
1F
100
AcDbEntity
  8
DEFAULT_1
 62
   250
100
AcDbSpline
210
0.0
220
0.0
230
1.0
 70
    24
 71
     3
 72
     8
 73
     4
 74
     0
 42
0.0000000001
 43
0.0000000001
 40
0.0
 40
0.0
 40
0.0
 40
0.0
 40
1.0
 40
1.0
 40
1.0
 40
1.0
 10
-17.5371
 20
0.0823
 30
0.0
 10
-17.5371
 20
0.0823
 30
0.0
 10
-17.5371
 20
12.8614
 30
0.0
 10
-17.5371
 20
12.8614
 30
0.0
  0
SPLINE
  5
B1
330
1F
100
AcDbEntity
  8
DEFAULT_1
 62
   250
100
AcDbSpline
210
0.0
220
0.0
230
1.0
 70
    24
 71
     3
 72
     8
 73
     4
 74
     0
 42
0.0000000001
 43
0.0000000001
 40
0.0
 40
0.0
 40
0.0
 40
0.0
 40
1.0
 40
1.0
 40
1.0
 40
1.0
 10
-15.9398
 20
0.0823
 30
0.0
 10
-15.9398
 20
0.0823
 30
0.0
 10
-15.9398
 20
12.8614
 30
0.0
 10
-15.9398
 20
12.8614
 30
0.0
  0
SPLINE
  5
B2
330
1F
100
AcDbEntity
  8
DEFAULT_1
 62
   250
100
AcDbSpline
210
0.0
220
0.0
230
1.0
 70
    24
 71
     3
 72
     8
 73
     4
 74
     0
 42
0.0000000001
 43
0.0000000001
 40
0.0
 40
0.0
 40
0.0
 40
0.0
 40
1.0
 40
1.0
 40
1.0
 40
1.0
 10
-14.3423
 20
0.0823
 30
0.0
 10
-14.3423
 20
0.0823
 30
0.0
 10
-14.3423
 20
12.8614
 30
0.0
 10
-14.3423
 20
12.8614
 30
0.0
  0
SPLINE
  5
B3
330
1F
100
AcDbEntity
  8
DEFAULT_1
 62
   250
100
AcDbSpline
210
0.0
220
0.0
230
1.0
 70
    24
 71
     3
 72
     8
 73
     4
 74
     0
 42
0.0000000001
 43
0.0000000001
 40
0.0
 40
0.0
 40
0.0
 40
0.0
 40
1.0
 40
1.0
 40
1.0
 40
1.0
 10
-12.7447
 20
0.0823
 30
0.0
 10
-12.7447
 20
0.0823
 30
0.0
 10
-12.7447
 20
12.8614
 30
0.0
 10
-12.7447
 20
12.8614
 30
0.0
  0
SPLINE
  5
B4
330
1F
100
AcDbEntity
  8
DEFAULT_1
 62
   250
100
AcDbSpline
210
0.0
220
0.0
230
1.0
 70
    24
 71
     3
 72
     8
 73
     4
 74
     0
 42
0.0000000001
 43
0.0000000001
 40
0.0
 40
0.0
 40
0.0
 40
0.0
 40
1.0
 40
1.0
 40
1.0
 40
1.0
 10
-11.1476
 20
0.0823
 30
0.0
 10
-11.1476
 20
0.0823
 30
0.0
 10
-11.1476
 20
12.8614
 30
0.0
 10
-11.1476
 20
12.8614
 30
0.0
  0
SPLINE
  5
B5
330
1F
100
AcDbEntity
  8
DEFAULT_1
 62
   250
100
AcDbSpline
210
0.0
220
0.0
230
1.0
 70
    24
 71
     3
 72
     8
 73
     4
 74
     0
 42
0.0000000001
 43
0.0000000001
 40
0.0
 40
0.0
 40
0.0
 40
0.0
 40
1.0
 40
1.0
 40
1.0
 40
1.0
 10
-9.5498
 20
0.0823
 30
0.0
 10
-9.5498
 20
0.0823
 30
0.0
 10
-9.5498
 20
12.8614
 30
0.0
 10
-9.5498
 20
12.8614
 30
0.0
  0
SPLINE
  5
B6
330
1F
100
AcDbEntity
  8
DEFAULT_1
 62
   250
100
AcDbSpline
210
0.0
220
0.0
230
1.0
 70
    24
 71
     3
 72
     8
 73
     4
 74
     0
 42
0.0000000001
 43
0.0000000001
 40
0.0
 40
0.0
 40
0.0
 40
0.0
 40
1.0
 40
1.0
 40
1.0
 40
1.0
 10
-7.9525
 20
0.0823
 30
0.0
 10
-7.9525
 20
0.0823
 30
0.0
 10
-7.9525
 20
12.8614
 30
0.0
 10
-7.9525
 20
12.8614
 30
0.0
  0
SPLINE
  5
B7
330
1F
100
AcDbEntity
  8
DEFAULT_1
 62
   250
100
AcDbSpline
210
0.0
220
0.0
230
1.0
 70
     8
 71
     3
 72
    96
 73
    92
 74
     0
 42
0.0000000001
 43
0.0000000001
 40
0.0
 40
0.0
 40
0.0
 40
0.0
 40
0.0416666666666667
 40
0.0416666666666667
 40
0.0416666666666667
 40
0.0416666666666667
 40
0.0833333333333333
 40
0.0833333333333333
 40
0.0833333333333333
 40
0.0833333333333333
 40
0.125
 40
0.125
 40
0.125
 40
0.125
 40
0.1666666666666667
 40
0.1666666666666667
 40
0.1666666666666667
 40
0.1666666666666667
 40
0.2083333333333333
 40
0.2083333333333333
 40
0.2083333333333333
 40
0.2083333333333333
 40
0.25
 40
0.25
 40
0.25
 40
0.25
 40
0.2916666666666667
 40
0.2916666666666667
 40
0.2916666666666667
 40
0.2916666666666667
 40
0.3333333333333333
 40
0.3333333333333333
 40
0.3333333333333333
 40
0.3333333333333333
 40
0.375
 40
0.375
 40
0.375
 40
0.375
 40
0.4166666666666667
 40
0.4166666666666667
 40
0.4166666666666667
 40
0.4166666666666667
 40
0.4583333333333333
 40
0.4583333333333333
 40
0.4583333333333333
 40
0.4583333333333333
 40
0.5
 40
0.5
 40
0.5
 40
0.5
 40
0.5416666666666666
 40
0.5416666666666666
 40
0.5416666666666666
 40
0.5416666666666666
 40
0.5833333333333334
 40
0.5833333333333334
 40
0.5833333333333334
 40
0.5833333333333334
 40
0.625
 40
0.625
 40
0.625
 40
0.625
 40
0.6666666666666666
 40
0.6666666666666666
 40
0.6666666666666666
 40
0.6666666666666666
 40
0.7083333333333334
 40
0.7083333333333334
 40
0.7083333333333334
 40
0.7083333333333334
 40
0.75
 40
0.75
 40
0.75
 40
0.75
 40
0.7916666666666666
 40
0.7916666666666666
 40
0.7916666666666666
 40
0.7916666666666666
 40
0.8333333333333334
 40
0.8333333333333334
 40
0.8333333333333334
 40
0.8333333333333334
 40
0.875
 40
0.875
 40
0.875
 40
0.875
 40
0.9166666666666666
 40
0.9166666666666666
 40
0.9166666666666666
 40
0.9166666666666666
 40
1.0
 40
1.0
 40
1.0
 40
1.0
 10
-7.9525
 20
12.8614
 30
0.0
 10
-7.9525
 20
12.8614
 30
0.0
 10
-7.7516
 20
14.4833
 30
0.0
 10
-7.7516
 20
14.4833
 30
0.0
 10
-7.7516
 20
14.4833
 30
0.0
 10
-7.739
 20
14.5837
 30
0.0
 10
-7.6538
 20
14.6586
 30
0.0
 10
-7.5529
 20
14.6586
 30
0.0
 10
-7.5529
 20
14.6586
 30
0.0
 10
-7.4522
 20
14.6586
 30
0.0
 10
-7.3673
 20
14.5837
 30
0.0
 10
-7.3549
 20
14.4833
 30
0.0
 10
-7.3549
 20
14.4833
 30
0.0
 10
-7.3549
 20
14.4833
 30
0.0
 10
-7.1541
 20
12.8614
 30
0.0
 10
-7.1541
 20
12.8614
 30
0.0
 10
-7.1541
 20
12.8614
 30
0.0
 10
-7.1541
 20
12.8614
 30
0.0
 10
-6.9098
 20
11.7008
 30
0.0
 10
-6.9098
 20
11.7008
 30
0.0
 10
-6.9098
 20
11.7008
 30
0.0
 10
-6.9098
 20
11.7008
 30
0.0
 10
-6.7096
 20
10.9842
 30
0.0
 10
-6.7096
 20
10.9842
 30
0.0
 10
-6.7096
 20
10.9842
 30
0.0
 10
-6.7096
 20
10.9842
 30
0.0
 10
-6.5665
 20
9.8375
 30
0.0
 10
-6.5665
 20
9.8375
 30
0.0
 10
-6.5665
 20
9.8375
 30
0.0
 10
-6.5665
 20
9.8375
 30
0.0
 10
-6.4522
 20
8.8344
 30
0.0
 10
-6.4522
 20
8.8344
 30
0.0
 10
-6.4522
 20
8.8344
 30
0.0
 10
-6.4522
 20
8.8344
 30
0.0
 10
-6.4236
 20
7.8886
 30
0.0
 10
-6.4236
 20
7.8886
 30
0.0
 10
-6.4236
 20
7.8886
 30
0.0
 10
-6.4236
 20
7.8886
 30
0.0
 10
-6.4236
 20
6.9714
 30
0.0
 10
-6.4236
 20
6.9714
 30
0.0
 10
-6.4236
 20
6.9714
 30
0.0
 10
-6.4236
 20
6.9714
 30
0.0
 10
-6.4522
 20
6.0255
 30
0.0
 10
-6.4522
 20
6.0255
 30
0.0
 10
-6.4522
 20
6.0255
 30
0.0
 10
-6.4522
 20
6.0255
 30
0.0
 10
-6.681
 20
4.4489
 30
0.0
 10
-6.681
 20
4.4489
 30
0.0
 10
-6.681
 20
4.4489
 30
0.0
 10
-6.681
 20
4.4489
 30
0.0
 10
-7.3337
 20
-1.4055
 30
0.0
 10
-7.3337
 20
-1.4055
 30
0.0
 10
-7.3337
 20
-1.4055
 30
0.0
 10
-7.3337
 20
-1.4055
 30
0.0
 10
-7.3532
 20
-1.5303
 30
0.0
 10
-7.3532
 20
-1.5303
 30
0.0
 10
-7.3532
 20
-1.5303
 30
0.0
 10
-7.3532
 20
-1.5303
 30
0.0
 10
-7.3883
 20
-1.6278
 30
0.0
 10
-7.3883
 20
-1.6278
 30
0.0
 10
-7.3883
 20
-1.6278
 30
0.0
 10
-7.3883
 20
-1.6278
 30
0.0
 10
-7.4584
 20
-1.6942
 30
0.0
 10
-7.4584
 20
-1.6942
 30
0.0
 10
-7.4584
 20
-1.6942
 30
0.0
 10
-7.4584
 20
-1.6942
 30
0.0
 10
-7.5245
 20
-1.698
 30
0.0
 10
-7.5245
 20
-1.698
 30
0.0
 10
-7.5245
 20
-1.698
 30
0.0
 10
-7.5245
 20
-1.698
 30
0.0
 10
-7.5947
 20
-1.698
 30
0.0
 10
-7.5947
 20
-1.698
 30
0.0
 10
-7.5947
 20
-1.698
 30
0.0
 10
-7.5947
 20
-1.698
 30
0.0
 10
-7.6529
 20
-1.6667
 30
0.0
 10
-7.6529
 20
-1.6667
 30
0.0
 10
-7.6529
 20
-1.6667
 30
0.0
 10
-7.6529
 20
-1.6667
 30
0.0
 10
-7.7037
 20
-1.6083
 30
0.0
 10
-7.7037
 20
-1.6083
 30
0.0
 10
-7.7037
 20
-1.6083
 30
0.0
 10
-7.7037
 20
-1.6083
 30
0.0
 10
-7.7426
 20
-1.5343
 30
0.0
 10
-7.7426
 20
-1.5343
 30
0.0
 10
-7.7426
 20
-1.5343
 30
0.0
 10
-7.7426
 20
-1.5343
 30
0.0
 10
-7.7619
 20
-1.4368
 30
0.0
 10
-7.7619
 20
-1.4368
 30
0.0
 10
-7.7619
 20
-1.4368
 30
0.0
 10
-7.7619
 20
-1.4368
 30
0.0
 10
-7.9527
 20
0.0997
 30
0.0
 10
-7.9527
 20
0.0997
 30
0.0
  0
SPLINE
  5
B8
330
1F
100
AcDbEntity
  8
DEFAULT_1
 62
   250
100
AcDbSpline
210
0.0
220
0.0
230
1.0
 70
    24
 71
     3
 72
     8
 73
     4
 74
     0
 42
0.0000000001
 43
0.0000000001
 40
0.0
 40
0.0
 40
0.0
 40
0.0
 40
1.0
 40
1.0
 40
1.0
 40
1.0
 10
18.2559
 20
14.3442
 30
0.0
 10
18.2559
 20
14.3442
 30
0.0
 10
18.5422
 20
12.7817
 30
0.0
 10
18.5422
 20
12.7817
 30
0.0
  0
SPLINE
  5
B9
330
1F
100
AcDbEntity
  8
DEFAULT_1
 62
   250
100
AcDbSpline
210
0.0
220
0.0
230
1.0
 70
    24
 71
     3
 72
     8
 73
     4
 74
     0
 42
0.0000000001
 43
0.0000000001
 40
0.0
 40
0.0
 40
0.0
 40
0.0
 40
1.0
 40
1.0
 40
1.0
 40
1.0
 10
18.2559
 20
-1.5601
 30
0.0
 10
18.2559
 20
-1.5601
 30
0.0
 10
18.5422
 20
0.0026
 30
0.0
 10
18.5422
 20
0.0026
 30
0.0
  0
SPLINE
  5
BA
330
1F
100
AcDbEntity
  8
DEFAULT_1
 62
   250
100
AcDbSpline
210
0.0
220
0.0
230
1.0
 70
    24
 71
     3
 72
     8
 73
     4
 74
     0
 42
0.0000000001
 43
0.0000000001
 40
0.0
 40
0.0
 40
0.0
 40
0.0
 40
1.0
 40
1.0
 40
1.0
 40
1.0
 10
17.254
 20
0.0026
 30
0.0
 10
17.254
 20
0.0026
 30
0.0
 10
17.8568
 20
-1.5937
 30
0.0
 10
17.8568
 20
-1.5937
 30
0.0
  0
SPLINE
  5
BB
330
1F
100
AcDbEntity
  8
DEFAULT_1
 62
   250
100
AcDbSpline
210
0.0
220
0.0
230
1.0
 70
    24
 71
     3
 72
     8
 73
     4
 74
     0
 42
0.0000000001
 43
0.0000000001
 40
0.0
 40
0.0
 40
0.0
 40
0.0
 40
1.0
 40
1.0
 40
1.0
 40
1.0
 10
17.254
 20
12.7817
 30
0.0
 10
17.254
 20
12.7817
 30
0.0
 10
17.8568
 20
14.3778
 30
0.0
 10
17.8568
 20
14.3778
 30
0.0
  0
SPLINE
  5
BC
330
1F
100
AcDbEntity
  8
DEFAULT_1
 62
   250
100
AcDbSpline
210
0.0
220
0.0
230
1.0
 70
    24
 71
     3
 72
     8
 73
     4
 74
     0
 42
0.0000000001
 43
0.0000000001
 40
0.0
 40
0.0
 40
0.0
 40
0.0
 40
1.0
 40
1.0
 40
1.0
 40
1.0
 10
18.5422
 20
0.0026
 30
0.0
 10
18.5422
 20
0.0026
 30
0.0
 10
21.03
 20
0.0026
 30
0.0
 10
21.03
 20
0.0026
 30
0.0
  0
SPLINE
  5
BD
330
1F
100
AcDbEntity
  8
DEFAULT_1
 62
   250
100
AcDbSpline
210
0.0
220
0.0
230
1.0
 70
    24
 71
     3
 72
     8
 73
     4
 74
     0
 42
0.0000000001
 43
0.0000000001
 40
0.0
 40
0.0
 40
0.0
 40
0.0
 40
1.0
 40
1.0
 40
1.0
 40
1.0
 10
18.5422
 20
12.7817
 30
0.0
 10
18.5422
 20
12.7817
 30
0.0
 10
21.03
 20
12.7817
 30
0.0
 10
21.03
 20
12.7817
 30
0.0
  0
SPLINE
  5
BE
330
1F
100
AcDbEntity
  8
DEFAULT_1
 62
   250
100
AcDbSpline
210
0.0
220
0.0
230
1.0
 70
     8
 71
     3
 72
    12
 73
     8
 74
     0
 42
0.0000000001
 43
0.0000000001
 40
0.0
 40
0.0
 40
0.0
 40
0.0
 40
0.3333333333333333
 40
0.3333333333333333
 40
0.3333333333333333
 40
0.3333333333333333
 40
1.0
 40
1.0
 40
1.0
 40
1.0
 10
18.2559
 20
-1.5601
 30
0.0
 10
18.2399
 20
-1.6491
 30
0.0
 10
18.1634
 20
-1.7164
 30
0.0
 10
18.0701
 20
-1.7242
 30
0.0
 10
18.0701
 20
-1.7242
 30
0.0
 10
17.9763
 20
-1.7321
 30
0.0
 10
17.8895
 20
-1.6784
 30
0.0
 10
17.8568
 20
-1.5937
 30
0.0
  0
SPLINE
  5
BF
330
1F
100
AcDbEntity
  8
DEFAULT_1
 62
   250
100
AcDbSpline
210
0.0
220
0.0
230
1.0
 70
     8
 71
     3
 72
    12
 73
     8
 74
     0
 42
0.0000000001
 43
0.0000000001
 40
0.0
 40
0.0
 40
0.0
 40
0.0
 40
0.3333333333333333
 40
0.3333333333333333
 40
0.3333333333333333
 40
0.3333333333333333
 40
1.0
 40
1.0
 40
1.0
 40
1.0
 10
17.8568
 20
14.3778
 30
0.0
 10
17.8895
 20
14.4625
 30
0.0
 10
17.9763
 20
14.5164
 30
0.0
 10
18.0701
 20
14.5086
 30
0.0
 10
18.0701
 20
14.5086
 30
0.0
 10
18.1634
 20
14.5007
 30
0.0
 10
18.2399
 20
14.4334
 30
0.0
 10
18.2559
 20
14.3442
 30
0.0
  0
SPLINE
  5
C0
330
1F
100
AcDbEntity
  8
DEFAULT_1
 62
   250
100
AcDbSpline
210
0.0
220
0.0
230
1.0
 70
    24
 71
     3
 72
     8
 73
     4
 74
     0
 42
0.0000000001
 43
0.0000000001
 40
0.0
 40
0.0
 40
0.0
 40
0.0
 40
1.0
 40
1.0
 40
1.0
 40
1.0
 10
17.0451
 20
14.4036
 30
0.0
 10
17.0451
 20
14.4036
 30
0.0
 10
17.254
 20
12.7817
 30
0.0
 10
17.254
 20
12.7817
 30
0.0
  0
SPLINE
  5
C1
330
1F
100
AcDbEntity
  8
DEFAULT_1
 62
   250
100
AcDbSpline
210
0.0
220
0.0
230
1.0
 70
    24
 71
     3
 72
     8
 73
     4
 74
     0
 42
0.0000000001
 43
0.0000000001
 40
0.0
 40
0.0
 40
0.0
 40
0.0
 40
1.0
 40
1.0
 40
1.0
 40
1.0
 10
17.254
 20
0.0026
 30
0.0
 10
17.254
 20
0.0026
 30
0.0
 10
17.254
 20
12.7817
 30
0.0
 10
17.254
 20
12.7817
 30
0.0
  0
SPLINE
  5
C2
330
1F
100
AcDbEntity
  8
DEFAULT_1
 62
   250
100
AcDbSpline
210
0.0
220
0.0
230
1.0
 70
    24
 71
     3
 72
     8
 73
     4
 74
     0
 42
0.0000000001
 43
0.0000000001
 40
0.0
 40
0.0
 40
0.0
 40
0.0
 40
1.0
 40
1.0
 40
1.0
 40
1.0
 10
14.833
 20
-0.4368
 30
0.0
 10
14.833
 20
-0.4368
 30
0.0
 10
14.833
 20
12.8511
 30
0.0
 10
14.833
 20
12.8511
 30
0.0
  0
SPLINE
  5
C3
330
1F
100
AcDbEntity
  8
DEFAULT_1
 62
   250
100
AcDbSpline
210
0.0
220
0.0
230
1.0
 70
    24
 71
     3
 72
     8
 73
     4
 74
     0
 42
0.0000000001
 43
0.0000000001
 40
0.0
 40
0.0
 40
0.0
 40
0.0
 40
1.0
 40
1.0
 40
1.0
 40
1.0
 10
13.2435
 20
-0.1591
 30
0.0
 10
13.2435
 20
-0.1591
 30
0.0
 10
13.2435
 20
13.2679
 30
0.0
 10
13.2435
 20
13.2679
 30
0.0
  0
SPLINE
  5
C4
330
1F
100
AcDbEntity
  8
DEFAULT_1
 62
   250
100
AcDbSpline
210
0.0
220
0.0
230
1.0
 70
    24
 71
     3
 72
     8
 73
     4
 74
     0
 42
0.0000000001
 43
0.0000000001
 40
0.0
 40
0.0
 40
0.0
 40
0.0
 40
1.0
 40
1.0
 40
1.0
 40
1.0
 10
16.4246
 20
12.7817
 30
0.0
 10
16.4246
 20
12.7817
 30
0.0
 10
16.6333
 20
14.4036
 30
0.0
 10
16.6333
 20
14.4036
 30
0.0
  0
SPLINE
  5
C5
330
1F
100
AcDbEntity
  8
DEFAULT_1
 62
   250
100
AcDbSpline
210
0.0
220
0.0
230
1.0
 70
    24
 71
     3
 72
     8
 73
     4
 74
     0
 42
0.0000000001
 43
0.0000000001
 40
0.0
 40
0.0
 40
0.0
 40
0.0
 40
1.0
 40
1.0
 40
1.0
 40
1.0
 10
11.6548
 20
-0.4716
 30
0.0
 10
11.6548
 20
-0.4716
 30
0.0
 10
11.6548
 20
12.9902
 30
0.0
 10
11.6548
 20
12.9902
 30
0.0
  0
SPLINE
  5
C6
330
1F
100
AcDbEntity
  8
DEFAULT_1
 62
   250
100
AcDbSpline
210
0.0
220
0.0
230
1.0
 70
    24
 71
     3
 72
     8
 73
     4
 74
     0
 42
0.0000000001
 43
0.0000000001
 40
0.0
 40
0.0
 40
0.0
 40
0.0
 40
1.0
 40
1.0
 40
1.0
 40
1.0
 10
9.9959
 20
-0.2285
 30
0.0
 10
9.9959
 20
-0.2285
 30
0.0
 10
9.9959
 20
12.9554
 30
0.0
 10
9.9959
 20
12.9554
 30
0.0
  0
SPLINE
  5
C7
330
1F
100
AcDbEntity
  8
DEFAULT_1
 62
   250
100
AcDbSpline
210
0.0
220
0.0
230
1.0
 70
    24
 71
     3
 72
     8
 73
     4
 74
     0
 42
0.0000000001
 43
0.0000000001
 40
0.0
 40
0.0
 40
0.0
 40
0.0
 40
1.0
 40
1.0
 40
1.0
 40
1.0
 10
8.4067
 20
-0.2631
 30
0.0
 10
8.4067
 20
-0.2631
 30
0.0
 10
8.4067
 20
12.9551
 30
0.0
 10
8.4067
 20
12.9551
 30
0.0
  0
SPLINE
  5
C8
330
1F
100
AcDbEntity
  8
DEFAULT_1
 62
   250
100
AcDbSpline
210
0.0
220
0.0
230
1.0
 70
    24
 71
     3
 72
     8
 73
     4
 74
     0
 42
0.0000000001
 43
0.0000000001
 40
0.0
 40
0.0
 40
0.0
 40
0.0
 40
1.0
 40
1.0
 40
1.0
 40
1.0
 10
6.817
 20
-0.2631
 30
0.0
 10
6.817
 20
-0.2631
 30
0.0
 10
6.817
 20
12.9899
 30
0.0
 10
6.817
 20
12.9899
 30
0.0
  0
SPLINE
  5
C9
330
1F
100
AcDbEntity
  8
DEFAULT_1
 62
   250
100
AcDbSpline
210
0.0
220
0.0
230
1.0
 70
    24
 71
     3
 72
     8
 73
     4
 74
     0
 42
0.0000000001
 43
0.0000000001
 40
0.0
 40
0.0
 40
0.0
 40
0.0
 40
1.0
 40
1.0
 40
1.0
 40
1.0
 10
5.2278
 20
0.0372
 30
0.0
 10
5.2278
 20
0.0372
 30
0.0
 10
5.2278
 20
12.8163
 30
0.0
 10
5.2278
 20
12.8163
 30
0.0
  0
SPLINE
  5
CA
330
1F
100
AcDbEntity
  8
DEFAULT_1
 62
   250
100
AcDbSpline
210
0.0
220
0.0
230
1.0
 70
    24
 71
     3
 72
     8
 73
     4
 74
     0
 42
0.0000000001
 43
0.0000000001
 40
0.0
 40
0.0
 40
0.0
 40
0.0
 40
1.0
 40
1.0
 40
1.0
 40
1.0
 10
3.673
 20
-0.3674
 30
0.0
 10
3.673
 20
-0.3674
 30
0.0
 10
3.673
 20
12.9551
 30
0.0
 10
3.673
 20
12.9551
 30
0.0
  0
SPLINE
  5
CB
330
1F
100
AcDbEntity
  8
DEFAULT_1
 62
   250
100
AcDbSpline
210
0.0
220
0.0
230
1.0
 70
    24
 71
     3
 72
     8
 73
     4
 74
     0
 42
0.0000000001
 43
0.0000000001
 40
0.0
 40
0.0
 40
0.0
 40
0.0
 40
1.0
 40
1.0
 40
1.0
 40
1.0
 10
2.0155
 20
-0.1591
 30
0.0
 10
2.0155
 20
-0.1591
 30
0.0
 10
2.0155
 20
12.9902
 30
0.0
 10
2.0155
 20
12.9902
 30
0.0
  0
SPLINE
  5
CC
330
1F
100
AcDbEntity
  8
DEFAULT_1
 62
   250
100
AcDbSpline
210
0.0
220
0.0
230
1.0
 70
    24
 71
     3
 72
     8
 73
     4
 74
     0
 42
0.0000000001
 43
0.0000000001
 40
0.0
 40
0.0
 40
0.0
 40
0.0
 40
1.0
 40
1.0
 40
1.0
 40
1.0
 10
0.4254
 20
-0.2285
 30
0.0
 10
0.4254
 20
-0.2285
 30
0.0
 10
0.4254
 20
12.9554
 30
0.0
 10
0.4254
 20
12.9554
 30
0.0
  0
SPLINE
  5
CD
330
1F
100
AcDbEntity
  8
DEFAULT_1
 62
   250
100
AcDbSpline
210
0.0
220
0.0
230
1.0
 70
    24
 71
     3
 72
     8
 73
     4
 74
     0
 42
0.0000000001
 43
0.0000000001
 40
0.0
 40
0.0
 40
0.0
 40
0.0
 40
1.0
 40
1.0
 40
1.0
 40
1.0
 10
-1.1942
 20
-0.3092
 30
0.0
 10
-1.1942
 20
-0.3092
 30
0.0
 10
-1.1942
 20
12.9563
 30
0.0
 10
-1.1942
 20
12.9563
 30
0.0
  0
SPLINE
  5
CE
330
1F
100
AcDbEntity
  8
DEFAULT_1
 62
   250
100
AcDbSpline
210
0.0
220
0.0
230
1.0
 70
    24
 71
     3
 72
     8
 73
     4
 74
     0
 42
0.0000000001
 43
0.0000000001
 40
0.0
 40
0.0
 40
0.0
 40
0.0
 40
1.0
 40
1.0
 40
1.0
 40
1.0
 10
-2.7652
 20
0.0026
 30
0.0
 10
-2.7652
 20
0.0026
 30
0.0
 10
-2.7652
 20
13.118
 30
0.0
 10
-2.7652
 20
13.118
 30
0.0
  0
SPLINE
  5
CF
330
1F
100
AcDbEntity
  8
DEFAULT_1
 62
   250
100
AcDbSpline
210
0.0
220
0.0
230
1.0
 70
    24
 71
     3
 72
     8
 73
     4
 74
     0
 42
0.0000000001
 43
0.0000000001
 40
0.0
 40
0.0
 40
0.0
 40
0.0
 40
1.0
 40
1.0
 40
1.0
 40
1.0
 10
-4.3249
 20
-0.3041
 30
0.0
 10
-4.3249
 20
-0.3041
 30
0.0
 10
-4.3249
 20
12.8449
 30
0.0
 10
-4.3249
 20
12.8449
 30
0.0
  0
SPLINE
  5
D0
330
1F
100
AcDbEntity
  8
DEFAULT_1
 62
   250
100
AcDbSpline
210
0.0
220
0.0
230
1.0
 70
    24
 71
     3
 72
     8
 73
     4
 74
     0
 42
0.0000000001
 43
0.0000000001
 40
0.0
 40
0.0
 40
0.0
 40
0.0
 40
1.0
 40
1.0
 40
1.0
 40
1.0
 10
-5.9666
 20
0.0026
 30
0.0
 10
-5.9666
 20
0.0026
 30
0.0
 10
-5.9666
 20
1.9649
 30
0.0
 10
-5.9666
 20
1.9649
 30
0.0
  0
SPLINE
  5
D1
330
1F
100
AcDbEntity
  8
DEFAULT_1
 62
   250
100
AcDbSpline
210
0.0
220
0.0
230
1.0
 70
     8
 71
     3
 72
    12
 73
     8
 74
     0
 42
0.0000000001
 43
0.0000000001
 40
0.0
 40
0.0
 40
0.0
 40
0.0
 40
0.3333333333333333
 40
0.3333333333333333
 40
0.3333333333333333
 40
0.3333333333333333
 40
1.0
 40
1.0
 40
1.0
 40
1.0
 10
16.6333
 20
14.4036
 30
0.0
 10
16.6464
 20
14.504
 30
0.0
 10
16.7345
 20
14.5789
 30
0.0
 10
16.8392
 20
14.5789
 30
0.0
 10
16.8392
 20
14.5789
 30
0.0
 10
16.9439
 20
14.5789
 30
0.0
 10
17.0319
 20
14.504
 30
0.0
 10
17.0451
 20
14.4036
 30
0.0
  0
SPLINE
  5
D2
330
1F
100
AcDbEntity
  8
DEFAULT_1
 62
   250
100
AcDbSpline
210
0.0
220
0.0
230
1.0
 70
     8
 71
     3
 72
    36
 73
    32
 74
     0
 42
0.0000000001
 43
0.0000000001
 40
0.0
 40
0.0
 40
0.0
 40
0.0
 40
0.1111111111111111
 40
0.1111111111111111
 40
0.1111111111111111
 40
0.1111111111111111
 40
0.2222222222222222
 40
0.2222222222222222
 40
0.2222222222222222
 40
0.2222222222222222
 40
0.3333333333333333
 40
0.3333333333333333
 40
0.3333333333333333
 40
0.3333333333333333
 40
0.4444444444444444
 40
0.4444444444444444
 40
0.4444444444444444
 40
0.4444444444444444
 40
0.5555555555555556
 40
0.5555555555555556
 40
0.5555555555555556
 40
0.5555555555555556
 40
0.6666666666666666
 40
0.6666666666666666
 40
0.6666666666666666
 40
0.6666666666666666
 40
0.7777777777777778
 40
0.7777777777777778
 40
0.7777777777777778
 40
0.7777777777777778
 40
1.0
 40
1.0
 40
1.0
 40
1.0
 10
-6.0097
 20
11.6328
 30
0.0
 10
-6.0097
 20
11.6328
 30
0.0
 10
-5.854
 20
10.9162
 30
0.0
 10
-5.854
 20
10.9162
 30
0.0
 10
-5.854
 20
10.9162
 30
0.0
 10
-5.854
 20
10.9162
 30
0.0
 10
-5.7426
 20
9.7698
 30
0.0
 10
-5.7426
 20
9.7698
 30
0.0
 10
-5.7426
 20
9.7698
 30
0.0
 10
-5.7426
 20
9.7698
 30
0.0
 10
-5.6533
 20
8.7664
 30
0.0
 10
-5.6533
 20
8.7664
 30
0.0
 10
-5.6533
 20
8.7664
 30
0.0
 10
-5.6533
 20
8.7664
 30
0.0
 10
-5.6312
 20
7.8206
 30
0.0
 10
-5.6312
 20
7.8206
 30
0.0
 10
-5.6312
 20
7.8206
 30
0.0
 10
-5.6312
 20
7.8206
 30
0.0
 10
-5.6312
 20
6.9034
 30
0.0
 10
-5.6312
 20
6.9034
 30
0.0
 10
-5.6312
 20
6.9034
 30
0.0
 10
-5.6312
 20
6.9034
 30
0.0
 10
-5.6533
 20
5.9575
 30
0.0
 10
-5.6533
 20
5.9575
 30
0.0
 10
-5.6533
 20
5.9575
 30
0.0
 10
-5.6533
 20
5.9575
 30
0.0
 10
-5.8315
 20
4.381
 30
0.0
 10
-5.8315
 20
4.381
 30
0.0
 10
-5.8315
 20
4.381
 30
0.0
 10
-5.8315
 20
4.381
 30
0.0
 10
-6.0431
 20
1.9463
 30
0.0
 10
-6.0431
 20
1.9463
 30
0.0
  0
SPLINE
  5
D3
330
1F
100
AcDbEntity
  8
DEFAULT_1
 62
   250
100
AcDbSpline
210
0.0
220
0.0
230
1.0
 70
    24
 71
     3
 72
     8
 73
     4
 74
     0
 42
0.0000000001
 43
0.0000000001
 40
0.0
 40
0.0
 40
0.0
 40
0.0
 40
1.0
 40
1.0
 40
1.0
 40
1.0
 10
-5.9682
 20
11.6662
 30
0.0
 10
-5.9682
 20
11.6662
 30
0.0
 10
-5.9682
 20
12.843
 30
0.0
 10
-5.9682
 20
12.843
 30
0.0
  0
SPLINE
  5
D4
330
1F
100
AcDbEntity
  8
DEFAULT_1
 62
   250
100
AcDbSpline
210
0.0
220
0.0
230
1.0
 70
    24
 71
     3
 72
     8
 73
     4
 74
     0
 42
0.0000000001
 43
0.0000000001
 40
0.0
 40
0.0
 40
0.0
 40
0.0
 40
1.0
 40
1.0
 40
1.0
 40
1.0
 10
18.5422
 20
0.0026
 30
0.0
 10
18.5422
 20
0.0026
 30
0.0
 10
18.5422
 20
12.7817
 30
0.0
 10
18.5422
 20
12.7817
 30
0.0
  0
SPLINE
  5
D5
330
1F
100
AcDbEntity
  8
DEFAULT_1
 62
   250
100
AcDbSpline
210
0.0
220
0.0
230
1.0
 70
     8
 71
     3
 72
    40
 73
    36
 74
     0
 42
0.0000000001
 43
0.0000000001
 40
0.0
 40
0.0
 40
0.0
 40
0.0
 40
0.1
 40
0.1
 40
0.1
 40
0.1
 40
0.2
 40
0.2
 40
0.2
 40
0.2
 40
0.3
 40
0.3
 40
0.3
 40
0.3
 40
0.4
 40
0.4
 40
0.4
 40
0.4
 40
0.5
 40
0.5
 40
0.5
 40
0.5
 40
0.6
 40
0.6
 40
0.6
 40
0.6
 40
0.7
 40
0.7
 40
0.7
 40
0.7
 40
0.8
 40
0.8
 40
0.8
 40
0.8
 40
1.0
 40
1.0
 40
1.0
 40
1.0
 10
-28.717
 20
12.8685
 30
0.0
 10
-28.717
 20
12.8685
 30
0.0
 10
-28.5159
 20
14.4904
 30
0.0
 10
-28.5159
 20
14.4904
 30
0.0
 10
-28.5159
 20
14.4904
 30
0.0
 10
-28.5159
 20
14.4904
 30
0.0
 10
-28.3823
 20
14.6615
 30
0.0
 10
-28.3823
 20
14.6615
 30
0.0
 10
-28.3823
 20
14.6615
 30
0.0
 10
-28.3823
 20
14.6615
 30
0.0
 10
-28.1643
 20
14.7085
 30
0.0
 10
-28.1643
 20
14.7085
 30
0.0
 10
-28.1643
 20
14.7085
 30
0.0
 10
-28.1643
 20
14.7085
 30
0.0
 10
-27.8685
 20
14.7085
 30
0.0
 10
-27.8685
 20
14.7085
 30
0.0
 10
-27.8685
 20
14.7085
 30
0.0
 10
-27.8685
 20
14.7085
 30
0.0
 10
-27.6662
 20
14.6927
 30
0.0
 10
-27.6662
 20
14.6927
 30
0.0
 10
-27.6662
 20
14.6927
 30
0.0
 10
-27.6662
 20
14.6927
 30
0.0
 10
-27.4794
 20
14.6772
 30
0.0
 10
-27.4794
 20
14.6772
 30
0.0
 10
-27.4794
 20
14.6772
 30
0.0
 10
-27.4794
 20
14.6772
 30
0.0
 10
-27.3704
 20
14.4744
 30
0.0
 10
-27.3704
 20
14.4744
 30
0.0
 10
-27.3704
 20
14.4744
 30
0.0
 10
-27.3704
 20
14.4744
 30
0.0
 10
-27.2926
 20
14.2247
 30
0.0
 10
-27.2926
 20
14.2247
 30
0.0
 10
-27.2926
 20
14.2247
 30
0.0
 10
-27.2926
 20
14.2247
 30
0.0
 10
-27.1368
 20
12.828
 30
0.0
 10
-27.1368
 20
12.828
 30
0.0
  0
SPLINE
  5
D6
330
1F
100
AcDbEntity
  8
DEFAULT_1
 62
   250
100
AcDbSpline
210
0.0
220
0.0
230
1.0
 70
     8
 71
     3
 72
    40
 73
    36
 74
     0
 42
0.0000000001
 43
0.0000000001
 40
0.0
 40
0.0
 40
0.0
 40
0.0
 40
0.1
 40
0.1
 40
0.1
 40
0.1
 40
0.2
 40
0.2
 40
0.2
 40
0.2
 40
0.3
 40
0.3
 40
0.3
 40
0.3
 40
0.4
 40
0.4
 40
0.4
 40
0.4
 40
0.5
 40
0.5
 40
0.5
 40
0.5
 40
0.6
 40
0.6
 40
0.6
 40
0.6
 40
0.7
 40
0.7
 40
0.7
 40
0.7
 40
0.8
 40
0.8
 40
0.8
 40
0.8
 40
1.0
 40
1.0
 40
1.0
 40
1.0
 10
-27.1089
 20
12.8614
 30
0.0
 10
-27.1089
 20
12.8614
 30
0.0
 10
-26.9078
 20
14.4833
 30
0.0
 10
-26.9078
 20
14.4833
 30
0.0
 10
-26.9078
 20
14.4833
 30
0.0
 10
-26.9078
 20
14.4833
 30
0.0
 10
-26.7742
 20
14.6543
 30
0.0
 10
-26.7742
 20
14.6543
 30
0.0
 10
-26.7742
 20
14.6543
 30
0.0
 10
-26.7742
 20
14.6543
 30
0.0
 10
-26.5562
 20
14.7013
 30
0.0
 10
-26.5562
 20
14.7013
 30
0.0
 10
-26.5562
 20
14.7013
 30
0.0
 10
-26.5562
 20
14.7013
 30
0.0
 10
-26.2604
 20
14.7013
 30
0.0
 10
-26.2604
 20
14.7013
 30
0.0
 10
-26.2604
 20
14.7013
 30
0.0
 10
-26.2604
 20
14.7013
 30
0.0
 10
-26.0581
 20
14.6856
 30
0.0
 10
-26.0581
 20
14.6856
 30
0.0
 10
-26.0581
 20
14.6856
 30
0.0
 10
-26.0581
 20
14.6856
 30
0.0
 10
-25.8713
 20
14.67
 30
0.0
 10
-25.8713
 20
14.67
 30
0.0
 10
-25.8713
 20
14.67
 30
0.0
 10
-25.8713
 20
14.67
 30
0.0
 10
-25.7623
 20
14.4673
 30
0.0
 10
-25.7623
 20
14.4673
 30
0.0
 10
-25.7623
 20
14.4673
 30
0.0
 10
-25.7623
 20
14.4673
 30
0.0
 10
-25.6845
 20
14.2175
 30
0.0
 10
-25.6845
 20
14.2175
 30
0.0
 10
-25.6845
 20
14.2175
 30
0.0
 10
-25.6845
 20
14.2175
 30
0.0
 10
-25.5288
 20
12.8351
 30
0.0
 10
-25.5288
 20
12.8351
 30
0.0
  0
SPLINE
  5
D7
330
1F
100
AcDbEntity
  8
DEFAULT_1
 62
   250
100
AcDbSpline
210
0.0
220
0.0
230
1.0
 70
     8
 71
     3
 72
    40
 73
    36
 74
     0
 42
0.0000000001
 43
0.0000000001
 40
0.0
 40
0.0
 40
0.0
 40
0.0
 40
0.1
 40
0.1
 40
0.1
 40
0.1
 40
0.2
 40
0.2
 40
0.2
 40
0.2
 40
0.3
 40
0.3
 40
0.3
 40
0.3
 40
0.4
 40
0.4
 40
0.4
 40
0.4
 40
0.5
 40
0.5
 40
0.5
 40
0.5
 40
0.6
 40
0.6
 40
0.6
 40
0.6
 40
0.7
 40
0.7
 40
0.7
 40
0.7
 40
0.8
 40
0.8
 40
0.8
 40
0.8
 40
1.0
 40
1.0
 40
1.0
 40
1.0
 10
-25.509
 20
12.8685
 30
0.0
 10
-25.509
 20
12.8685
 30
0.0
 10
-25.3079
 20
14.4904
 30
0.0
 10
-25.3079
 20
14.4904
 30
0.0
 10
-25.3079
 20
14.4904
 30
0.0
 10
-25.3079
 20
14.4904
 30
0.0
 10
-25.1743
 20
14.6615
 30
0.0
 10
-25.1743
 20
14.6615
 30
0.0
 10
-25.1743
 20
14.6615
 30
0.0
 10
-25.1743
 20
14.6615
 30
0.0
 10
-24.9562
 20
14.7085
 30
0.0
 10
-24.9562
 20
14.7085
 30
0.0
 10
-24.9562
 20
14.7085
 30
0.0
 10
-24.9562
 20
14.7085
 30
0.0
 10
-24.6604
 20
14.7085
 30
0.0
 10
-24.6604
 20
14.7085
 30
0.0
 10
-24.6604
 20
14.7085
 30
0.0
 10
-24.6604
 20
14.7085
 30
0.0
 10
-24.4582
 20
14.6927
 30
0.0
 10
-24.4582
 20
14.6927
 30
0.0
 10
-24.4582
 20
14.6927
 30
0.0
 10
-24.4582
 20
14.6927
 30
0.0
 10
-24.2714
 20
14.6772
 30
0.0
 10
-24.2714
 20
14.6772
 30
0.0
 10
-24.2714
 20
14.6772
 30
0.0
 10
-24.2714
 20
14.6772
 30
0.0
 10
-24.1624
 20
14.4744
 30
0.0
 10
-24.1624
 20
14.4744
 30
0.0
 10
-24.1624
 20
14.4744
 30
0.0
 10
-24.1624
 20
14.4744
 30
0.0
 10
-24.0846
 20
14.2247
 30
0.0
 10
-24.0846
 20
14.2247
 30
0.0
 10
-24.0846
 20
14.2247
 30
0.0
 10
-24.0846
 20
14.2247
 30
0.0
 10
-23.9288
 20
12.828
 30
0.0
 10
-23.9288
 20
12.828
 30
0.0
  0
SPLINE
  5
D8
330
1F
100
AcDbEntity
  8
DEFAULT_1
 62
   250
100
AcDbSpline
210
0.0
220
0.0
230
1.0
 70
     8
 71
     3
 72
    40
 73
    36
 74
     0
 42
0.0000000001
 43
0.0000000001
 40
0.0
 40
0.0
 40
0.0
 40
0.0
 40
0.1
 40
0.1
 40
0.1
 40
0.1
 40
0.2
 40
0.2
 40
0.2
 40
0.2
 40
0.3
 40
0.3
 40
0.3
 40
0.3
 40
0.4
 40
0.4
 40
0.4
 40
0.4
 40
0.5
 40
0.5
 40
0.5
 40
0.5
 40
0.6
 40
0.6
 40
0.6
 40
0.6
 40
0.7
 40
0.7
 40
0.7
 40
0.7
 40
0.8
 40
0.8
 40
0.8
 40
0.8
 40
1.0
 40
1.0
 40
1.0
 40
1.0
 10
-23.9202
 20
12.8375
 30
0.0
 10
-23.9202
 20
12.8375
 30
0.0
 10
-23.7191
 20
14.4594
 30
0.0
 10
-23.7191
 20
14.4594
 30
0.0
 10
-23.7191
 20
14.4594
 30
0.0
 10
-23.7191
 20
14.4594
 30
0.0
 10
-23.5855
 20
14.6304
 30
0.0
 10
-23.5855
 20
14.6304
 30
0.0
 10
-23.5855
 20
14.6304
 30
0.0
 10
-23.5855
 20
14.6304
 30
0.0
 10
-23.3675
 20
14.6774
 30
0.0
 10
-23.3675
 20
14.6774
 30
0.0
 10
-23.3675
 20
14.6774
 30
0.0
 10
-23.3675
 20
14.6774
 30
0.0
 10
-23.0717
 20
14.6774
 30
0.0
 10
-23.0717
 20
14.6774
 30
0.0
 10
-23.0717
 20
14.6774
 30
0.0
 10
-23.0717
 20
14.6774
 30
0.0
 10
-22.8694
 20
14.6617
 30
0.0
 10
-22.8694
 20
14.6617
 30
0.0
 10
-22.8694
 20
14.6617
 30
0.0
 10
-22.8694
 20
14.6617
 30
0.0
 10
-22.6826
 20
14.6462
 30
0.0
 10
-22.6826
 20
14.6462
 30
0.0
 10
-22.6826
 20
14.6462
 30
0.0
 10
-22.6826
 20
14.6462
 30
0.0
 10
-22.5736
 20
14.4434
 30
0.0
 10
-22.5736
 20
14.4434
 30
0.0
 10
-22.5736
 20
14.4434
 30
0.0
 10
-22.5736
 20
14.4434
 30
0.0
 10
-22.4959
 20
14.1937
 30
0.0
 10
-22.4959
 20
14.1937
 30
0.0
 10
-22.4959
 20
14.1937
 30
0.0
 10
-22.4959
 20
14.1937
 30
0.0
 10
-22.3401
 20
12.8113
 30
0.0
 10
-22.3401
 20
12.8113
 30
0.0
  0
SPLINE
  5
D9
330
1F
100
AcDbEntity
  8
DEFAULT_1
 62
   250
100
AcDbSpline
210
0.0
220
0.0
230
1.0
 70
     8
 71
     3
 72
    40
 73
    36
 74
     0
 42
0.0000000001
 43
0.0000000001
 40
0.0
 40
0.0
 40
0.0
 40
0.0
 40
0.1
 40
0.1
 40
0.1
 40
0.1
 40
0.2
 40
0.2
 40
0.2
 40
0.2
 40
0.3
 40
0.3
 40
0.3
 40
0.3
 40
0.4
 40
0.4
 40
0.4
 40
0.4
 40
0.5
 40
0.5
 40
0.5
 40
0.5
 40
0.6
 40
0.6
 40
0.6
 40
0.6
 40
0.7
 40
0.7
 40
0.7
 40
0.7
 40
0.8
 40
0.8
 40
0.8
 40
0.8
 40
1.0
 40
1.0
 40
1.0
 40
1.0
 10
-22.3203
 20
12.8447
 30
0.0
 10
-22.3203
 20
12.8447
 30
0.0
 10
-22.1192
 20
14.4666
 30
0.0
 10
-22.1192
 20
14.4666
 30
0.0
 10
-22.1192
 20
14.4666
 30
0.0
 10
-22.1192
 20
14.4666
 30
0.0
 10
-21.9856
 20
14.6376
 30
0.0
 10
-21.9856
 20
14.6376
 30
0.0
 10
-21.9856
 20
14.6376
 30
0.0
 10
-21.9856
 20
14.6376
 30
0.0
 10
-21.7676
 20
14.6846
 30
0.0
 10
-21.7676
 20
14.6846
 30
0.0
 10
-21.7676
 20
14.6846
 30
0.0
 10
-21.7676
 20
14.6846
 30
0.0
 10
-21.4718
 20
14.6846
 30
0.0
 10
-21.4718
 20
14.6846
 30
0.0
 10
-21.4718
 20
14.6846
 30
0.0
 10
-21.4718
 20
14.6846
 30
0.0
 10
-21.2695
 20
14.6689
 30
0.0
 10
-21.2695
 20
14.6689
 30
0.0
 10
-21.2695
 20
14.6689
 30
0.0
 10
-21.2695
 20
14.6689
 30
0.0
 10
-21.0827
 20
14.6533
 30
0.0
 10
-21.0827
 20
14.6533
 30
0.0
 10
-21.0827
 20
14.6533
 30
0.0
 10
-21.0827
 20
14.6533
 30
0.0
 10
-20.9737
 20
14.4506
 30
0.0
 10
-20.9737
 20
14.4506
 30
0.0
 10
-20.9737
 20
14.4506
 30
0.0
 10
-20.9737
 20
14.4506
 30
0.0
 10
-20.8959
 20
14.2008
 30
0.0
 10
-20.8959
 20
14.2008
 30
0.0
 10
-20.8959
 20
14.2008
 30
0.0
 10
-20.8959
 20
14.2008
 30
0.0
 10
-20.7401
 20
12.8041
 30
0.0
 10
-20.7401
 20
12.8041
 30
0.0
  0
SPLINE
  5
DA
330
1F
100
AcDbEntity
  8
DEFAULT_1
 62
   250
100
AcDbSpline
210
0.0
220
0.0
230
1.0
 70
     8
 71
     3
 72
    40
 73
    36
 74
     0
 42
0.0000000001
 43
0.0000000001
 40
0.0
 40
0.0
 40
0.0
 40
0.0
 40
0.1
 40
0.1
 40
0.1
 40
0.1
 40
0.2
 40
0.2
 40
0.2
 40
0.2
 40
0.3
 40
0.3
 40
0.3
 40
0.3
 40
0.4
 40
0.4
 40
0.4
 40
0.4
 40
0.5
 40
0.5
 40
0.5
 40
0.5
 40
0.6
 40
0.6
 40
0.6
 40
0.6
 40
0.7
 40
0.7
 40
0.7
 40
0.7
 40
0.8
 40
0.8
 40
0.8
 40
0.8
 40
1.0
 40
1.0
 40
1.0
 40
1.0
 10
-20.7122
 20
12.8375
 30
0.0
 10
-20.7122
 20
12.8375
 30
0.0
 10
-20.5111
 20
14.4594
 30
0.0
 10
-20.5111
 20
14.4594
 30
0.0
 10
-20.5111
 20
14.4594
 30
0.0
 10
-20.5111
 20
14.4594
 30
0.0
 10
-20.3775
 20
14.6304
 30
0.0
 10
-20.3775
 20
14.6304
 30
0.0
 10
-20.3775
 20
14.6304
 30
0.0
 10
-20.3775
 20
14.6304
 30
0.0
 10
-20.1595
 20
14.6774
 30
0.0
 10
-20.1595
 20
14.6774
 30
0.0
 10
-20.1595
 20
14.6774
 30
0.0
 10
-20.1595
 20
14.6774
 30
0.0
 10
-19.8637
 20
14.6774
 30
0.0
 10
-19.8637
 20
14.6774
 30
0.0
 10
-19.8637
 20
14.6774
 30
0.0
 10
-19.8637
 20
14.6774
 30
0.0
 10
-19.6614
 20
14.6617
 30
0.0
 10
-19.6614
 20
14.6617
 30
0.0
 10
-19.6614
 20
14.6617
 30
0.0
 10
-19.6614
 20
14.6617
 30
0.0
 10
-19.4746
 20
14.6462
 30
0.0
 10
-19.4746
 20
14.6462
 30
0.0
 10
-19.4746
 20
14.6462
 30
0.0
 10
-19.4746
 20
14.6462
 30
0.0
 10
-19.3656
 20
14.4434
 30
0.0
 10
-19.3656
 20
14.4434
 30
0.0
 10
-19.3656
 20
14.4434
 30
0.0
 10
-19.3656
 20
14.4434
 30
0.0
 10
-19.2878
 20
14.1937
 30
0.0
 10
-19.2878
 20
14.1937
 30
0.0
 10
-19.2878
 20
14.1937
 30
0.0
 10
-19.2878
 20
14.1937
 30
0.0
 10
-19.1321
 20
12.8113
 30
0.0
 10
-19.1321
 20
12.8113
 30
0.0
  0
SPLINE
  5
DB
330
1F
100
AcDbEntity
  8
DEFAULT_1
 62
   250
100
AcDbSpline
210
0.0
220
0.0
230
1.0
 70
     8
 71
     3
 72
    40
 73
    36
 74
     0
 42
0.0000000001
 43
0.0000000001
 40
0.0
 40
0.0
 40
0.0
 40
0.0
 40
0.1
 40
0.1
 40
0.1
 40
0.1
 40
0.2
 40
0.2
 40
0.2
 40
0.2
 40
0.3
 40
0.3
 40
0.3
 40
0.3
 40
0.4
 40
0.4
 40
0.4
 40
0.4
 40
0.5
 40
0.5
 40
0.5
 40
0.5
 40
0.6
 40
0.6
 40
0.6
 40
0.6
 40
0.7
 40
0.7
 40
0.7
 40
0.7
 40
0.8
 40
0.8
 40
0.8
 40
0.8
 40
1.0
 40
1.0
 40
1.0
 40
1.0
 10
-19.1123
 20
12.8447
 30
0.0
 10
-19.1123
 20
12.8447
 30
0.0
 10
-18.9112
 20
14.4666
 30
0.0
 10
-18.9112
 20
14.4666
 30
0.0
 10
-18.9112
 20
14.4666
 30
0.0
 10
-18.9112
 20
14.4666
 30
0.0
 10
-18.7776
 20
14.6376
 30
0.0
 10
-18.7776
 20
14.6376
 30
0.0
 10
-18.7776
 20
14.6376
 30
0.0
 10
-18.7776
 20
14.6376
 30
0.0
 10
-18.5596
 20
14.6846
 30
0.0
 10
-18.5596
 20
14.6846
 30
0.0
 10
-18.5596
 20
14.6846
 30
0.0
 10
-18.5596
 20
14.6846
 30
0.0
 10
-18.2638
 20
14.6846
 30
0.0
 10
-18.2638
 20
14.6846
 30
0.0
 10
-18.2638
 20
14.6846
 30
0.0
 10
-18.2638
 20
14.6846
 30
0.0
 10
-18.0615
 20
14.6689
 30
0.0
 10
-18.0615
 20
14.6689
 30
0.0
 10
-18.0615
 20
14.6689
 30
0.0
 10
-18.0615
 20
14.6689
 30
0.0
 10
-17.8747
 20
14.6533
 30
0.0
 10
-17.8747
 20
14.6533
 30
0.0
 10
-17.8747
 20
14.6533
 30
0.0
 10
-17.8747
 20
14.6533
 30
0.0
 10
-17.7657
 20
14.4506
 30
0.0
 10
-17.7657
 20
14.4506
 30
0.0
 10
-17.7657
 20
14.4506
 30
0.0
 10
-17.7657
 20
14.4506
 30
0.0
 10
-17.6879
 20
14.2008
 30
0.0
 10
-17.6879
 20
14.2008
 30
0.0
 10
-17.6879
 20
14.2008
 30
0.0
 10
-17.6879
 20
14.2008
 30
0.0
 10
-17.5321
 20
12.8041
 30
0.0
 10
-17.5321
 20
12.8041
 30
0.0
  0
SPLINE
  5
DC
330
1F
100
AcDbEntity
  8
DEFAULT_1
 62
   250
100
AcDbSpline
210
0.0
220
0.0
230
1.0
 70
     8
 71
     3
 72
    40
 73
    36
 74
     0
 42
0.0000000001
 43
0.0000000001
 40
0.0
 40
0.0
 40
0.0
 40
0.0
 40
0.1
 40
0.1
 40
0.1
 40
0.1
 40
0.2
 40
0.2
 40
0.2
 40
0.2
 40
0.3
 40
0.3
 40
0.3
 40
0.3
 40
0.4
 40
0.4
 40
0.4
 40
0.4
 40
0.5
 40
0.5
 40
0.5
 40
0.5
 40
0.6
 40
0.6
 40
0.6
 40
0.6
 40
0.7
 40
0.7
 40
0.7
 40
0.7
 40
0.8
 40
0.8
 40
0.8
 40
0.8
 40
1.0
 40
1.0
 40
1.0
 40
1.0
 10
-17.534
 20
12.8614
 30
0.0
 10
-17.534
 20
12.8614
 30
0.0
 10
-17.3329
 20
14.4833
 30
0.0
 10
-17.3329
 20
14.4833
 30
0.0
 10
-17.3329
 20
14.4833
 30
0.0
 10
-17.3329
 20
14.4833
 30
0.0
 10
-17.1994
 20
14.6543
 30
0.0
 10
-17.1994
 20
14.6543
 30
0.0
 10
-17.1994
 20
14.6543
 30
0.0
 10
-17.1994
 20
14.6543
 30
0.0
 10
-16.9813
 20
14.7013
 30
0.0
 10
-16.9813
 20
14.7013
 30
0.0
 10
-16.9813
 20
14.7013
 30
0.0
 10
-16.9813
 20
14.7013
 30
0.0
 10
-16.6855
 20
14.7013
 30
0.0
 10
-16.6855
 20
14.7013
 30
0.0
 10
-16.6855
 20
14.7013
 30
0.0
 10
-16.6855
 20
14.7013
 30
0.0
 10
-16.4832
 20
14.6856
 30
0.0
 10
-16.4832
 20
14.6856
 30
0.0
 10
-16.4832
 20
14.6856
 30
0.0
 10
-16.4832
 20
14.6856
 30
0.0
 10
-16.2964
 20
14.67
 30
0.0
 10
-16.2964
 20
14.67
 30
0.0
 10
-16.2964
 20
14.67
 30
0.0
 10
-16.2964
 20
14.67
 30
0.0
 10
-16.1874
 20
14.4673
 30
0.0
 10
-16.1874
 20
14.4673
 30
0.0
 10
-16.1874
 20
14.4673
 30
0.0
 10
-16.1874
 20
14.4673
 30
0.0
 10
-16.1097
 20
14.2175
 30
0.0
 10
-16.1097
 20
14.2175
 30
0.0
 10
-16.1097
 20
14.2175
 30
0.0
 10
-16.1097
 20
14.2175
 30
0.0
 10
-15.9539
 20
12.8351
 30
0.0
 10
-15.9539
 20
12.8351
 30
0.0
  0
SPLINE
  5
DD
330
1F
100
AcDbEntity
  8
DEFAULT_1
 62
   250
100
AcDbSpline
210
0.0
220
0.0
230
1.0
 70
     8
 71
     3
 72
    40
 73
    36
 74
     0
 42
0.0000000001
 43
0.0000000001
 40
0.0
 40
0.0
 40
0.0
 40
0.0
 40
0.1
 40
0.1
 40
0.1
 40
0.1
 40
0.2
 40
0.2
 40
0.2
 40
0.2
 40
0.3
 40
0.3
 40
0.3
 40
0.3
 40
0.4
 40
0.4
 40
0.4
 40
0.4
 40
0.5
 40
0.5
 40
0.5
 40
0.5
 40
0.6
 40
0.6
 40
0.6
 40
0.6
 40
0.7
 40
0.7
 40
0.7
 40
0.7
 40
0.8
 40
0.8
 40
0.8
 40
0.8
 40
1.0
 40
1.0
 40
1.0
 40
1.0
 10
-15.9341
 20
12.8685
 30
0.0
 10
-15.9341
 20
12.8685
 30
0.0
 10
-15.733
 20
14.4904
 30
0.0
 10
-15.733
 20
14.4904
 30
0.0
 10
-15.733
 20
14.4904
 30
0.0
 10
-15.733
 20
14.4904
 30
0.0
 10
-15.5994
 20
14.6615
 30
0.0
 10
-15.5994
 20
14.6615
 30
0.0
 10
-15.5994
 20
14.6615
 30
0.0
 10
-15.5994
 20
14.6615
 30
0.0
 10
-15.3814
 20
14.7085
 30
0.0
 10
-15.3814
 20
14.7085
 30
0.0
 10
-15.3814
 20
14.7085
 30
0.0
 10
-15.3814
 20
14.7085
 30
0.0
 10
-15.0856
 20
14.7085
 30
0.0
 10
-15.0856
 20
14.7085
 30
0.0
 10
-15.0856
 20
14.7085
 30
0.0
 10
-15.0856
 20
14.7085
 30
0.0
 10
-14.8833
 20
14.6927
 30
0.0
 10
-14.8833
 20
14.6927
 30
0.0
 10
-14.8833
 20
14.6927
 30
0.0
 10
-14.8833
 20
14.6927
 30
0.0
 10
-14.6965
 20
14.6772
 30
0.0
 10
-14.6965
 20
14.6772
 30
0.0
 10
-14.6965
 20
14.6772
 30
0.0
 10
-14.6965
 20
14.6772
 30
0.0
 10
-14.5875
 20
14.4744
 30
0.0
 10
-14.5875
 20
14.4744
 30
0.0
 10
-14.5875
 20
14.4744
 30
0.0
 10
-14.5875
 20
14.4744
 30
0.0
 10
-14.5097
 20
14.2247
 30
0.0
 10
-14.5097
 20
14.2247
 30
0.0
 10
-14.5097
 20
14.2247
 30
0.0
 10
-14.5097
 20
14.2247
 30
0.0
 10
-14.3539
 20
12.828
 30
0.0
 10
-14.3539
 20
12.828
 30
0.0
  0
SPLINE
  5
DE
330
1F
100
AcDbEntity
  8
DEFAULT_1
 62
   250
100
AcDbSpline
210
0.0
220
0.0
230
1.0
 70
     8
 71
     3
 72
    40
 73
    36
 74
     0
 42
0.0000000001
 43
0.0000000001
 40
0.0
 40
0.0
 40
0.0
 40
0.0
 40
0.1
 40
0.1
 40
0.1
 40
0.1
 40
0.2
 40
0.2
 40
0.2
 40
0.2
 40
0.3
 40
0.3
 40
0.3
 40
0.3
 40
0.4
 40
0.4
 40
0.4
 40
0.4
 40
0.5
 40
0.5
 40
0.5
 40
0.5
 40
0.6
 40
0.6
 40
0.6
 40
0.6
 40
0.7
 40
0.7
 40
0.7
 40
0.7
 40
0.8
 40
0.8
 40
0.8
 40
0.8
 40
1.0
 40
1.0
 40
1.0
 40
1.0
 10
-14.3454
 20
12.8375
 30
0.0
 10
-14.3454
 20
12.8375
 30
0.0
 10
-14.1443
 20
14.4594
 30
0.0
 10
-14.1443
 20
14.4594
 30
0.0
 10
-14.1443
 20
14.4594
 30
0.0
 10
-14.1443
 20
14.4594
 30
0.0
 10
-14.0107
 20
14.6304
 30
0.0
 10
-14.0107
 20
14.6304
 30
0.0
 10
-14.0107
 20
14.6304
 30
0.0
 10
-14.0107
 20
14.6304
 30
0.0
 10
-13.7926
 20
14.6774
 30
0.0
 10
-13.7926
 20
14.6774
 30
0.0
 10
-13.7926
 20
14.6774
 30
0.0
 10
-13.7926
 20
14.6774
 30
0.0
 10
-13.4968
 20
14.6774
 30
0.0
 10
-13.4968
 20
14.6774
 30
0.0
 10
-13.4968
 20
14.6774
 30
0.0
 10
-13.4968
 20
14.6774
 30
0.0
 10
-13.2945
 20
14.6617
 30
0.0
 10
-13.2945
 20
14.6617
 30
0.0
 10
-13.2945
 20
14.6617
 30
0.0
 10
-13.2945
 20
14.6617
 30
0.0
 10
-13.1078
 20
14.6462
 30
0.0
 10
-13.1078
 20
14.6462
 30
0.0
 10
-13.1078
 20
14.6462
 30
0.0
 10
-13.1078
 20
14.6462
 30
0.0
 10
-12.9987
 20
14.4434
 30
0.0
 10
-12.9987
 20
14.4434
 30
0.0
 10
-12.9987
 20
14.4434
 30
0.0
 10
-12.9987
 20
14.4434
 30
0.0
 10
-12.921
 20
14.1937
 30
0.0
 10
-12.921
 20
14.1937
 30
0.0
 10
-12.921
 20
14.1937
 30
0.0
 10
-12.921
 20
14.1937
 30
0.0
 10
-12.7652
 20
12.8113
 30
0.0
 10
-12.7652
 20
12.8113
 30
0.0
  0
SPLINE
  5
DF
330
1F
100
AcDbEntity
  8
DEFAULT_1
 62
   250
100
AcDbSpline
210
0.0
220
0.0
230
1.0
 70
     8
 71
     3
 72
    40
 73
    36
 74
     0
 42
0.0000000001
 43
0.0000000001
 40
0.0
 40
0.0
 40
0.0
 40
0.0
 40
0.1
 40
0.1
 40
0.1
 40
0.1
 40
0.2
 40
0.2
 40
0.2
 40
0.2
 40
0.3
 40
0.3
 40
0.3
 40
0.3
 40
0.4
 40
0.4
 40
0.4
 40
0.4
 40
0.5
 40
0.5
 40
0.5
 40
0.5
 40
0.6
 40
0.6
 40
0.6
 40
0.6
 40
0.7
 40
0.7
 40
0.7
 40
0.7
 40
0.8
 40
0.8
 40
0.8
 40
0.8
 40
1.0
 40
1.0
 40
1.0
 40
1.0
 10
-12.7454
 20
12.8447
 30
0.0
 10
-12.7454
 20
12.8447
 30
0.0
 10
-12.5443
 20
14.4666
 30
0.0
 10
-12.5443
 20
14.4666
 30
0.0
 10
-12.5443
 20
14.4666
 30
0.0
 10
-12.5443
 20
14.4666
 30
0.0
 10
-12.4107
 20
14.6376
 30
0.0
 10
-12.4107
 20
14.6376
 30
0.0
 10
-12.4107
 20
14.6376
 30
0.0
 10
-12.4107
 20
14.6376
 30
0.0
 10
-12.1927
 20
14.6846
 30
0.0
 10
-12.1927
 20
14.6846
 30
0.0
 10
-12.1927
 20
14.6846
 30
0.0
 10
-12.1927
 20
14.6846
 30
0.0
 10
-11.8969
 20
14.6846
 30
0.0
 10
-11.8969
 20
14.6846
 30
0.0
 10
-11.8969
 20
14.6846
 30
0.0
 10
-11.8969
 20
14.6846
 30
0.0
 10
-11.6946
 20
14.6689
 30
0.0
 10
-11.6946
 20
14.6689
 30
0.0
 10
-11.6946
 20
14.6689
 30
0.0
 10
-11.6946
 20
14.6689
 30
0.0
 10
-11.5078
 20
14.6533
 30
0.0
 10
-11.5078
 20
14.6533
 30
0.0
 10
-11.5078
 20
14.6533
 30
0.0
 10
-11.5078
 20
14.6533
 30
0.0
 10
-11.3988
 20
14.4506
 30
0.0
 10
-11.3988
 20
14.4506
 30
0.0
 10
-11.3988
 20
14.4506
 30
0.0
 10
-11.3988
 20
14.4506
 30
0.0
 10
-11.321
 20
14.2008
 30
0.0
 10
-11.321
 20
14.2008
 30
0.0
 10
-11.321
 20
14.2008
 30
0.0
 10
-11.321
 20
14.2008
 30
0.0
 10
-11.1653
 20
12.8041
 30
0.0
 10
-11.1653
 20
12.8041
 30
0.0
  0
SPLINE
  5
E0
330
1F
100
AcDbEntity
  8
DEFAULT_1
 62
   250
100
AcDbSpline
210
0.0
220
0.0
230
1.0
 70
     8
 71
     3
 72
    40
 73
    36
 74
     0
 42
0.0000000001
 43
0.0000000001
 40
0.0
 40
0.0
 40
0.0
 40
0.0
 40
0.1
 40
0.1
 40
0.1
 40
0.1
 40
0.2
 40
0.2
 40
0.2
 40
0.2
 40
0.3
 40
0.3
 40
0.3
 40
0.3
 40
0.4
 40
0.4
 40
0.4
 40
0.4
 40
0.5
 40
0.5
 40
0.5
 40
0.5
 40
0.6
 40
0.6
 40
0.6
 40
0.6
 40
0.7
 40
0.7
 40
0.7
 40
0.7
 40
0.8
 40
0.8
 40
0.8
 40
0.8
 40
1.0
 40
1.0
 40
1.0
 40
1.0
 10
-11.1373
 20
12.8375
 30
0.0
 10
-11.1373
 20
12.8375
 30
0.0
 10
-10.9363
 20
14.4594
 30
0.0
 10
-10.9363
 20
14.4594
 30
0.0
 10
-10.9363
 20
14.4594
 30
0.0
 10
-10.9363
 20
14.4594
 30
0.0
 10
-10.8027
 20
14.6304
 30
0.0
 10
-10.8027
 20
14.6304
 30
0.0
 10
-10.8027
 20
14.6304
 30
0.0
 10
-10.8027
 20
14.6304
 30
0.0
 10
-10.5846
 20
14.6774
 30
0.0
 10
-10.5846
 20
14.6774
 30
0.0
 10
-10.5846
 20
14.6774
 30
0.0
 10
-10.5846
 20
14.6774
 30
0.0
 10
-10.2888
 20
14.6774
 30
0.0
 10
-10.2888
 20
14.6774
 30
0.0
 10
-10.2888
 20
14.6774
 30
0.0
 10
-10.2888
 20
14.6774
 30
0.0
 10
-10.0865
 20
14.6617
 30
0.0
 10
-10.0865
 20
14.6617
 30
0.0
 10
-10.0865
 20
14.6617
 30
0.0
 10
-10.0865
 20
14.6617
 30
0.0
 10
-9.8998
 20
14.6462
 30
0.0
 10
-9.8998
 20
14.6462
 30
0.0
 10
-9.8998
 20
14.6462
 30
0.0
 10
-9.8998
 20
14.6462
 30
0.0
 10
-9.7907
 20
14.4434
 30
0.0
 10
-9.7907
 20
14.4434
 30
0.0
 10
-9.7907
 20
14.4434
 30
0.0
 10
-9.7907
 20
14.4434
 30
0.0
 10
-9.713
 20
14.1937
 30
0.0
 10
-9.713
 20
14.1937
 30
0.0
 10
-9.713
 20
14.1937
 30
0.0
 10
-9.713
 20
14.1937
 30
0.0
 10
-9.5572
 20
12.8113
 30
0.0
 10
-9.5572
 20
12.8113
 30
0.0
  0
SPLINE
  5
E1
330
1F
100
AcDbEntity
  8
DEFAULT_1
 62
   250
100
AcDbSpline
210
0.0
220
0.0
230
1.0
 70
     8
 71
     3
 72
    40
 73
    36
 74
     0
 42
0.0000000001
 43
0.0000000001
 40
0.0
 40
0.0
 40
0.0
 40
0.0
 40
0.1
 40
0.1
 40
0.1
 40
0.1
 40
0.2
 40
0.2
 40
0.2
 40
0.2
 40
0.3
 40
0.3
 40
0.3
 40
0.3
 40
0.4
 40
0.4
 40
0.4
 40
0.4
 40
0.5
 40
0.5
 40
0.5
 40
0.5
 40
0.6
 40
0.6
 40
0.6
 40
0.6
 40
0.7
 40
0.7
 40
0.7
 40
0.7
 40
0.8
 40
0.8
 40
0.8
 40
0.8
 40
1.0
 40
1.0
 40
1.0
 40
1.0
 10
-9.5374
 20
12.8447
 30
0.0
 10
-9.5374
 20
12.8447
 30
0.0
 10
-9.3363
 20
14.4666
 30
0.0
 10
-9.3363
 20
14.4666
 30
0.0
 10
-9.3363
 20
14.4666
 30
0.0
 10
-9.3363
 20
14.4666
 30
0.0
 10
-9.2027
 20
14.6376
 30
0.0
 10
-9.2027
 20
14.6376
 30
0.0
 10
-9.2027
 20
14.6376
 30
0.0
 10
-9.2027
 20
14.6376
 30
0.0
 10
-8.9847
 20
14.6846
 30
0.0
 10
-8.9847
 20
14.6846
 30
0.0
 10
-8.9847
 20
14.6846
 30
0.0
 10
-8.9847
 20
14.6846
 30
0.0
 10
-8.6889
 20
14.6846
 30
0.0
 10
-8.6889
 20
14.6846
 30
0.0
 10
-8.6889
 20
14.6846
 30
0.0
 10
-8.6889
 20
14.6846
 30
0.0
 10
-8.4866
 20
14.6689
 30
0.0
 10
-8.4866
 20
14.6689
 30
0.0
 10
-8.4866
 20
14.6689
 30
0.0
 10
-8.4866
 20
14.6689
 30
0.0
 10
-8.2998
 20
14.6533
 30
0.0
 10
-8.2998
 20
14.6533
 30
0.0
 10
-8.2998
 20
14.6533
 30
0.0
 10
-8.2998
 20
14.6533
 30
0.0
 10
-8.1908
 20
14.4506
 30
0.0
 10
-8.1908
 20
14.4506
 30
0.0
 10
-8.1908
 20
14.4506
 30
0.0
 10
-8.1908
 20
14.4506
 30
0.0
 10
-8.113
 20
14.2008
 30
0.0
 10
-8.113
 20
14.2008
 30
0.0
 10
-8.113
 20
14.2008
 30
0.0
 10
-8.113
 20
14.2008
 30
0.0
 10
-7.9573
 20
12.8041
 30
0.0
 10
-7.9573
 20
12.8041
 30
0.0
  0
SPLINE
  5
E2
330
1F
100
AcDbEntity
  8
DEFAULT_1
 62
   250
100
AcDbSpline
210
0.0
220
0.0
230
1.0
 70
     8
 71
     3
 72
    40
 73
    36
 74
     0
 42
0.0000000001
 43
0.0000000001
 40
0.0
 40
0.0
 40
0.0
 40
0.0
 40
0.1
 40
0.1
 40
0.1
 40
0.1
 40
0.2
 40
0.2
 40
0.2
 40
0.2
 40
0.3
 40
0.3
 40
0.3
 40
0.3
 40
0.4
 40
0.4
 40
0.4
 40
0.4
 40
0.5
 40
0.5
 40
0.5
 40
0.5
 40
0.6
 40
0.6
 40
0.6
 40
0.6
 40
0.7
 40
0.7
 40
0.7
 40
0.7
 40
0.8
 40
0.8
 40
0.8
 40
0.8
 40
1.0
 40
1.0
 40
1.0
 40
1.0
 10
-30.3169
 20
0.0506
 30
0.0
 10
-30.3169
 20
0.0506
 30
0.0
 10
-30.1158
 20
-1.5713
 30
0.0
 10
-30.1158
 20
-1.5713
 30
0.0
 10
-30.1158
 20
-1.5713
 30
0.0
 10
-30.1158
 20
-1.5713
 30
0.0
 10
-29.9822
 20
-1.7424
 30
0.0
 10
-29.9822
 20
-1.7424
 30
0.0
 10
-29.9822
 20
-1.7424
 30
0.0
 10
-29.9822
 20
-1.7424
 30
0.0
 10
-29.7642
 20
-1.7893
 30
0.0
 10
-29.7642
 20
-1.7893
 30
0.0
 10
-29.7642
 20
-1.7893
 30
0.0
 10
-29.7642
 20
-1.7893
 30
0.0
 10
-29.4684
 20
-1.7893
 30
0.0
 10
-29.4684
 20
-1.7893
 30
0.0
 10
-29.4684
 20
-1.7893
 30
0.0
 10
-29.4684
 20
-1.7893
 30
0.0
 10
-29.2661
 20
-1.7736
 30
0.0
 10
-29.2661
 20
-1.7736
 30
0.0
 10
-29.2661
 20
-1.7736
 30
0.0
 10
-29.2661
 20
-1.7736
 30
0.0
 10
-29.0793
 20
-1.7581
 30
0.0
 10
-29.0793
 20
-1.7581
 30
0.0
 10
-29.0793
 20
-1.7581
 30
0.0
 10
-29.0793
 20
-1.7581
 30
0.0
 10
-28.9703
 20
-1.5553
 30
0.0
 10
-28.9703
 20
-1.5553
 30
0.0
 10
-28.9703
 20
-1.5553
 30
0.0
 10
-28.9703
 20
-1.5553
 30
0.0
 10
-28.8925
 20
-1.3056
 30
0.0
 10
-28.8925
 20
-1.3056
 30
0.0
 10
-28.8925
 20
-1.3056
 30
0.0
 10
-28.8925
 20
-1.3056
 30
0.0
 10
-28.7368
 20
0.0768
 30
0.0
 10
-28.7368
 20
0.0768
 30
0.0
  0
SPLINE
  5
E3
330
1F
100
AcDbEntity
  8
DEFAULT_1
 62
   250
100
AcDbSpline
210
0.0
220
0.0
230
1.0
 70
     8
 71
     3
 72
    40
 73
    36
 74
     0
 42
0.0000000001
 43
0.0000000001
 40
0.0
 40
0.0
 40
0.0
 40
0.0
 40
0.1
 40
0.1
 40
0.1
 40
0.1
 40
0.2
 40
0.2
 40
0.2
 40
0.2
 40
0.3
 40
0.3
 40
0.3
 40
0.3
 40
0.4
 40
0.4
 40
0.4
 40
0.4
 40
0.5
 40
0.5
 40
0.5
 40
0.5
 40
0.6
 40
0.6
 40
0.6
 40
0.6
 40
0.7
 40
0.7
 40
0.7
 40
0.7
 40
0.8
 40
0.8
 40
0.8
 40
0.8
 40
1.0
 40
1.0
 40
1.0
 40
1.0
 10
-28.717
 20
0.0434
 30
0.0
 10
-28.717
 20
0.0434
 30
0.0
 10
-28.5159
 20
-1.5785
 30
0.0
 10
-28.5159
 20
-1.5785
 30
0.0
 10
-28.5159
 20
-1.5785
 30
0.0
 10
-28.5159
 20
-1.5785
 30
0.0
 10
-28.3823
 20
-1.7495
 30
0.0
 10
-28.3823
 20
-1.7495
 30
0.0
 10
-28.3823
 20
-1.7495
 30
0.0
 10
-28.3823
 20
-1.7495
 30
0.0
 10
-28.1643
 20
-1.7965
 30
0.0
 10
-28.1643
 20
-1.7965
 30
0.0
 10
-28.1643
 20
-1.7965
 30
0.0
 10
-28.1643
 20
-1.7965
 30
0.0
 10
-27.8685
 20
-1.7965
 30
0.0
 10
-27.8685
 20
-1.7965
 30
0.0
 10
-27.8685
 20
-1.7965
 30
0.0
 10
-27.8685
 20
-1.7965
 30
0.0
 10
-27.6662
 20
-1.7808
 30
0.0
 10
-27.6662
 20
-1.7808
 30
0.0
 10
-27.6662
 20
-1.7808
 30
0.0
 10
-27.6662
 20
-1.7808
 30
0.0
 10
-27.4794
 20
-1.7653
 30
0.0
 10
-27.4794
 20
-1.7653
 30
0.0
 10
-27.4794
 20
-1.7653
 30
0.0
 10
-27.4794
 20
-1.7653
 30
0.0
 10
-27.3704
 20
-1.5625
 30
0.0
 10
-27.3704
 20
-1.5625
 30
0.0
 10
-27.3704
 20
-1.5625
 30
0.0
 10
-27.3704
 20
-1.5625
 30
0.0
 10
-27.2926
 20
-1.3127
 30
0.0
 10
-27.2926
 20
-1.3127
 30
0.0
 10
-27.2926
 20
-1.3127
 30
0.0
 10
-27.2926
 20
-1.3127
 30
0.0
 10
-27.1368
 20
0.084
 30
0.0
 10
-27.1368
 20
0.084
 30
0.0
  0
SPLINE
  5
E4
330
1F
100
AcDbEntity
  8
DEFAULT_1
 62
   250
100
AcDbSpline
210
0.0
220
0.0
230
1.0
 70
     8
 71
     3
 72
    40
 73
    36
 74
     0
 42
0.0000000001
 43
0.0000000001
 40
0.0
 40
0.0
 40
0.0
 40
0.0
 40
0.1
 40
0.1
 40
0.1
 40
0.1
 40
0.2
 40
0.2
 40
0.2
 40
0.2
 40
0.3
 40
0.3
 40
0.3
 40
0.3
 40
0.4
 40
0.4
 40
0.4
 40
0.4
 40
0.5
 40
0.5
 40
0.5
 40
0.5
 40
0.6
 40
0.6
 40
0.6
 40
0.6
 40
0.7
 40
0.7
 40
0.7
 40
0.7
 40
0.8
 40
0.8
 40
0.8
 40
0.8
 40
1.0
 40
1.0
 40
1.0
 40
1.0
 10
-27.1089
 20
0.0506
 30
0.0
 10
-27.1089
 20
0.0506
 30
0.0
 10
-26.9078
 20
-1.5713
 30
0.0
 10
-26.9078
 20
-1.5713
 30
0.0
 10
-26.9078
 20
-1.5713
 30
0.0
 10
-26.9078
 20
-1.5713
 30
0.0
 10
-26.7742
 20
-1.7424
 30
0.0
 10
-26.7742
 20
-1.7424
 30
0.0
 10
-26.7742
 20
-1.7424
 30
0.0
 10
-26.7742
 20
-1.7424
 30
0.0
 10
-26.5562
 20
-1.7893
 30
0.0
 10
-26.5562
 20
-1.7893
 30
0.0
 10
-26.5562
 20
-1.7893
 30
0.0
 10
-26.5562
 20
-1.7893
 30
0.0
 10
-26.2604
 20
-1.7893
 30
0.0
 10
-26.2604
 20
-1.7893
 30
0.0
 10
-26.2604
 20
-1.7893
 30
0.0
 10
-26.2604
 20
-1.7893
 30
0.0
 10
-26.0581
 20
-1.7736
 30
0.0
 10
-26.0581
 20
-1.7736
 30
0.0
 10
-26.0581
 20
-1.7736
 30
0.0
 10
-26.0581
 20
-1.7736
 30
0.0
 10
-25.8713
 20
-1.7581
 30
0.0
 10
-25.8713
 20
-1.7581
 30
0.0
 10
-25.8713
 20
-1.7581
 30
0.0
 10
-25.8713
 20
-1.7581
 30
0.0
 10
-25.7623
 20
-1.5553
 30
0.0
 10
-25.7623
 20
-1.5553
 30
0.0
 10
-25.7623
 20
-1.5553
 30
0.0
 10
-25.7623
 20
-1.5553
 30
0.0
 10
-25.6845
 20
-1.3056
 30
0.0
 10
-25.6845
 20
-1.3056
 30
0.0
 10
-25.6845
 20
-1.3056
 30
0.0
 10
-25.6845
 20
-1.3056
 30
0.0
 10
-25.5288
 20
0.0768
 30
0.0
 10
-25.5288
 20
0.0768
 30
0.0
  0
SPLINE
  5
E5
330
1F
100
AcDbEntity
  8
DEFAULT_1
 62
   250
100
AcDbSpline
210
0.0
220
0.0
230
1.0
 70
     8
 71
     3
 72
    40
 73
    36
 74
     0
 42
0.0000000001
 43
0.0000000001
 40
0.0
 40
0.0
 40
0.0
 40
0.0
 40
0.1
 40
0.1
 40
0.1
 40
0.1
 40
0.2
 40
0.2
 40
0.2
 40
0.2
 40
0.3
 40
0.3
 40
0.3
 40
0.3
 40
0.4
 40
0.4
 40
0.4
 40
0.4
 40
0.5
 40
0.5
 40
0.5
 40
0.5
 40
0.6
 40
0.6
 40
0.6
 40
0.6
 40
0.7
 40
0.7
 40
0.7
 40
0.7
 40
0.8
 40
0.8
 40
0.8
 40
0.8
 40
1.0
 40
1.0
 40
1.0
 40
1.0
 10
-25.509
 20
0.0434
 30
0.0
 10
-25.509
 20
0.0434
 30
0.0
 10
-25.3079
 20
-1.5785
 30
0.0
 10
-25.3079
 20
-1.5785
 30
0.0
 10
-25.3079
 20
-1.5785
 30
0.0
 10
-25.3079
 20
-1.5785
 30
0.0
 10
-25.1743
 20
-1.7495
 30
0.0
 10
-25.1743
 20
-1.7495
 30
0.0
 10
-25.1743
 20
-1.7495
 30
0.0
 10
-25.1743
 20
-1.7495
 30
0.0
 10
-24.9562
 20
-1.7965
 30
0.0
 10
-24.9562
 20
-1.7965
 30
0.0
 10
-24.9562
 20
-1.7965
 30
0.0
 10
-24.9562
 20
-1.7965
 30
0.0
 10
-24.6604
 20
-1.7965
 30
0.0
 10
-24.6604
 20
-1.7965
 30
0.0
 10
-24.6604
 20
-1.7965
 30
0.0
 10
-24.6604
 20
-1.7965
 30
0.0
 10
-24.4582
 20
-1.7808
 30
0.0
 10
-24.4582
 20
-1.7808
 30
0.0
 10
-24.4582
 20
-1.7808
 30
0.0
 10
-24.4582
 20
-1.7808
 30
0.0
 10
-24.2714
 20
-1.7653
 30
0.0
 10
-24.2714
 20
-1.7653
 30
0.0
 10
-24.2714
 20
-1.7653
 30
0.0
 10
-24.2714
 20
-1.7653
 30
0.0
 10
-24.1624
 20
-1.5625
 30
0.0
 10
-24.1624
 20
-1.5625
 30
0.0
 10
-24.1624
 20
-1.5625
 30
0.0
 10
-24.1624
 20
-1.5625
 30
0.0
 10
-24.0846
 20
-1.3127
 30
0.0
 10
-24.0846
 20
-1.3127
 30
0.0
 10
-24.0846
 20
-1.3127
 30
0.0
 10
-24.0846
 20
-1.3127
 30
0.0
 10
-23.9288
 20
0.084
 30
0.0
 10
-23.9288
 20
0.084
 30
0.0
  0
SPLINE
  5
E6
330
1F
100
AcDbEntity
  8
DEFAULT_1
 62
   250
100
AcDbSpline
210
0.0
220
0.0
230
1.0
 70
     8
 71
     3
 72
    40
 73
    36
 74
     0
 42
0.0000000001
 43
0.0000000001
 40
0.0
 40
0.0
 40
0.0
 40
0.0
 40
0.1
 40
0.1
 40
0.1
 40
0.1
 40
0.2
 40
0.2
 40
0.2
 40
0.2
 40
0.3
 40
0.3
 40
0.3
 40
0.3
 40
0.4
 40
0.4
 40
0.4
 40
0.4
 40
0.5
 40
0.5
 40
0.5
 40
0.5
 40
0.6
 40
0.6
 40
0.6
 40
0.6
 40
0.7
 40
0.7
 40
0.7
 40
0.7
 40
0.8
 40
0.8
 40
0.8
 40
0.8
 40
1.0
 40
1.0
 40
1.0
 40
1.0
 10
-23.9202
 20
0.0744
 30
0.0
 10
-23.9202
 20
0.0744
 30
0.0
 10
-23.7191
 20
-1.5475
 30
0.0
 10
-23.7191
 20
-1.5475
 30
0.0
 10
-23.7191
 20
-1.5475
 30
0.0
 10
-23.7191
 20
-1.5475
 30
0.0
 10
-23.5855
 20
-1.7185
 30
0.0
 10
-23.5855
 20
-1.7185
 30
0.0
 10
-23.5855
 20
-1.7185
 30
0.0
 10
-23.5855
 20
-1.7185
 30
0.0
 10
-23.3675
 20
-1.7655
 30
0.0
 10
-23.3675
 20
-1.7655
 30
0.0
 10
-23.3675
 20
-1.7655
 30
0.0
 10
-23.3675
 20
-1.7655
 30
0.0
 10
-23.0717
 20
-1.7655
 30
0.0
 10
-23.0717
 20
-1.7655
 30
0.0
 10
-23.0717
 20
-1.7655
 30
0.0
 10
-23.0717
 20
-1.7655
 30
0.0
 10
-22.8694
 20
-1.7497
 30
0.0
 10
-22.8694
 20
-1.7497
 30
0.0
 10
-22.8694
 20
-1.7497
 30
0.0
 10
-22.8694
 20
-1.7497
 30
0.0
 10
-22.6826
 20
-1.7342
 30
0.0
 10
-22.6826
 20
-1.7342
 30
0.0
 10
-22.6826
 20
-1.7342
 30
0.0
 10
-22.6826
 20
-1.7342
 30
0.0
 10
-22.5736
 20
-1.5315
 30
0.0
 10
-22.5736
 20
-1.5315
 30
0.0
 10
-22.5736
 20
-1.5315
 30
0.0
 10
-22.5736
 20
-1.5315
 30
0.0
 10
-22.4959
 20
-1.2817
 30
0.0
 10
-22.4959
 20
-1.2817
 30
0.0
 10
-22.4959
 20
-1.2817
 30
0.0
 10
-22.4959
 20
-1.2817
 30
0.0
 10
-22.3401
 20
0.1007
 30
0.0
 10
-22.3401
 20
0.1007
 30
0.0
  0
SPLINE
  5
E7
330
1F
100
AcDbEntity
  8
DEFAULT_1
 62
   250
100
AcDbSpline
210
0.0
220
0.0
230
1.0
 70
     8
 71
     3
 72
    40
 73
    36
 74
     0
 42
0.0000000001
 43
0.0000000001
 40
0.0
 40
0.0
 40
0.0
 40
0.0
 40
0.1
 40
0.1
 40
0.1
 40
0.1
 40
0.2
 40
0.2
 40
0.2
 40
0.2
 40
0.3
 40
0.3
 40
0.3
 40
0.3
 40
0.4
 40
0.4
 40
0.4
 40
0.4
 40
0.5
 40
0.5
 40
0.5
 40
0.5
 40
0.6
 40
0.6
 40
0.6
 40
0.6
 40
0.7
 40
0.7
 40
0.7
 40
0.7
 40
0.8
 40
0.8
 40
0.8
 40
0.8
 40
1.0
 40
1.0
 40
1.0
 40
1.0
 10
-22.3203
 20
0.0673
 30
0.0
 10
-22.3203
 20
0.0673
 30
0.0
 10
-22.1192
 20
-1.5546
 30
0.0
 10
-22.1192
 20
-1.5546
 30
0.0
 10
-22.1192
 20
-1.5546
 30
0.0
 10
-22.1192
 20
-1.5546
 30
0.0
 10
-21.9856
 20
-1.7257
 30
0.0
 10
-21.9856
 20
-1.7257
 30
0.0
 10
-21.9856
 20
-1.7257
 30
0.0
 10
-21.9856
 20
-1.7257
 30
0.0
 10
-21.7676
 20
-1.7726
 30
0.0
 10
-21.7676
 20
-1.7726
 30
0.0
 10
-21.7676
 20
-1.7726
 30
0.0
 10
-21.7676
 20
-1.7726
 30
0.0
 10
-21.4718
 20
-1.7726
 30
0.0
 10
-21.4718
 20
-1.7726
 30
0.0
 10
-21.4718
 20
-1.7726
 30
0.0
 10
-21.4718
 20
-1.7726
 30
0.0
 10
-21.2695
 20
-1.7569
 30
0.0
 10
-21.2695
 20
-1.7569
 30
0.0
 10
-21.2695
 20
-1.7569
 30
0.0
 10
-21.2695
 20
-1.7569
 30
0.0
 10
-21.0827
 20
-1.7414
 30
0.0
 10
-21.0827
 20
-1.7414
 30
0.0
 10
-21.0827
 20
-1.7414
 30
0.0
 10
-21.0827
 20
-1.7414
 30
0.0
 10
-20.9737
 20
-1.5386
 30
0.0
 10
-20.9737
 20
-1.5386
 30
0.0
 10
-20.9737
 20
-1.5386
 30
0.0
 10
-20.9737
 20
-1.5386
 30
0.0
 10
-20.8959
 20
-1.2889
 30
0.0
 10
-20.8959
 20
-1.2889
 30
0.0
 10
-20.8959
 20
-1.2889
 30
0.0
 10
-20.8959
 20
-1.2889
 30
0.0
 10
-20.7401
 20
0.1078
 30
0.0
 10
-20.7401
 20
0.1078
 30
0.0
  0
SPLINE
  5
E8
330
1F
100
AcDbEntity
  8
DEFAULT_1
 62
   250
100
AcDbSpline
210
0.0
220
0.0
230
1.0
 70
     8
 71
     3
 72
    40
 73
    36
 74
     0
 42
0.0000000001
 43
0.0000000001
 40
0.0
 40
0.0
 40
0.0
 40
0.0
 40
0.1
 40
0.1
 40
0.1
 40
0.1
 40
0.2
 40
0.2
 40
0.2
 40
0.2
 40
0.3
 40
0.3
 40
0.3
 40
0.3
 40
0.4
 40
0.4
 40
0.4
 40
0.4
 40
0.5
 40
0.5
 40
0.5
 40
0.5
 40
0.6
 40
0.6
 40
0.6
 40
0.6
 40
0.7
 40
0.7
 40
0.7
 40
0.7
 40
0.8
 40
0.8
 40
0.8
 40
0.8
 40
1.0
 40
1.0
 40
1.0
 40
1.0
 10
-20.7122
 20
0.0744
 30
0.0
 10
-20.7122
 20
0.0744
 30
0.0
 10
-20.5111
 20
-1.5475
 30
0.0
 10
-20.5111
 20
-1.5475
 30
0.0
 10
-20.5111
 20
-1.5475
 30
0.0
 10
-20.5111
 20
-1.5475
 30
0.0
 10
-20.3775
 20
-1.7185
 30
0.0
 10
-20.3775
 20
-1.7185
 30
0.0
 10
-20.3775
 20
-1.7185
 30
0.0
 10
-20.3775
 20
-1.7185
 30
0.0
 10
-20.1595
 20
-1.7655
 30
0.0
 10
-20.1595
 20
-1.7655
 30
0.0
 10
-20.1595
 20
-1.7655
 30
0.0
 10
-20.1595
 20
-1.7655
 30
0.0
 10
-19.8637
 20
-1.7655
 30
0.0
 10
-19.8637
 20
-1.7655
 30
0.0
 10
-19.8637
 20
-1.7655
 30
0.0
 10
-19.8637
 20
-1.7655
 30
0.0
 10
-19.6614
 20
-1.7497
 30
0.0
 10
-19.6614
 20
-1.7497
 30
0.0
 10
-19.6614
 20
-1.7497
 30
0.0
 10
-19.6614
 20
-1.7497
 30
0.0
 10
-19.4746
 20
-1.7342
 30
0.0
 10
-19.4746
 20
-1.7342
 30
0.0
 10
-19.4746
 20
-1.7342
 30
0.0
 10
-19.4746
 20
-1.7342
 30
0.0
 10
-19.3656
 20
-1.5315
 30
0.0
 10
-19.3656
 20
-1.5315
 30
0.0
 10
-19.3656
 20
-1.5315
 30
0.0
 10
-19.3656
 20
-1.5315
 30
0.0
 10
-19.2878
 20
-1.2817
 30
0.0
 10
-19.2878
 20
-1.2817
 30
0.0
 10
-19.2878
 20
-1.2817
 30
0.0
 10
-19.2878
 20
-1.2817
 30
0.0
 10
-19.1321
 20
0.1007
 30
0.0
 10
-19.1321
 20
0.1007
 30
0.0
  0
SPLINE
  5
E9
330
1F
100
AcDbEntity
  8
DEFAULT_1
 62
   250
100
AcDbSpline
210
0.0
220
0.0
230
1.0
 70
     8
 71
     3
 72
    40
 73
    36
 74
     0
 42
0.0000000001
 43
0.0000000001
 40
0.0
 40
0.0
 40
0.0
 40
0.0
 40
0.1
 40
0.1
 40
0.1
 40
0.1
 40
0.2
 40
0.2
 40
0.2
 40
0.2
 40
0.3
 40
0.3
 40
0.3
 40
0.3
 40
0.4
 40
0.4
 40
0.4
 40
0.4
 40
0.5
 40
0.5
 40
0.5
 40
0.5
 40
0.6
 40
0.6
 40
0.6
 40
0.6
 40
0.7
 40
0.7
 40
0.7
 40
0.7
 40
0.8
 40
0.8
 40
0.8
 40
0.8
 40
1.0
 40
1.0
 40
1.0
 40
1.0
 10
-19.1123
 20
0.0673
 30
0.0
 10
-19.1123
 20
0.0673
 30
0.0
 10
-18.9112
 20
-1.5546
 30
0.0
 10
-18.9112
 20
-1.5546
 30
0.0
 10
-18.9112
 20
-1.5546
 30
0.0
 10
-18.9112
 20
-1.5546
 30
0.0
 10
-18.7776
 20
-1.7257
 30
0.0
 10
-18.7776
 20
-1.7257
 30
0.0
 10
-18.7776
 20
-1.7257
 30
0.0
 10
-18.7776
 20
-1.7257
 30
0.0
 10
-18.5596
 20
-1.7726
 30
0.0
 10
-18.5596
 20
-1.7726
 30
0.0
 10
-18.5596
 20
-1.7726
 30
0.0
 10
-18.5596
 20
-1.7726
 30
0.0
 10
-18.2638
 20
-1.7726
 30
0.0
 10
-18.2638
 20
-1.7726
 30
0.0
 10
-18.2638
 20
-1.7726
 30
0.0
 10
-18.2638
 20
-1.7726
 30
0.0
 10
-18.0615
 20
-1.7569
 30
0.0
 10
-18.0615
 20
-1.7569
 30
0.0
 10
-18.0615
 20
-1.7569
 30
0.0
 10
-18.0615
 20
-1.7569
 30
0.0
 10
-17.8747
 20
-1.7414
 30
0.0
 10
-17.8747
 20
-1.7414
 30
0.0
 10
-17.8747
 20
-1.7414
 30
0.0
 10
-17.8747
 20
-1.7414
 30
0.0
 10
-17.7657
 20
-1.5386
 30
0.0
 10
-17.7657
 20
-1.5386
 30
0.0
 10
-17.7657
 20
-1.5386
 30
0.0
 10
-17.7657
 20
-1.5386
 30
0.0
 10
-17.6879
 20
-1.2889
 30
0.0
 10
-17.6879
 20
-1.2889
 30
0.0
 10
-17.6879
 20
-1.2889
 30
0.0
 10
-17.6879
 20
-1.2889
 30
0.0
 10
-17.5321
 20
0.1078
 30
0.0
 10
-17.5321
 20
0.1078
 30
0.0
  0
SPLINE
  5
EA
330
1F
100
AcDbEntity
  8
DEFAULT_1
 62
   250
100
AcDbSpline
210
0.0
220
0.0
230
1.0
 70
     8
 71
     3
 72
    40
 73
    36
 74
     0
 42
0.0000000001
 43
0.0000000001
 40
0.0
 40
0.0
 40
0.0
 40
0.0
 40
0.1
 40
0.1
 40
0.1
 40
0.1
 40
0.2
 40
0.2
 40
0.2
 40
0.2
 40
0.3
 40
0.3
 40
0.3
 40
0.3
 40
0.4
 40
0.4
 40
0.4
 40
0.4
 40
0.5
 40
0.5
 40
0.5
 40
0.5
 40
0.6
 40
0.6
 40
0.6
 40
0.6
 40
0.7
 40
0.7
 40
0.7
 40
0.7
 40
0.8
 40
0.8
 40
0.8
 40
0.8
 40
1.0
 40
1.0
 40
1.0
 40
1.0
 10
-17.534
 20
0.0506
 30
0.0
 10
-17.534
 20
0.0506
 30
0.0
 10
-17.3329
 20
-1.5713
 30
0.0
 10
-17.3329
 20
-1.5713
 30
0.0
 10
-17.3329
 20
-1.5713
 30
0.0
 10
-17.3329
 20
-1.5713
 30
0.0
 10
-17.1994
 20
-1.7424
 30
0.0
 10
-17.1994
 20
-1.7424
 30
0.0
 10
-17.1994
 20
-1.7424
 30
0.0
 10
-17.1994
 20
-1.7424
 30
0.0
 10
-16.9813
 20
-1.7893
 30
0.0
 10
-16.9813
 20
-1.7893
 30
0.0
 10
-16.9813
 20
-1.7893
 30
0.0
 10
-16.9813
 20
-1.7893
 30
0.0
 10
-16.6855
 20
-1.7893
 30
0.0
 10
-16.6855
 20
-1.7893
 30
0.0
 10
-16.6855
 20
-1.7893
 30
0.0
 10
-16.6855
 20
-1.7893
 30
0.0
 10
-16.4832
 20
-1.7736
 30
0.0
 10
-16.4832
 20
-1.7736
 30
0.0
 10
-16.4832
 20
-1.7736
 30
0.0
 10
-16.4832
 20
-1.7736
 30
0.0
 10
-16.2964
 20
-1.7581
 30
0.0
 10
-16.2964
 20
-1.7581
 30
0.0
 10
-16.2964
 20
-1.7581
 30
0.0
 10
-16.2964
 20
-1.7581
 30
0.0
 10
-16.1874
 20
-1.5553
 30
0.0
 10
-16.1874
 20
-1.5553
 30
0.0
 10
-16.1874
 20
-1.5553
 30
0.0
 10
-16.1874
 20
-1.5553
 30
0.0
 10
-16.1097
 20
-1.3056
 30
0.0
 10
-16.1097
 20
-1.3056
 30
0.0
 10
-16.1097
 20
-1.3056
 30
0.0
 10
-16.1097
 20
-1.3056
 30
0.0
 10
-15.9539
 20
0.0768
 30
0.0
 10
-15.9539
 20
0.0768
 30
0.0
  0
SPLINE
  5
EB
330
1F
100
AcDbEntity
  8
DEFAULT_1
 62
   250
100
AcDbSpline
210
0.0
220
0.0
230
1.0
 70
     8
 71
     3
 72
    40
 73
    36
 74
     0
 42
0.0000000001
 43
0.0000000001
 40
0.0
 40
0.0
 40
0.0
 40
0.0
 40
0.1
 40
0.1
 40
0.1
 40
0.1
 40
0.2
 40
0.2
 40
0.2
 40
0.2
 40
0.3
 40
0.3
 40
0.3
 40
0.3
 40
0.4
 40
0.4
 40
0.4
 40
0.4
 40
0.5
 40
0.5
 40
0.5
 40
0.5
 40
0.6
 40
0.6
 40
0.6
 40
0.6
 40
0.7
 40
0.7
 40
0.7
 40
0.7
 40
0.8
 40
0.8
 40
0.8
 40
0.8
 40
1.0
 40
1.0
 40
1.0
 40
1.0
 10
-15.9341
 20
0.0434
 30
0.0
 10
-15.9341
 20
0.0434
 30
0.0
 10
-15.733
 20
-1.5785
 30
0.0
 10
-15.733
 20
-1.5785
 30
0.0
 10
-15.733
 20
-1.5785
 30
0.0
 10
-15.733
 20
-1.5785
 30
0.0
 10
-15.5994
 20
-1.7495
 30
0.0
 10
-15.5994
 20
-1.7495
 30
0.0
 10
-15.5994
 20
-1.7495
 30
0.0
 10
-15.5994
 20
-1.7495
 30
0.0
 10
-15.3814
 20
-1.7965
 30
0.0
 10
-15.3814
 20
-1.7965
 30
0.0
 10
-15.3814
 20
-1.7965
 30
0.0
 10
-15.3814
 20
-1.7965
 30
0.0
 10
-15.0856
 20
-1.7965
 30
0.0
 10
-15.0856
 20
-1.7965
 30
0.0
 10
-15.0856
 20
-1.7965
 30
0.0
 10
-15.0856
 20
-1.7965
 30
0.0
 10
-14.8833
 20
-1.7808
 30
0.0
 10
-14.8833
 20
-1.7808
 30
0.0
 10
-14.8833
 20
-1.7808
 30
0.0
 10
-14.8833
 20
-1.7808
 30
0.0
 10
-14.6965
 20
-1.7653
 30
0.0
 10
-14.6965
 20
-1.7653
 30
0.0
 10
-14.6965
 20
-1.7653
 30
0.0
 10
-14.6965
 20
-1.7653
 30
0.0
 10
-14.5875
 20
-1.5625
 30
0.0
 10
-14.5875
 20
-1.5625
 30
0.0
 10
-14.5875
 20
-1.5625
 30
0.0
 10
-14.5875
 20
-1.5625
 30
0.0
 10
-14.5097
 20
-1.3127
 30
0.0
 10
-14.5097
 20
-1.3127
 30
0.0
 10
-14.5097
 20
-1.3127
 30
0.0
 10
-14.5097
 20
-1.3127
 30
0.0
 10
-14.3539
 20
0.084
 30
0.0
 10
-14.3539
 20
0.084
 30
0.0
  0
SPLINE
  5
EC
330
1F
100
AcDbEntity
  8
DEFAULT_1
 62
   250
100
AcDbSpline
210
0.0
220
0.0
230
1.0
 70
     8
 71
     3
 72
    40
 73
    36
 74
     0
 42
0.0000000001
 43
0.0000000001
 40
0.0
 40
0.0
 40
0.0
 40
0.0
 40
0.1
 40
0.1
 40
0.1
 40
0.1
 40
0.2
 40
0.2
 40
0.2
 40
0.2
 40
0.3
 40
0.3
 40
0.3
 40
0.3
 40
0.4
 40
0.4
 40
0.4
 40
0.4
 40
0.5
 40
0.5
 40
0.5
 40
0.5
 40
0.6
 40
0.6
 40
0.6
 40
0.6
 40
0.7
 40
0.7
 40
0.7
 40
0.7
 40
0.8
 40
0.8
 40
0.8
 40
0.8
 40
1.0
 40
1.0
 40
1.0
 40
1.0
 10
-14.3454
 20
0.0744
 30
0.0
 10
-14.3454
 20
0.0744
 30
0.0
 10
-14.1443
 20
-1.5475
 30
0.0
 10
-14.1443
 20
-1.5475
 30
0.0
 10
-14.1443
 20
-1.5475
 30
0.0
 10
-14.1443
 20
-1.5475
 30
0.0
 10
-14.0107
 20
-1.7185
 30
0.0
 10
-14.0107
 20
-1.7185
 30
0.0
 10
-14.0107
 20
-1.7185
 30
0.0
 10
-14.0107
 20
-1.7185
 30
0.0
 10
-13.7926
 20
-1.7655
 30
0.0
 10
-13.7926
 20
-1.7655
 30
0.0
 10
-13.7926
 20
-1.7655
 30
0.0
 10
-13.7926
 20
-1.7655
 30
0.0
 10
-13.4968
 20
-1.7655
 30
0.0
 10
-13.4968
 20
-1.7655
 30
0.0
 10
-13.4968
 20
-1.7655
 30
0.0
 10
-13.4968
 20
-1.7655
 30
0.0
 10
-13.2945
 20
-1.7497
 30
0.0
 10
-13.2945
 20
-1.7497
 30
0.0
 10
-13.2945
 20
-1.7497
 30
0.0
 10
-13.2945
 20
-1.7497
 30
0.0
 10
-13.1078
 20
-1.7342
 30
0.0
 10
-13.1078
 20
-1.7342
 30
0.0
 10
-13.1078
 20
-1.7342
 30
0.0
 10
-13.1078
 20
-1.7342
 30
0.0
 10
-12.9987
 20
-1.5315
 30
0.0
 10
-12.9987
 20
-1.5315
 30
0.0
 10
-12.9987
 20
-1.5315
 30
0.0
 10
-12.9987
 20
-1.5315
 30
0.0
 10
-12.921
 20
-1.2817
 30
0.0
 10
-12.921
 20
-1.2817
 30
0.0
 10
-12.921
 20
-1.2817
 30
0.0
 10
-12.921
 20
-1.2817
 30
0.0
 10
-12.7652
 20
0.1007
 30
0.0
 10
-12.7652
 20
0.1007
 30
0.0
  0
SPLINE
  5
ED
330
1F
100
AcDbEntity
  8
DEFAULT_1
 62
   250
100
AcDbSpline
210
0.0
220
0.0
230
1.0
 70
     8
 71
     3
 72
    40
 73
    36
 74
     0
 42
0.0000000001
 43
0.0000000001
 40
0.0
 40
0.0
 40
0.0
 40
0.0
 40
0.1
 40
0.1
 40
0.1
 40
0.1
 40
0.2
 40
0.2
 40
0.2
 40
0.2
 40
0.3
 40
0.3
 40
0.3
 40
0.3
 40
0.4
 40
0.4
 40
0.4
 40
0.4
 40
0.5
 40
0.5
 40
0.5
 40
0.5
 40
0.6
 40
0.6
 40
0.6
 40
0.6
 40
0.7
 40
0.7
 40
0.7
 40
0.7
 40
0.8
 40
0.8
 40
0.8
 40
0.8
 40
1.0
 40
1.0
 40
1.0
 40
1.0
 10
-12.7454
 20
0.0673
 30
0.0
 10
-12.7454
 20
0.0673
 30
0.0
 10
-12.5443
 20
-1.5546
 30
0.0
 10
-12.5443
 20
-1.5546
 30
0.0
 10
-12.5443
 20
-1.5546
 30
0.0
 10
-12.5443
 20
-1.5546
 30
0.0
 10
-12.4107
 20
-1.7257
 30
0.0
 10
-12.4107
 20
-1.7257
 30
0.0
 10
-12.4107
 20
-1.7257
 30
0.0
 10
-12.4107
 20
-1.7257
 30
0.0
 10
-12.1927
 20
-1.7726
 30
0.0
 10
-12.1927
 20
-1.7726
 30
0.0
 10
-12.1927
 20
-1.7726
 30
0.0
 10
-12.1927
 20
-1.7726
 30
0.0
 10
-11.8969
 20
-1.7726
 30
0.0
 10
-11.8969
 20
-1.7726
 30
0.0
 10
-11.8969
 20
-1.7726
 30
0.0
 10
-11.8969
 20
-1.7726
 30
0.0
 10
-11.6946
 20
-1.7569
 30
0.0
 10
-11.6946
 20
-1.7569
 30
0.0
 10
-11.6946
 20
-1.7569
 30
0.0
 10
-11.6946
 20
-1.7569
 30
0.0
 10
-11.5078
 20
-1.7414
 30
0.0
 10
-11.5078
 20
-1.7414
 30
0.0
 10
-11.5078
 20
-1.7414
 30
0.0
 10
-11.5078
 20
-1.7414
 30
0.0
 10
-11.3988
 20
-1.5386
 30
0.0
 10
-11.3988
 20
-1.5386
 30
0.0
 10
-11.3988
 20
-1.5386
 30
0.0
 10
-11.3988
 20
-1.5386
 30
0.0
 10
-11.321
 20
-1.2889
 30
0.0
 10
-11.321
 20
-1.2889
 30
0.0
 10
-11.321
 20
-1.2889
 30
0.0
 10
-11.321
 20
-1.2889
 30
0.0
 10
-11.1653
 20
0.1078
 30
0.0
 10
-11.1653
 20
0.1078
 30
0.0
  0
SPLINE
  5
EE
330
1F
100
AcDbEntity
  8
DEFAULT_1
 62
   250
100
AcDbSpline
210
0.0
220
0.0
230
1.0
 70
     8
 71
     3
 72
    40
 73
    36
 74
     0
 42
0.0000000001
 43
0.0000000001
 40
0.0
 40
0.0
 40
0.0
 40
0.0
 40
0.1
 40
0.1
 40
0.1
 40
0.1
 40
0.2
 40
0.2
 40
0.2
 40
0.2
 40
0.3
 40
0.3
 40
0.3
 40
0.3
 40
0.4
 40
0.4
 40
0.4
 40
0.4
 40
0.5
 40
0.5
 40
0.5
 40
0.5
 40
0.6
 40
0.6
 40
0.6
 40
0.6
 40
0.7
 40
0.7
 40
0.7
 40
0.7
 40
0.8
 40
0.8
 40
0.8
 40
0.8
 40
1.0
 40
1.0
 40
1.0
 40
1.0
 10
-11.1373
 20
0.0744
 30
0.0
 10
-11.1373
 20
0.0744
 30
0.0
 10
-10.9363
 20
-1.5475
 30
0.0
 10
-10.9363
 20
-1.5475
 30
0.0
 10
-10.9363
 20
-1.5475
 30
0.0
 10
-10.9363
 20
-1.5475
 30
0.0
 10
-10.8027
 20
-1.7185
 30
0.0
 10
-10.8027
 20
-1.7185
 30
0.0
 10
-10.8027
 20
-1.7185
 30
0.0
 10
-10.8027
 20
-1.7185
 30
0.0
 10
-10.5846
 20
-1.7655
 30
0.0
 10
-10.5846
 20
-1.7655
 30
0.0
 10
-10.5846
 20
-1.7655
 30
0.0
 10
-10.5846
 20
-1.7655
 30
0.0
 10
-10.2888
 20
-1.7655
 30
0.0
 10
-10.2888
 20
-1.7655
 30
0.0
 10
-10.2888
 20
-1.7655
 30
0.0
 10
-10.2888
 20
-1.7655
 30
0.0
 10
-10.0865
 20
-1.7497
 30
0.0
 10
-10.0865
 20
-1.7497
 30
0.0
 10
-10.0865
 20
-1.7497
 30
0.0
 10
-10.0865
 20
-1.7497
 30
0.0
 10
-9.8998
 20
-1.7342
 30
0.0
 10
-9.8998
 20
-1.7342
 30
0.0
 10
-9.8998
 20
-1.7342
 30
0.0
 10
-9.8998
 20
-1.7342
 30
0.0
 10
-9.7907
 20
-1.5315
 30
0.0
 10
-9.7907
 20
-1.5315
 30
0.0
 10
-9.7907
 20
-1.5315
 30
0.0
 10
-9.7907
 20
-1.5315
 30
0.0
 10
-9.713
 20
-1.2817
 30
0.0
 10
-9.713
 20
-1.2817
 30
0.0
 10
-9.713
 20
-1.2817
 30
0.0
 10
-9.713
 20
-1.2817
 30
0.0
 10
-9.5572
 20
0.1007
 30
0.0
 10
-9.5572
 20
0.1007
 30
0.0
  0
SPLINE
  5
EF
330
1F
100
AcDbEntity
  8
DEFAULT_1
 62
   250
100
AcDbSpline
210
0.0
220
0.0
230
1.0
 70
     8
 71
     3
 72
    40
 73
    36
 74
     0
 42
0.0000000001
 43
0.0000000001
 40
0.0
 40
0.0
 40
0.0
 40
0.0
 40
0.1
 40
0.1
 40
0.1
 40
0.1
 40
0.2
 40
0.2
 40
0.2
 40
0.2
 40
0.3
 40
0.3
 40
0.3
 40
0.3
 40
0.4
 40
0.4
 40
0.4
 40
0.4
 40
0.5
 40
0.5
 40
0.5
 40
0.5
 40
0.6
 40
0.6
 40
0.6
 40
0.6
 40
0.7
 40
0.7
 40
0.7
 40
0.7
 40
0.8
 40
0.8
 40
0.8
 40
0.8
 40
1.0
 40
1.0
 40
1.0
 40
1.0
 10
-9.5374
 20
0.0673
 30
0.0
 10
-9.5374
 20
0.0673
 30
0.0
 10
-9.3363
 20
-1.5546
 30
0.0
 10
-9.3363
 20
-1.5546
 30
0.0
 10
-9.3363
 20
-1.5546
 30
0.0
 10
-9.3363
 20
-1.5546
 30
0.0
 10
-9.2027
 20
-1.7257
 30
0.0
 10
-9.2027
 20
-1.7257
 30
0.0
 10
-9.2027
 20
-1.7257
 30
0.0
 10
-9.2027
 20
-1.7257
 30
0.0
 10
-8.9847
 20
-1.7726
 30
0.0
 10
-8.9847
 20
-1.7726
 30
0.0
 10
-8.9847
 20
-1.7726
 30
0.0
 10
-8.9847
 20
-1.7726
 30
0.0
 10
-8.6889
 20
-1.7726
 30
0.0
 10
-8.6889
 20
-1.7726
 30
0.0
 10
-8.6889
 20
-1.7726
 30
0.0
 10
-8.6889
 20
-1.7726
 30
0.0
 10
-8.4866
 20
-1.7569
 30
0.0
 10
-8.4866
 20
-1.7569
 30
0.0
 10
-8.4866
 20
-1.7569
 30
0.0
 10
-8.4866
 20
-1.7569
 30
0.0
 10
-8.2998
 20
-1.7414
 30
0.0
 10
-8.2998
 20
-1.7414
 30
0.0
 10
-8.2998
 20
-1.7414
 30
0.0
 10
-8.2998
 20
-1.7414
 30
0.0
 10
-8.1908
 20
-1.5386
 30
0.0
 10
-8.1908
 20
-1.5386
 30
0.0
 10
-8.1908
 20
-1.5386
 30
0.0
 10
-8.1908
 20
-1.5386
 30
0.0
 10
-8.113
 20
-1.2889
 30
0.0
 10
-8.113
 20
-1.2889
 30
0.0
 10
-8.113
 20
-1.2889
 30
0.0
 10
-8.113
 20
-1.2889
 30
0.0
 10
-7.9573
 20
0.1078
 30
0.0
 10
-7.9573
 20
0.1078
 30
0.0
  0
SPLINE
  5
F0
330
1F
100
AcDbEntity
  8
DEFAULT_1
 62
   250
100
AcDbSpline
210
0.0
220
0.0
230
1.0
 70
     8
 71
     3
 72
    40
 73
    36
 74
     0
 42
0.0000000001
 43
0.0000000001
 40
0.0
 40
0.0
 40
0.0
 40
0.0
 40
0.1
 40
0.1
 40
0.1
 40
0.1
 40
0.2
 40
0.2
 40
0.2
 40
0.2
 40
0.3
 40
0.3
 40
0.3
 40
0.3
 40
0.4
 40
0.4
 40
0.4
 40
0.4
 40
0.5
 40
0.5
 40
0.5
 40
0.5
 40
0.6
 40
0.6
 40
0.6
 40
0.6
 40
0.7
 40
0.7
 40
0.7
 40
0.7
 40
0.8
 40
0.8
 40
0.8
 40
0.8
 40
1.0
 40
1.0
 40
1.0
 40
1.0
 10
-5.9389
 20
12.8614
 30
0.0
 10
-5.9389
 20
12.8614
 30
0.0
 10
-5.7378
 20
14.4833
 30
0.0
 10
-5.7378
 20
14.4833
 30
0.0
 10
-5.7378
 20
14.4833
 30
0.0
 10
-5.7378
 20
14.4833
 30
0.0
 10
-5.6042
 20
14.6543
 30
0.0
 10
-5.6042
 20
14.6543
 30
0.0
 10
-5.6042
 20
14.6543
 30
0.0
 10
-5.6042
 20
14.6543
 30
0.0
 10
-5.3862
 20
14.7013
 30
0.0
 10
-5.3862
 20
14.7013
 30
0.0
 10
-5.3862
 20
14.7013
 30
0.0
 10
-5.3862
 20
14.7013
 30
0.0
 10
-5.0904
 20
14.7013
 30
0.0
 10
-5.0904
 20
14.7013
 30
0.0
 10
-5.0904
 20
14.7013
 30
0.0
 10
-5.0904
 20
14.7013
 30
0.0
 10
-4.8881
 20
14.6856
 30
0.0
 10
-4.8881
 20
14.6856
 30
0.0
 10
-4.8881
 20
14.6856
 30
0.0
 10
-4.8881
 20
14.6856
 30
0.0
 10
-4.7013
 20
14.67
 30
0.0
 10
-4.7013
 20
14.67
 30
0.0
 10
-4.7013
 20
14.67
 30
0.0
 10
-4.7013
 20
14.67
 30
0.0
 10
-4.5923
 20
14.4673
 30
0.0
 10
-4.5923
 20
14.4673
 30
0.0
 10
-4.5923
 20
14.4673
 30
0.0
 10
-4.5923
 20
14.4673
 30
0.0
 10
-4.5145
 20
14.2175
 30
0.0
 10
-4.5145
 20
14.2175
 30
0.0
 10
-4.5145
 20
14.2175
 30
0.0
 10
-4.5145
 20
14.2175
 30
0.0
 10
-4.3587
 20
12.8351
 30
0.0
 10
-4.3587
 20
12.8351
 30
0.0
  0
SPLINE
  5
F1
330
1F
100
AcDbEntity
  8
DEFAULT_1
 62
   250
100
AcDbSpline
210
0.0
220
0.0
230
1.0
 70
     8
 71
     3
 72
    40
 73
    36
 74
     0
 42
0.0000000001
 43
0.0000000001
 40
0.0
 40
0.0
 40
0.0
 40
0.0
 40
0.1
 40
0.1
 40
0.1
 40
0.1
 40
0.2
 40
0.2
 40
0.2
 40
0.2
 40
0.3
 40
0.3
 40
0.3
 40
0.3
 40
0.4
 40
0.4
 40
0.4
 40
0.4
 40
0.5
 40
0.5
 40
0.5
 40
0.5
 40
0.6
 40
0.6
 40
0.6
 40
0.6
 40
0.7
 40
0.7
 40
0.7
 40
0.7
 40
0.8
 40
0.8
 40
0.8
 40
0.8
 40
1.0
 40
1.0
 40
1.0
 40
1.0
 10
-4.3389
 20
12.8685
 30
0.0
 10
-4.3389
 20
12.8685
 30
0.0
 10
-4.1378
 20
14.4904
 30
0.0
 10
-4.1378
 20
14.4904
 30
0.0
 10
-4.1378
 20
14.4904
 30
0.0
 10
-4.1378
 20
14.4904
 30
0.0
 10
-4.0043
 20
14.6615
 30
0.0
 10
-4.0043
 20
14.6615
 30
0.0
 10
-4.0043
 20
14.6615
 30
0.0
 10
-4.0043
 20
14.6615
 30
0.0
 10
-3.7862
 20
14.7085
 30
0.0
 10
-3.7862
 20
14.7085
 30
0.0
 10
-3.7862
 20
14.7085
 30
0.0
 10
-3.7862
 20
14.7085
 30
0.0
 10
-3.4904
 20
14.7085
 30
0.0
 10
-3.4904
 20
14.7085
 30
0.0
 10
-3.4904
 20
14.7085
 30
0.0
 10
-3.4904
 20
14.7085
 30
0.0
 10
-3.2881
 20
14.6927
 30
0.0
 10
-3.2881
 20
14.6927
 30
0.0
 10
-3.2881
 20
14.6927
 30
0.0
 10
-3.2881
 20
14.6927
 30
0.0
 10
-3.1014
 20
14.6772
 30
0.0
 10
-3.1014
 20
14.6772
 30
0.0
 10
-3.1014
 20
14.6772
 30
0.0
 10
-3.1014
 20
14.6772
 30
0.0
 10
-2.9923
 20
14.4744
 30
0.0
 10
-2.9923
 20
14.4744
 30
0.0
 10
-2.9923
 20
14.4744
 30
0.0
 10
-2.9923
 20
14.4744
 30
0.0
 10
-2.9146
 20
14.2247
 30
0.0
 10
-2.9146
 20
14.2247
 30
0.0
 10
-2.9146
 20
14.2247
 30
0.0
 10
-2.9146
 20
14.2247
 30
0.0
 10
-2.7588
 20
12.828
 30
0.0
 10
-2.7588
 20
12.828
 30
0.0
  0
SPLINE
  5
F2
330
1F
100
AcDbEntity
  8
DEFAULT_1
 62
   250
100
AcDbSpline
210
0.0
220
0.0
230
1.0
 70
     8
 71
     3
 72
    40
 73
    36
 74
     0
 42
0.0000000001
 43
0.0000000001
 40
0.0
 40
0.0
 40
0.0
 40
0.0
 40
0.1
 40
0.1
 40
0.1
 40
0.1
 40
0.2
 40
0.2
 40
0.2
 40
0.2
 40
0.3
 40
0.3
 40
0.3
 40
0.3
 40
0.4
 40
0.4
 40
0.4
 40
0.4
 40
0.5
 40
0.5
 40
0.5
 40
0.5
 40
0.6
 40
0.6
 40
0.6
 40
0.6
 40
0.7
 40
0.7
 40
0.7
 40
0.7
 40
0.8
 40
0.8
 40
0.8
 40
0.8
 40
1.0
 40
1.0
 40
1.0
 40
1.0
 10
-2.7309
 20
12.8614
 30
0.0
 10
-2.7309
 20
12.8614
 30
0.0
 10
-2.5298
 20
14.4833
 30
0.0
 10
-2.5298
 20
14.4833
 30
0.0
 10
-2.5298
 20
14.4833
 30
0.0
 10
-2.5298
 20
14.4833
 30
0.0
 10
-2.3962
 20
14.6543
 30
0.0
 10
-2.3962
 20
14.6543
 30
0.0
 10
-2.3962
 20
14.6543
 30
0.0
 10
-2.3962
 20
14.6543
 30
0.0
 10
-2.1782
 20
14.7013
 30
0.0
 10
-2.1782
 20
14.7013
 30
0.0
 10
-2.1782
 20
14.7013
 30
0.0
 10
-2.1782
 20
14.7013
 30
0.0
 10
-1.8824
 20
14.7013
 30
0.0
 10
-1.8824
 20
14.7013
 30
0.0
 10
-1.8824
 20
14.7013
 30
0.0
 10
-1.8824
 20
14.7013
 30
0.0
 10
-1.6801
 20
14.6856
 30
0.0
 10
-1.6801
 20
14.6856
 30
0.0
 10
-1.6801
 20
14.6856
 30
0.0
 10
-1.6801
 20
14.6856
 30
0.0
 10
-1.4933
 20
14.67
 30
0.0
 10
-1.4933
 20
14.67
 30
0.0
 10
-1.4933
 20
14.67
 30
0.0
 10
-1.4933
 20
14.67
 30
0.0
 10
-1.3843
 20
14.4673
 30
0.0
 10
-1.3843
 20
14.4673
 30
0.0
 10
-1.3843
 20
14.4673
 30
0.0
 10
-1.3843
 20
14.4673
 30
0.0
 10
-1.3065
 20
14.2175
 30
0.0
 10
-1.3065
 20
14.2175
 30
0.0
 10
-1.3065
 20
14.2175
 30
0.0
 10
-1.3065
 20
14.2175
 30
0.0
 10
-1.1507
 20
12.8351
 30
0.0
 10
-1.1507
 20
12.8351
 30
0.0
  0
SPLINE
  5
F3
330
1F
100
AcDbEntity
  8
DEFAULT_1
 62
   250
100
AcDbSpline
210
0.0
220
0.0
230
1.0
 70
     8
 71
     3
 72
    40
 73
    36
 74
     0
 42
0.0000000001
 43
0.0000000001
 40
0.0
 40
0.0
 40
0.0
 40
0.0
 40
0.1
 40
0.1
 40
0.1
 40
0.1
 40
0.2
 40
0.2
 40
0.2
 40
0.2
 40
0.3
 40
0.3
 40
0.3
 40
0.3
 40
0.4
 40
0.4
 40
0.4
 40
0.4
 40
0.5
 40
0.5
 40
0.5
 40
0.5
 40
0.6
 40
0.6
 40
0.6
 40
0.6
 40
0.7
 40
0.7
 40
0.7
 40
0.7
 40
0.8
 40
0.8
 40
0.8
 40
0.8
 40
1.0
 40
1.0
 40
1.0
 40
1.0
 10
-1.1309
 20
12.8685
 30
0.0
 10
-1.1309
 20
12.8685
 30
0.0
 10
-0.9298
 20
14.4904
 30
0.0
 10
-0.9298
 20
14.4904
 30
0.0
 10
-0.9298
 20
14.4904
 30
0.0
 10
-0.9298
 20
14.4904
 30
0.0
 10
-0.7963
 20
14.6615
 30
0.0
 10
-0.7963
 20
14.6615
 30
0.0
 10
-0.7963
 20
14.6615
 30
0.0
 10
-0.7963
 20
14.6615
 30
0.0
 10
-0.5782
 20
14.7085
 30
0.0
 10
-0.5782
 20
14.7085
 30
0.0
 10
-0.5782
 20
14.7085
 30
0.0
 10
-0.5782
 20
14.7085
 30
0.0
 10
-0.2824
 20
14.7085
 30
0.0
 10
-0.2824
 20
14.7085
 30
0.0
 10
-0.2824
 20
14.7085
 30
0.0
 10
-0.2824
 20
14.7085
 30
0.0
 10
-0.0801
 20
14.6927
 30
0.0
 10
-0.0801
 20
14.6927
 30
0.0
 10
-0.0801
 20
14.6927
 30
0.0
 10
-0.0801
 20
14.6927
 30
0.0
 10
0.1067
 20
14.6772
 30
0.0
 10
0.1067
 20
14.6772
 30
0.0
 10
0.1067
 20
14.6772
 30
0.0
 10
0.1067
 20
14.6772
 30
0.0
 10
0.2157
 20
14.4744
 30
0.0
 10
0.2157
 20
14.4744
 30
0.0
 10
0.2157
 20
14.4744
 30
0.0
 10
0.2157
 20
14.4744
 30
0.0
 10
0.2934
 20
14.2247
 30
0.0
 10
0.2934
 20
14.2247
 30
0.0
 10
0.2934
 20
14.2247
 30
0.0
 10
0.2934
 20
14.2247
 30
0.0
 10
0.4492
 20
12.828
 30
0.0
 10
0.4492
 20
12.828
 30
0.0
  0
SPLINE
  5
F4
330
1F
100
AcDbEntity
  8
DEFAULT_1
 62
   250
100
AcDbSpline
210
0.0
220
0.0
230
1.0
 70
     8
 71
     3
 72
    40
 73
    36
 74
     0
 42
0.0000000001
 43
0.0000000001
 40
0.0
 40
0.0
 40
0.0
 40
0.0
 40
0.1
 40
0.1
 40
0.1
 40
0.1
 40
0.2
 40
0.2
 40
0.2
 40
0.2
 40
0.3
 40
0.3
 40
0.3
 40
0.3
 40
0.4
 40
0.4
 40
0.4
 40
0.4
 40
0.5
 40
0.5
 40
0.5
 40
0.5
 40
0.6
 40
0.6
 40
0.6
 40
0.6
 40
0.7
 40
0.7
 40
0.7
 40
0.7
 40
0.8
 40
0.8
 40
0.8
 40
0.8
 40
1.0
 40
1.0
 40
1.0
 40
1.0
 10
0.4578
 20
12.8375
 30
0.0
 10
0.4578
 20
12.8375
 30
0.0
 10
0.6589
 20
14.4594
 30
0.0
 10
0.6589
 20
14.4594
 30
0.0
 10
0.6589
 20
14.4594
 30
0.0
 10
0.6589
 20
14.4594
 30
0.0
 10
0.7925
 20
14.6304
 30
0.0
 10
0.7925
 20
14.6304
 30
0.0
 10
0.7925
 20
14.6304
 30
0.0
 10
0.7925
 20
14.6304
 30
0.0
 10
1.0105
 20
14.6774
 30
0.0
 10
1.0105
 20
14.6774
 30
0.0
 10
1.0105
 20
14.6774
 30
0.0
 10
1.0105
 20
14.6774
 30
0.0
 10
1.3063
 20
14.6774
 30
0.0
 10
1.3063
 20
14.6774
 30
0.0
 10
1.3063
 20
14.6774
 30
0.0
 10
1.3063
 20
14.6774
 30
0.0
 10
1.5086
 20
14.6617
 30
0.0
 10
1.5086
 20
14.6617
 30
0.0
 10
1.5086
 20
14.6617
 30
0.0
 10
1.5086
 20
14.6617
 30
0.0
 10
1.6954
 20
14.6462
 30
0.0
 10
1.6954
 20
14.6462
 30
0.0
 10
1.6954
 20
14.6462
 30
0.0
 10
1.6954
 20
14.6462
 30
0.0
 10
1.8044
 20
14.4434
 30
0.0
 10
1.8044
 20
14.4434
 30
0.0
 10
1.8044
 20
14.4434
 30
0.0
 10
1.8044
 20
14.4434
 30
0.0
 10
1.8822
 20
14.1937
 30
0.0
 10
1.8822
 20
14.1937
 30
0.0
 10
1.8822
 20
14.1937
 30
0.0
 10
1.8822
 20
14.1937
 30
0.0
 10
2.0379
 20
12.8113
 30
0.0
 10
2.0379
 20
12.8113
 30
0.0
  0
SPLINE
  5
F5
330
1F
100
AcDbEntity
  8
DEFAULT_1
 62
   250
100
AcDbSpline
210
0.0
220
0.0
230
1.0
 70
     8
 71
     3
 72
    40
 73
    36
 74
     0
 42
0.0000000001
 43
0.0000000001
 40
0.0
 40
0.0
 40
0.0
 40
0.0
 40
0.1
 40
0.1
 40
0.1
 40
0.1
 40
0.2
 40
0.2
 40
0.2
 40
0.2
 40
0.3
 40
0.3
 40
0.3
 40
0.3
 40
0.4
 40
0.4
 40
0.4
 40
0.4
 40
0.5
 40
0.5
 40
0.5
 40
0.5
 40
0.6
 40
0.6
 40
0.6
 40
0.6
 40
0.7
 40
0.7
 40
0.7
 40
0.7
 40
0.8
 40
0.8
 40
0.8
 40
0.8
 40
1.0
 40
1.0
 40
1.0
 40
1.0
 10
2.0577
 20
12.8447
 30
0.0
 10
2.0577
 20
12.8447
 30
0.0
 10
2.2588
 20
14.4666
 30
0.0
 10
2.2588
 20
14.4666
 30
0.0
 10
2.2588
 20
14.4666
 30
0.0
 10
2.2588
 20
14.4666
 30
0.0
 10
2.3924
 20
14.6376
 30
0.0
 10
2.3924
 20
14.6376
 30
0.0
 10
2.3924
 20
14.6376
 30
0.0
 10
2.3924
 20
14.6376
 30
0.0
 10
2.6105
 20
14.6846
 30
0.0
 10
2.6105
 20
14.6846
 30
0.0
 10
2.6105
 20
14.6846
 30
0.0
 10
2.6105
 20
14.6846
 30
0.0
 10
2.9063
 20
14.6846
 30
0.0
 10
2.9063
 20
14.6846
 30
0.0
 10
2.9063
 20
14.6846
 30
0.0
 10
2.9063
 20
14.6846
 30
0.0
 10
3.1086
 20
14.6689
 30
0.0
 10
3.1086
 20
14.6689
 30
0.0
 10
3.1086
 20
14.6689
 30
0.0
 10
3.1086
 20
14.6689
 30
0.0
 10
3.2953
 20
14.6533
 30
0.0
 10
3.2953
 20
14.6533
 30
0.0
 10
3.2953
 20
14.6533
 30
0.0
 10
3.2953
 20
14.6533
 30
0.0
 10
3.4044
 20
14.4506
 30
0.0
 10
3.4044
 20
14.4506
 30
0.0
 10
3.4044
 20
14.4506
 30
0.0
 10
3.4044
 20
14.4506
 30
0.0
 10
3.4821
 20
14.2008
 30
0.0
 10
3.4821
 20
14.2008
 30
0.0
 10
3.4821
 20
14.2008
 30
0.0
 10
3.4821
 20
14.2008
 30
0.0
 10
3.6379
 20
12.8041
 30
0.0
 10
3.6379
 20
12.8041
 30
0.0
  0
SPLINE
  5
F6
330
1F
100
AcDbEntity
  8
DEFAULT_1
 62
   250
100
AcDbSpline
210
0.0
220
0.0
230
1.0
 70
     8
 71
     3
 72
    40
 73
    36
 74
     0
 42
0.0000000001
 43
0.0000000001
 40
0.0
 40
0.0
 40
0.0
 40
0.0
 40
0.1
 40
0.1
 40
0.1
 40
0.1
 40
0.2
 40
0.2
 40
0.2
 40
0.2
 40
0.3
 40
0.3
 40
0.3
 40
0.3
 40
0.4
 40
0.4
 40
0.4
 40
0.4
 40
0.5
 40
0.5
 40
0.5
 40
0.5
 40
0.6
 40
0.6
 40
0.6
 40
0.6
 40
0.7
 40
0.7
 40
0.7
 40
0.7
 40
0.8
 40
0.8
 40
0.8
 40
0.8
 40
1.0
 40
1.0
 40
1.0
 40
1.0
 10
3.6658
 20
12.8375
 30
0.0
 10
3.6658
 20
12.8375
 30
0.0
 10
3.8669
 20
14.4594
 30
0.0
 10
3.8669
 20
14.4594
 30
0.0
 10
3.8669
 20
14.4594
 30
0.0
 10
3.8669
 20
14.4594
 30
0.0
 10
4.0005
 20
14.6304
 30
0.0
 10
4.0005
 20
14.6304
 30
0.0
 10
4.0005
 20
14.6304
 30
0.0
 10
4.0005
 20
14.6304
 30
0.0
 10
4.2185
 20
14.6774
 30
0.0
 10
4.2185
 20
14.6774
 30
0.0
 10
4.2185
 20
14.6774
 30
0.0
 10
4.2185
 20
14.6774
 30
0.0
 10
4.5143
 20
14.6774
 30
0.0
 10
4.5143
 20
14.6774
 30
0.0
 10
4.5143
 20
14.6774
 30
0.0
 10
4.5143
 20
14.6774
 30
0.0
 10
4.7166
 20
14.6617
 30
0.0
 10
4.7166
 20
14.6617
 30
0.0
 10
4.7166
 20
14.6617
 30
0.0
 10
4.7166
 20
14.6617
 30
0.0
 10
4.9034
 20
14.6462
 30
0.0
 10
4.9034
 20
14.6462
 30
0.0
 10
4.9034
 20
14.6462
 30
0.0
 10
4.9034
 20
14.6462
 30
0.0
 10
5.0124
 20
14.4434
 30
0.0
 10
5.0124
 20
14.4434
 30
0.0
 10
5.0124
 20
14.4434
 30
0.0
 10
5.0124
 20
14.4434
 30
0.0
 10
5.0902
 20
14.1937
 30
0.0
 10
5.0902
 20
14.1937
 30
0.0
 10
5.0902
 20
14.1937
 30
0.0
 10
5.0902
 20
14.1937
 30
0.0
 10
5.2459
 20
12.8113
 30
0.0
 10
5.2459
 20
12.8113
 30
0.0
  0
SPLINE
  5
F7
330
1F
100
AcDbEntity
  8
DEFAULT_1
 62
   250
100
AcDbSpline
210
0.0
220
0.0
230
1.0
 70
     8
 71
     3
 72
    40
 73
    36
 74
     0
 42
0.0000000001
 43
0.0000000001
 40
0.0
 40
0.0
 40
0.0
 40
0.0
 40
0.1
 40
0.1
 40
0.1
 40
0.1
 40
0.2
 40
0.2
 40
0.2
 40
0.2
 40
0.3
 40
0.3
 40
0.3
 40
0.3
 40
0.4
 40
0.4
 40
0.4
 40
0.4
 40
0.5
 40
0.5
 40
0.5
 40
0.5
 40
0.6
 40
0.6
 40
0.6
 40
0.6
 40
0.7
 40
0.7
 40
0.7
 40
0.7
 40
0.8
 40
0.8
 40
0.8
 40
0.8
 40
1.0
 40
1.0
 40
1.0
 40
1.0
 10
5.2657
 20
12.8447
 30
0.0
 10
5.2657
 20
12.8447
 30
0.0
 10
5.4668
 20
14.4666
 30
0.0
 10
5.4668
 20
14.4666
 30
0.0
 10
5.4668
 20
14.4666
 30
0.0
 10
5.4668
 20
14.4666
 30
0.0
 10
5.6004
 20
14.6376
 30
0.0
 10
5.6004
 20
14.6376
 30
0.0
 10
5.6004
 20
14.6376
 30
0.0
 10
5.6004
 20
14.6376
 30
0.0
 10
5.8185
 20
14.6846
 30
0.0
 10
5.8185
 20
14.6846
 30
0.0
 10
5.8185
 20
14.6846
 30
0.0
 10
5.8185
 20
14.6846
 30
0.0
 10
6.1143
 20
14.6846
 30
0.0
 10
6.1143
 20
14.6846
 30
0.0
 10
6.1143
 20
14.6846
 30
0.0
 10
6.1143
 20
14.6846
 30
0.0
 10
6.3166
 20
14.6689
 30
0.0
 10
6.3166
 20
14.6689
 30
0.0
 10
6.3166
 20
14.6689
 30
0.0
 10
6.3166
 20
14.6689
 30
0.0
 10
6.5033
 20
14.6533
 30
0.0
 10
6.5033
 20
14.6533
 30
0.0
 10
6.5033
 20
14.6533
 30
0.0
 10
6.5033
 20
14.6533
 30
0.0
 10
6.6124
 20
14.4506
 30
0.0
 10
6.6124
 20
14.4506
 30
0.0
 10
6.6124
 20
14.4506
 30
0.0
 10
6.6124
 20
14.4506
 30
0.0
 10
6.6901
 20
14.2008
 30
0.0
 10
6.6901
 20
14.2008
 30
0.0
 10
6.6901
 20
14.2008
 30
0.0
 10
6.6901
 20
14.2008
 30
0.0
 10
6.8459
 20
12.8041
 30
0.0
 10
6.8459
 20
12.8041
 30
0.0
  0
SPLINE
  5
F8
330
1F
100
AcDbEntity
  8
DEFAULT_1
 62
   250
100
AcDbSpline
210
0.0
220
0.0
230
1.0
 70
     8
 71
     3
 72
    40
 73
    36
 74
     0
 42
0.0000000001
 43
0.0000000001
 40
0.0
 40
0.0
 40
0.0
 40
0.0
 40
0.1
 40
0.1
 40
0.1
 40
0.1
 40
0.2
 40
0.2
 40
0.2
 40
0.2
 40
0.3
 40
0.3
 40
0.3
 40
0.3
 40
0.4
 40
0.4
 40
0.4
 40
0.4
 40
0.5
 40
0.5
 40
0.5
 40
0.5
 40
0.6
 40
0.6
 40
0.6
 40
0.6
 40
0.7
 40
0.7
 40
0.7
 40
0.7
 40
0.8
 40
0.8
 40
0.8
 40
0.8
 40
1.0
 40
1.0
 40
1.0
 40
1.0
 10
6.844
 20
12.8614
 30
0.0
 10
6.844
 20
12.8614
 30
0.0
 10
7.0451
 20
14.4833
 30
0.0
 10
7.0451
 20
14.4833
 30
0.0
 10
7.0451
 20
14.4833
 30
0.0
 10
7.0451
 20
14.4833
 30
0.0
 10
7.1787
 20
14.6543
 30
0.0
 10
7.1787
 20
14.6543
 30
0.0
 10
7.1787
 20
14.6543
 30
0.0
 10
7.1787
 20
14.6543
 30
0.0
 10
7.3967
 20
14.7013
 30
0.0
 10
7.3967
 20
14.7013
 30
0.0
 10
7.3967
 20
14.7013
 30
0.0
 10
7.3967
 20
14.7013
 30
0.0
 10
7.6925
 20
14.7013
 30
0.0
 10
7.6925
 20
14.7013
 30
0.0
 10
7.6925
 20
14.7013
 30
0.0
 10
7.6925
 20
14.7013
 30
0.0
 10
7.8948
 20
14.6856
 30
0.0
 10
7.8948
 20
14.6856
 30
0.0
 10
7.8948
 20
14.6856
 30
0.0
 10
7.8948
 20
14.6856
 30
0.0
 10
8.0816
 20
14.67
 30
0.0
 10
8.0816
 20
14.67
 30
0.0
 10
8.0816
 20
14.67
 30
0.0
 10
8.0816
 20
14.67
 30
0.0
 10
8.1906
 20
14.4673
 30
0.0
 10
8.1906
 20
14.4673
 30
0.0
 10
8.1906
 20
14.4673
 30
0.0
 10
8.1906
 20
14.4673
 30
0.0
 10
8.2684
 20
14.2175
 30
0.0
 10
8.2684
 20
14.2175
 30
0.0
 10
8.2684
 20
14.2175
 30
0.0
 10
8.2684
 20
14.2175
 30
0.0
 10
8.4241
 20
12.8351
 30
0.0
 10
8.4241
 20
12.8351
 30
0.0
  0
SPLINE
  5
F9
330
1F
100
AcDbEntity
  8
DEFAULT_1
 62
   250
100
AcDbSpline
210
0.0
220
0.0
230
1.0
 70
     8
 71
     3
 72
    40
 73
    36
 74
     0
 42
0.0000000001
 43
0.0000000001
 40
0.0
 40
0.0
 40
0.0
 40
0.0
 40
0.1
 40
0.1
 40
0.1
 40
0.1
 40
0.2
 40
0.2
 40
0.2
 40
0.2
 40
0.3
 40
0.3
 40
0.3
 40
0.3
 40
0.4
 40
0.4
 40
0.4
 40
0.4
 40
0.5
 40
0.5
 40
0.5
 40
0.5
 40
0.6
 40
0.6
 40
0.6
 40
0.6
 40
0.7
 40
0.7
 40
0.7
 40
0.7
 40
0.8
 40
0.8
 40
0.8
 40
0.8
 40
1.0
 40
1.0
 40
1.0
 40
1.0
 10
8.4439
 20
12.8685
 30
0.0
 10
8.4439
 20
12.8685
 30
0.0
 10
8.645
 20
14.4904
 30
0.0
 10
8.645
 20
14.4904
 30
0.0
 10
8.645
 20
14.4904
 30
0.0
 10
8.645
 20
14.4904
 30
0.0
 10
8.7786
 20
14.6615
 30
0.0
 10
8.7786
 20
14.6615
 30
0.0
 10
8.7786
 20
14.6615
 30
0.0
 10
8.7786
 20
14.6615
 30
0.0
 10
8.9967
 20
14.7085
 30
0.0
 10
8.9967
 20
14.7085
 30
0.0
 10
8.9967
 20
14.7085
 30
0.0
 10
8.9967
 20
14.7085
 30
0.0
 10
9.2925
 20
14.7085
 30
0.0
 10
9.2925
 20
14.7085
 30
0.0
 10
9.2925
 20
14.7085
 30
0.0
 10
9.2925
 20
14.7085
 30
0.0
 10
9.4947
 20
14.6927
 30
0.0
 10
9.4947
 20
14.6927
 30
0.0
 10
9.4947
 20
14.6927
 30
0.0
 10
9.4947
 20
14.6927
 30
0.0
 10
9.6815
 20
14.6772
 30
0.0
 10
9.6815
 20
14.6772
 30
0.0
 10
9.6815
 20
14.6772
 30
0.0
 10
9.6815
 20
14.6772
 30
0.0
 10
9.7905
 20
14.4744
 30
0.0
 10
9.7905
 20
14.4744
 30
0.0
 10
9.7905
 20
14.4744
 30
0.0
 10
9.7905
 20
14.4744
 30
0.0
 10
9.8683
 20
14.2247
 30
0.0
 10
9.8683
 20
14.2247
 30
0.0
 10
9.8683
 20
14.2247
 30
0.0
 10
9.8683
 20
14.2247
 30
0.0
 10
10.0241
 20
12.828
 30
0.0
 10
10.0241
 20
12.828
 30
0.0
  0
SPLINE
  5
FA
330
1F
100
AcDbEntity
  8
DEFAULT_1
 62
   250
100
AcDbSpline
210
0.0
220
0.0
230
1.0
 70
     8
 71
     3
 72
    40
 73
    36
 74
     0
 42
0.0000000001
 43
0.0000000001
 40
0.0
 40
0.0
 40
0.0
 40
0.0
 40
0.1
 40
0.1
 40
0.1
 40
0.1
 40
0.2
 40
0.2
 40
0.2
 40
0.2
 40
0.3
 40
0.3
 40
0.3
 40
0.3
 40
0.4
 40
0.4
 40
0.4
 40
0.4
 40
0.5
 40
0.5
 40
0.5
 40
0.5
 40
0.6
 40
0.6
 40
0.6
 40
0.6
 40
0.7
 40
0.7
 40
0.7
 40
0.7
 40
0.8
 40
0.8
 40
0.8
 40
0.8
 40
1.0
 40
1.0
 40
1.0
 40
1.0
 10
10.0327
 20
12.8375
 30
0.0
 10
10.0327
 20
12.8375
 30
0.0
 10
10.2338
 20
14.4594
 30
0.0
 10
10.2338
 20
14.4594
 30
0.0
 10
10.2338
 20
14.4594
 30
0.0
 10
10.2338
 20
14.4594
 30
0.0
 10
10.3674
 20
14.6304
 30
0.0
 10
10.3674
 20
14.6304
 30
0.0
 10
10.3674
 20
14.6304
 30
0.0
 10
10.3674
 20
14.6304
 30
0.0
 10
10.5854
 20
14.6774
 30
0.0
 10
10.5854
 20
14.6774
 30
0.0
 10
10.5854
 20
14.6774
 30
0.0
 10
10.5854
 20
14.6774
 30
0.0
 10
10.8812
 20
14.6774
 30
0.0
 10
10.8812
 20
14.6774
 30
0.0
 10
10.8812
 20
14.6774
 30
0.0
 10
10.8812
 20
14.6774
 30
0.0
 10
11.0835
 20
14.6617
 30
0.0
 10
11.0835
 20
14.6617
 30
0.0
 10
11.0835
 20
14.6617
 30
0.0
 10
11.0835
 20
14.6617
 30
0.0
 10
11.2703
 20
14.6462
 30
0.0
 10
11.2703
 20
14.6462
 30
0.0
 10
11.2703
 20
14.6462
 30
0.0
 10
11.2703
 20
14.6462
 30
0.0
 10
11.3793
 20
14.4434
 30
0.0
 10
11.3793
 20
14.4434
 30
0.0
 10
11.3793
 20
14.4434
 30
0.0
 10
11.3793
 20
14.4434
 30
0.0
 10
11.457
 20
14.1937
 30
0.0
 10
11.457
 20
14.1937
 30
0.0
 10
11.457
 20
14.1937
 30
0.0
 10
11.457
 20
14.1937
 30
0.0
 10
11.6128
 20
12.8113
 30
0.0
 10
11.6128
 20
12.8113
 30
0.0
  0
SPLINE
  5
FB
330
1F
100
AcDbEntity
  8
DEFAULT_1
 62
   250
100
AcDbSpline
210
0.0
220
0.0
230
1.0
 70
     8
 71
     3
 72
    40
 73
    36
 74
     0
 42
0.0000000001
 43
0.0000000001
 40
0.0
 40
0.0
 40
0.0
 40
0.0
 40
0.1
 40
0.1
 40
0.1
 40
0.1
 40
0.2
 40
0.2
 40
0.2
 40
0.2
 40
0.3
 40
0.3
 40
0.3
 40
0.3
 40
0.4
 40
0.4
 40
0.4
 40
0.4
 40
0.5
 40
0.5
 40
0.5
 40
0.5
 40
0.6
 40
0.6
 40
0.6
 40
0.6
 40
0.7
 40
0.7
 40
0.7
 40
0.7
 40
0.8
 40
0.8
 40
0.8
 40
0.8
 40
1.0
 40
1.0
 40
1.0
 40
1.0
 10
11.6326
 20
12.8447
 30
0.0
 10
11.6326
 20
12.8447
 30
0.0
 10
11.8337
 20
14.4666
 30
0.0
 10
11.8337
 20
14.4666
 30
0.0
 10
11.8337
 20
14.4666
 30
0.0
 10
11.8337
 20
14.4666
 30
0.0
 10
11.9673
 20
14.6376
 30
0.0
 10
11.9673
 20
14.6376
 30
0.0
 10
11.9673
 20
14.6376
 30
0.0
 10
11.9673
 20
14.6376
 30
0.0
 10
12.1853
 20
14.6846
 30
0.0
 10
12.1853
 20
14.6846
 30
0.0
 10
12.1853
 20
14.6846
 30
0.0
 10
12.1853
 20
14.6846
 30
0.0
 10
12.4811
 20
14.6846
 30
0.0
 10
12.4811
 20
14.6846
 30
0.0
 10
12.4811
 20
14.6846
 30
0.0
 10
12.4811
 20
14.6846
 30
0.0
 10
12.6834
 20
14.6689
 30
0.0
 10
12.6834
 20
14.6689
 30
0.0
 10
12.6834
 20
14.6689
 30
0.0
 10
12.6834
 20
14.6689
 30
0.0
 10
12.8702
 20
14.6533
 30
0.0
 10
12.8702
 20
14.6533
 30
0.0
 10
12.8702
 20
14.6533
 30
0.0
 10
12.8702
 20
14.6533
 30
0.0
 10
12.9792
 20
14.4506
 30
0.0
 10
12.9792
 20
14.4506
 30
0.0
 10
12.9792
 20
14.4506
 30
0.0
 10
12.9792
 20
14.4506
 30
0.0
 10
13.057
 20
14.2008
 30
0.0
 10
13.057
 20
14.2008
 30
0.0
 10
13.057
 20
14.2008
 30
0.0
 10
13.057
 20
14.2008
 30
0.0
 10
13.2128
 20
12.8041
 30
0.0
 10
13.2128
 20
12.8041
 30
0.0
  0
SPLINE
  5
FC
330
1F
100
AcDbEntity
  8
DEFAULT_1
 62
   250
100
AcDbSpline
210
0.0
220
0.0
230
1.0
 70
     8
 71
     3
 72
    40
 73
    36
 74
     0
 42
0.0000000001
 43
0.0000000001
 40
0.0
 40
0.0
 40
0.0
 40
0.0
 40
0.1
 40
0.1
 40
0.1
 40
0.1
 40
0.2
 40
0.2
 40
0.2
 40
0.2
 40
0.3
 40
0.3
 40
0.3
 40
0.3
 40
0.4
 40
0.4
 40
0.4
 40
0.4
 40
0.5
 40
0.5
 40
0.5
 40
0.5
 40
0.6
 40
0.6
 40
0.6
 40
0.6
 40
0.7
 40
0.7
 40
0.7
 40
0.7
 40
0.8
 40
0.8
 40
0.8
 40
0.8
 40
1.0
 40
1.0
 40
1.0
 40
1.0
 10
13.2407
 20
12.8375
 30
0.0
 10
13.2407
 20
12.8375
 30
0.0
 10
13.4418
 20
14.4594
 30
0.0
 10
13.4418
 20
14.4594
 30
0.0
 10
13.4418
 20
14.4594
 30
0.0
 10
13.4418
 20
14.4594
 30
0.0
 10
13.5754
 20
14.6304
 30
0.0
 10
13.5754
 20
14.6304
 30
0.0
 10
13.5754
 20
14.6304
 30
0.0
 10
13.5754
 20
14.6304
 30
0.0
 10
13.7934
 20
14.6774
 30
0.0
 10
13.7934
 20
14.6774
 30
0.0
 10
13.7934
 20
14.6774
 30
0.0
 10
13.7934
 20
14.6774
 30
0.0
 10
14.0892
 20
14.6774
 30
0.0
 10
14.0892
 20
14.6774
 30
0.0
 10
14.0892
 20
14.6774
 30
0.0
 10
14.0892
 20
14.6774
 30
0.0
 10
14.2915
 20
14.6617
 30
0.0
 10
14.2915
 20
14.6617
 30
0.0
 10
14.2915
 20
14.6617
 30
0.0
 10
14.2915
 20
14.6617
 30
0.0
 10
14.4783
 20
14.6462
 30
0.0
 10
14.4783
 20
14.6462
 30
0.0
 10
14.4783
 20
14.6462
 30
0.0
 10
14.4783
 20
14.6462
 30
0.0
 10
14.5873
 20
14.4434
 30
0.0
 10
14.5873
 20
14.4434
 30
0.0
 10
14.5873
 20
14.4434
 30
0.0
 10
14.5873
 20
14.4434
 30
0.0
 10
14.6651
 20
14.1937
 30
0.0
 10
14.6651
 20
14.1937
 30
0.0
 10
14.6651
 20
14.1937
 30
0.0
 10
14.6651
 20
14.1937
 30
0.0
 10
14.8208
 20
12.8113
 30
0.0
 10
14.8208
 20
12.8113
 30
0.0
  0
SPLINE
  5
FD
330
1F
100
AcDbEntity
  8
DEFAULT_1
 62
   250
100
AcDbSpline
210
0.0
220
0.0
230
1.0
 70
     8
 71
     3
 72
    40
 73
    36
 74
     0
 42
0.0000000001
 43
0.0000000001
 40
0.0
 40
0.0
 40
0.0
 40
0.0
 40
0.1
 40
0.1
 40
0.1
 40
0.1
 40
0.2
 40
0.2
 40
0.2
 40
0.2
 40
0.3
 40
0.3
 40
0.3
 40
0.3
 40
0.4
 40
0.4
 40
0.4
 40
0.4
 40
0.5
 40
0.5
 40
0.5
 40
0.5
 40
0.6
 40
0.6
 40
0.6
 40
0.6
 40
0.7
 40
0.7
 40
0.7
 40
0.7
 40
0.8
 40
0.8
 40
0.8
 40
0.8
 40
1.0
 40
1.0
 40
1.0
 40
1.0
 10
14.8406
 20
12.8447
 30
0.0
 10
14.8406
 20
12.8447
 30
0.0
 10
15.0417
 20
14.4666
 30
0.0
 10
15.0417
 20
14.4666
 30
0.0
 10
15.0417
 20
14.4666
 30
0.0
 10
15.0417
 20
14.4666
 30
0.0
 10
15.1753
 20
14.6376
 30
0.0
 10
15.1753
 20
14.6376
 30
0.0
 10
15.1753
 20
14.6376
 30
0.0
 10
15.1753
 20
14.6376
 30
0.0
 10
15.3933
 20
14.6846
 30
0.0
 10
15.3933
 20
14.6846
 30
0.0
 10
15.3933
 20
14.6846
 30
0.0
 10
15.3933
 20
14.6846
 30
0.0
 10
15.6891
 20
14.6846
 30
0.0
 10
15.6891
 20
14.6846
 30
0.0
 10
15.6891
 20
14.6846
 30
0.0
 10
15.6891
 20
14.6846
 30
0.0
 10
15.8914
 20
14.6689
 30
0.0
 10
15.8914
 20
14.6689
 30
0.0
 10
15.8914
 20
14.6689
 30
0.0
 10
15.8914
 20
14.6689
 30
0.0
 10
16.0782
 20
14.6533
 30
0.0
 10
16.0782
 20
14.6533
 30
0.0
 10
16.0782
 20
14.6533
 30
0.0
 10
16.0782
 20
14.6533
 30
0.0
 10
16.1872
 20
14.4506
 30
0.0
 10
16.1872
 20
14.4506
 30
0.0
 10
16.1872
 20
14.4506
 30
0.0
 10
16.1872
 20
14.4506
 30
0.0
 10
16.265
 20
14.2008
 30
0.0
 10
16.265
 20
14.2008
 30
0.0
 10
16.265
 20
14.2008
 30
0.0
 10
16.265
 20
14.2008
 30
0.0
 10
16.4208
 20
12.8041
 30
0.0
 10
16.4208
 20
12.8041
 30
0.0
  0
SPLINE
  5
FE
330
1F
100
AcDbEntity
  8
DEFAULT_1
 62
   250
100
AcDbSpline
210
0.0
220
0.0
230
1.0
 70
    24
 71
     3
 72
     8
 73
     4
 74
     0
 42
0.0000000001
 43
0.0000000001
 40
0.0
 40
0.0
 40
0.0
 40
0.0
 40
1.0
 40
1.0
 40
1.0
 40
1.0
 10
17.0451
 20
-1.5028
 30
0.0
 10
17.0451
 20
-1.5028
 30
0.0
 10
17.254
 20
0.119
 30
0.0
 10
17.254
 20
0.119
 30
0.0
  0
SPLINE
  5
FF
330
1F
100
AcDbEntity
  8
DEFAULT_1
 62
   250
100
AcDbSpline
210
0.0
220
0.0
230
1.0
 70
    24
 71
     3
 72
     8
 73
     4
 74
     0
 42
0.0000000001
 43
0.0000000001
 40
0.0
 40
0.0
 40
0.0
 40
0.0
 40
1.0
 40
1.0
 40
1.0
 40
1.0
 10
16.4246
 20
0.119
 30
0.0
 10
16.4246
 20
0.119
 30
0.0
 10
16.6333
 20
-1.5028
 30
0.0
 10
16.6333
 20
-1.5028
 30
0.0
  0
SPLINE
  5
100
330
1F
100
AcDbEntity
  8
DEFAULT_1
 62
   250
100
AcDbSpline
210
0.0
220
0.0
230
1.0
 70
     8
 71
     3
 72
    12
 73
     8
 74
     0
 42
0.0000000001
 43
0.0000000001
 40
0.0
 40
0.0
 40
0.0
 40
0.0
 40
0.3333333333333333
 40
0.3333333333333333
 40
0.3333333333333333
 40
0.3333333333333333
 40
1.0
 40
1.0
 40
1.0
 40
1.0
 10
16.6333
 20
-1.5028
 30
0.0
 10
16.6464
 20
-1.6033
 30
0.0
 10
16.7345
 20
-1.6782
 30
0.0
 10
16.8392
 20
-1.6782
 30
0.0
 10
16.8392
 20
-1.6782
 30
0.0
 10
16.9439
 20
-1.6782
 30
0.0
 10
17.0319
 20
-1.6033
 30
0.0
 10
17.0451
 20
-1.5028
 30
0.0
  0
SPLINE
  5
101
330
1F
100
AcDbEntity
  8
DEFAULT_1
 62
   250
100
AcDbSpline
210
0.0
220
0.0
230
1.0
 70
     8
 71
     3
 72
    40
 73
    36
 74
     0
 42
0.0000000001
 43
0.0000000001
 40
0.0
 40
0.0
 40
0.0
 40
0.0
 40
0.1
 40
0.1
 40
0.1
 40
0.1
 40
0.2
 40
0.2
 40
0.2
 40
0.2
 40
0.3
 40
0.3
 40
0.3
 40
0.3
 40
0.4
 40
0.4
 40
0.4
 40
0.4
 40
0.5
 40
0.5
 40
0.5
 40
0.5
 40
0.6
 40
0.6
 40
0.6
 40
0.6
 40
0.7
 40
0.7
 40
0.7
 40
0.7
 40
0.8
 40
0.8
 40
0.8
 40
0.8
 40
1.0
 40
1.0
 40
1.0
 40
1.0
 10
-5.9389
 20
0.0394
 30
0.0
 10
-5.9389
 20
0.0394
 30
0.0
 10
-5.7378
 20
-1.5825
 30
0.0
 10
-5.7378
 20
-1.5825
 30
0.0
 10
-5.7378
 20
-1.5825
 30
0.0
 10
-5.7378
 20
-1.5825
 30
0.0
 10
-5.6042
 20
-1.7536
 30
0.0
 10
-5.6042
 20
-1.7536
 30
0.0
 10
-5.6042
 20
-1.7536
 30
0.0
 10
-5.6042
 20
-1.7536
 30
0.0
 10
-5.3862
 20
-1.8006
 30
0.0
 10
-5.3862
 20
-1.8006
 30
0.0
 10
-5.3862
 20
-1.8006
 30
0.0
 10
-5.3862
 20
-1.8006
 30
0.0
 10
-5.0904
 20
-1.8006
 30
0.0
 10
-5.0904
 20
-1.8006
 30
0.0
 10
-5.0904
 20
-1.8006
 30
0.0
 10
-5.0904
 20
-1.8006
 30
0.0
 10
-4.8881
 20
-1.7848
 30
0.0
 10
-4.8881
 20
-1.7848
 30
0.0
 10
-4.8881
 20
-1.7848
 30
0.0
 10
-4.8881
 20
-1.7848
 30
0.0
 10
-4.7013
 20
-1.7693
 30
0.0
 10
-4.7013
 20
-1.7693
 30
0.0
 10
-4.7013
 20
-1.7693
 30
0.0
 10
-4.7013
 20
-1.7693
 30
0.0
 10
-4.5923
 20
-1.5665
 30
0.0
 10
-4.5923
 20
-1.5665
 30
0.0
 10
-4.5923
 20
-1.5665
 30
0.0
 10
-4.5923
 20
-1.5665
 30
0.0
 10
-4.5145
 20
-1.3168
 30
0.0
 10
-4.5145
 20
-1.3168
 30
0.0
 10
-4.5145
 20
-1.3168
 30
0.0
 10
-4.5145
 20
-1.3168
 30
0.0
 10
-4.3587
 20
0.0656
 30
0.0
 10
-4.3587
 20
0.0656
 30
0.0
  0
SPLINE
  5
102
330
1F
100
AcDbEntity
  8
DEFAULT_1
 62
   250
100
AcDbSpline
210
0.0
220
0.0
230
1.0
 70
     8
 71
     3
 72
    40
 73
    36
 74
     0
 42
0.0000000001
 43
0.0000000001
 40
0.0
 40
0.0
 40
0.0
 40
0.0
 40
0.1
 40
0.1
 40
0.1
 40
0.1
 40
0.2
 40
0.2
 40
0.2
 40
0.2
 40
0.3
 40
0.3
 40
0.3
 40
0.3
 40
0.4
 40
0.4
 40
0.4
 40
0.4
 40
0.5
 40
0.5
 40
0.5
 40
0.5
 40
0.6
 40
0.6
 40
0.6
 40
0.6
 40
0.7
 40
0.7
 40
0.7
 40
0.7
 40
0.8
 40
0.8
 40
0.8
 40
0.8
 40
1.0
 40
1.0
 40
1.0
 40
1.0
 10
-4.3389
 20
0.0322
 30
0.0
 10
-4.3389
 20
0.0322
 30
0.0
 10
-4.1378
 20
-1.5897
 30
0.0
 10
-4.1378
 20
-1.5897
 30
0.0
 10
-4.1378
 20
-1.5897
 30
0.0
 10
-4.1378
 20
-1.5897
 30
0.0
 10
-4.0043
 20
-1.7607
 30
0.0
 10
-4.0043
 20
-1.7607
 30
0.0
 10
-4.0043
 20
-1.7607
 30
0.0
 10
-4.0043
 20
-1.7607
 30
0.0
 10
-3.7862
 20
-1.8077
 30
0.0
 10
-3.7862
 20
-1.8077
 30
0.0
 10
-3.7862
 20
-1.8077
 30
0.0
 10
-3.7862
 20
-1.8077
 30
0.0
 10
-3.4904
 20
-1.8077
 30
0.0
 10
-3.4904
 20
-1.8077
 30
0.0
 10
-3.4904
 20
-1.8077
 30
0.0
 10
-3.4904
 20
-1.8077
 30
0.0
 10
-3.2881
 20
-1.792
 30
0.0
 10
-3.2881
 20
-1.792
 30
0.0
 10
-3.2881
 20
-1.792
 30
0.0
 10
-3.2881
 20
-1.792
 30
0.0
 10
-3.1014
 20
-1.7765
 30
0.0
 10
-3.1014
 20
-1.7765
 30
0.0
 10
-3.1014
 20
-1.7765
 30
0.0
 10
-3.1014
 20
-1.7765
 30
0.0
 10
-2.9923
 20
-1.5737
 30
0.0
 10
-2.9923
 20
-1.5737
 30
0.0
 10
-2.9923
 20
-1.5737
 30
0.0
 10
-2.9923
 20
-1.5737
 30
0.0
 10
-2.9146
 20
-1.3239
 30
0.0
 10
-2.9146
 20
-1.3239
 30
0.0
 10
-2.9146
 20
-1.3239
 30
0.0
 10
-2.9146
 20
-1.3239
 30
0.0
 10
-2.7588
 20
0.0728
 30
0.0
 10
-2.7588
 20
0.0728
 30
0.0
  0
SPLINE
  5
103
330
1F
100
AcDbEntity
  8
DEFAULT_1
 62
   250
100
AcDbSpline
210
0.0
220
0.0
230
1.0
 70
     8
 71
     3
 72
    40
 73
    36
 74
     0
 42
0.0000000001
 43
0.0000000001
 40
0.0
 40
0.0
 40
0.0
 40
0.0
 40
0.1
 40
0.1
 40
0.1
 40
0.1
 40
0.2
 40
0.2
 40
0.2
 40
0.2
 40
0.3
 40
0.3
 40
0.3
 40
0.3
 40
0.4
 40
0.4
 40
0.4
 40
0.4
 40
0.5
 40
0.5
 40
0.5
 40
0.5
 40
0.6
 40
0.6
 40
0.6
 40
0.6
 40
0.7
 40
0.7
 40
0.7
 40
0.7
 40
0.8
 40
0.8
 40
0.8
 40
0.8
 40
1.0
 40
1.0
 40
1.0
 40
1.0
 10
-2.7309
 20
0.0394
 30
0.0
 10
-2.7309
 20
0.0394
 30
0.0
 10
-2.5298
 20
-1.5825
 30
0.0
 10
-2.5298
 20
-1.5825
 30
0.0
 10
-2.5298
 20
-1.5825
 30
0.0
 10
-2.5298
 20
-1.5825
 30
0.0
 10
-2.3962
 20
-1.7536
 30
0.0
 10
-2.3962
 20
-1.7536
 30
0.0
 10
-2.3962
 20
-1.7536
 30
0.0
 10
-2.3962
 20
-1.7536
 30
0.0
 10
-2.1782
 20
-1.8006
 30
0.0
 10
-2.1782
 20
-1.8006
 30
0.0
 10
-2.1782
 20
-1.8006
 30
0.0
 10
-2.1782
 20
-1.8006
 30
0.0
 10
-1.8824
 20
-1.8006
 30
0.0
 10
-1.8824
 20
-1.8006
 30
0.0
 10
-1.8824
 20
-1.8006
 30
0.0
 10
-1.8824
 20
-1.8006
 30
0.0
 10
-1.6801
 20
-1.7848
 30
0.0
 10
-1.6801
 20
-1.7848
 30
0.0
 10
-1.6801
 20
-1.7848
 30
0.0
 10
-1.6801
 20
-1.7848
 30
0.0
 10
-1.4933
 20
-1.7693
 30
0.0
 10
-1.4933
 20
-1.7693
 30
0.0
 10
-1.4933
 20
-1.7693
 30
0.0
 10
-1.4933
 20
-1.7693
 30
0.0
 10
-1.3843
 20
-1.5665
 30
0.0
 10
-1.3843
 20
-1.5665
 30
0.0
 10
-1.3843
 20
-1.5665
 30
0.0
 10
-1.3843
 20
-1.5665
 30
0.0
 10
-1.3065
 20
-1.3168
 30
0.0
 10
-1.3065
 20
-1.3168
 30
0.0
 10
-1.3065
 20
-1.3168
 30
0.0
 10
-1.3065
 20
-1.3168
 30
0.0
 10
-1.1507
 20
0.0656
 30
0.0
 10
-1.1507
 20
0.0656
 30
0.0
  0
SPLINE
  5
104
330
1F
100
AcDbEntity
  8
DEFAULT_1
 62
   250
100
AcDbSpline
210
0.0
220
0.0
230
1.0
 70
     8
 71
     3
 72
    40
 73
    36
 74
     0
 42
0.0000000001
 43
0.0000000001
 40
0.0
 40
0.0
 40
0.0
 40
0.0
 40
0.1
 40
0.1
 40
0.1
 40
0.1
 40
0.2
 40
0.2
 40
0.2
 40
0.2
 40
0.3
 40
0.3
 40
0.3
 40
0.3
 40
0.4
 40
0.4
 40
0.4
 40
0.4
 40
0.5
 40
0.5
 40
0.5
 40
0.5
 40
0.6
 40
0.6
 40
0.6
 40
0.6
 40
0.7
 40
0.7
 40
0.7
 40
0.7
 40
0.8
 40
0.8
 40
0.8
 40
0.8
 40
1.0
 40
1.0
 40
1.0
 40
1.0
 10
-1.1309
 20
0.0322
 30
0.0
 10
-1.1309
 20
0.0322
 30
0.0
 10
-0.9298
 20
-1.5897
 30
0.0
 10
-0.9298
 20
-1.5897
 30
0.0
 10
-0.9298
 20
-1.5897
 30
0.0
 10
-0.9298
 20
-1.5897
 30
0.0
 10
-0.7963
 20
-1.7607
 30
0.0
 10
-0.7963
 20
-1.7607
 30
0.0
 10
-0.7963
 20
-1.7607
 30
0.0
 10
-0.7963
 20
-1.7607
 30
0.0
 10
-0.5782
 20
-1.8077
 30
0.0
 10
-0.5782
 20
-1.8077
 30
0.0
 10
-0.5782
 20
-1.8077
 30
0.0
 10
-0.5782
 20
-1.8077
 30
0.0
 10
-0.2824
 20
-1.8077
 30
0.0
 10
-0.2824
 20
-1.8077
 30
0.0
 10
-0.2824
 20
-1.8077
 30
0.0
 10
-0.2824
 20
-1.8077
 30
0.0
 10
-0.0801
 20
-1.792
 30
0.0
 10
-0.0801
 20
-1.792
 30
0.0
 10
-0.0801
 20
-1.792
 30
0.0
 10
-0.0801
 20
-1.792
 30
0.0
 10
0.1067
 20
-1.7765
 30
0.0
 10
0.1067
 20
-1.7765
 30
0.0
 10
0.1067
 20
-1.7765
 30
0.0
 10
0.1067
 20
-1.7765
 30
0.0
 10
0.2157
 20
-1.5737
 30
0.0
 10
0.2157
 20
-1.5737
 30
0.0
 10
0.2157
 20
-1.5737
 30
0.0
 10
0.2157
 20
-1.5737
 30
0.0
 10
0.2934
 20
-1.3239
 30
0.0
 10
0.2934
 20
-1.3239
 30
0.0
 10
0.2934
 20
-1.3239
 30
0.0
 10
0.2934
 20
-1.3239
 30
0.0
 10
0.4492
 20
0.0728
 30
0.0
 10
0.4492
 20
0.0728
 30
0.0
  0
SPLINE
  5
105
330
1F
100
AcDbEntity
  8
DEFAULT_1
 62
   250
100
AcDbSpline
210
0.0
220
0.0
230
1.0
 70
     8
 71
     3
 72
    40
 73
    36
 74
     0
 42
0.0000000001
 43
0.0000000001
 40
0.0
 40
0.0
 40
0.0
 40
0.0
 40
0.1
 40
0.1
 40
0.1
 40
0.1
 40
0.2
 40
0.2
 40
0.2
 40
0.2
 40
0.3
 40
0.3
 40
0.3
 40
0.3
 40
0.4
 40
0.4
 40
0.4
 40
0.4
 40
0.5
 40
0.5
 40
0.5
 40
0.5
 40
0.6
 40
0.6
 40
0.6
 40
0.6
 40
0.7
 40
0.7
 40
0.7
 40
0.7
 40
0.8
 40
0.8
 40
0.8
 40
0.8
 40
1.0
 40
1.0
 40
1.0
 40
1.0
 10
0.4578
 20
0.0632
 30
0.0
 10
0.4578
 20
0.0632
 30
0.0
 10
0.6589
 20
-1.5587
 30
0.0
 10
0.6589
 20
-1.5587
 30
0.0
 10
0.6589
 20
-1.5587
 30
0.0
 10
0.6589
 20
-1.5587
 30
0.0
 10
0.7925
 20
-1.7297
 30
0.0
 10
0.7925
 20
-1.7297
 30
0.0
 10
0.7925
 20
-1.7297
 30
0.0
 10
0.7925
 20
-1.7297
 30
0.0
 10
1.0105
 20
-1.7767
 30
0.0
 10
1.0105
 20
-1.7767
 30
0.0
 10
1.0105
 20
-1.7767
 30
0.0
 10
1.0105
 20
-1.7767
 30
0.0
 10
1.3063
 20
-1.7767
 30
0.0
 10
1.3063
 20
-1.7767
 30
0.0
 10
1.3063
 20
-1.7767
 30
0.0
 10
1.3063
 20
-1.7767
 30
0.0
 10
1.5086
 20
-1.761
 30
0.0
 10
1.5086
 20
-1.761
 30
0.0
 10
1.5086
 20
-1.761
 30
0.0
 10
1.5086
 20
-1.761
 30
0.0
 10
1.6954
 20
-1.7455
 30
0.0
 10
1.6954
 20
-1.7455
 30
0.0
 10
1.6954
 20
-1.7455
 30
0.0
 10
1.6954
 20
-1.7455
 30
0.0
 10
1.8044
 20
-1.5427
 30
0.0
 10
1.8044
 20
-1.5427
 30
0.0
 10
1.8044
 20
-1.5427
 30
0.0
 10
1.8044
 20
-1.5427
 30
0.0
 10
1.8822
 20
-1.2929
 30
0.0
 10
1.8822
 20
-1.2929
 30
0.0
 10
1.8822
 20
-1.2929
 30
0.0
 10
1.8822
 20
-1.2929
 30
0.0
 10
2.0379
 20
0.0895
 30
0.0
 10
2.0379
 20
0.0895
 30
0.0
  0
SPLINE
  5
106
330
1F
100
AcDbEntity
  8
DEFAULT_1
 62
   250
100
AcDbSpline
210
0.0
220
0.0
230
1.0
 70
     8
 71
     3
 72
    40
 73
    36
 74
     0
 42
0.0000000001
 43
0.0000000001
 40
0.0
 40
0.0
 40
0.0
 40
0.0
 40
0.1
 40
0.1
 40
0.1
 40
0.1
 40
0.2
 40
0.2
 40
0.2
 40
0.2
 40
0.3
 40
0.3
 40
0.3
 40
0.3
 40
0.4
 40
0.4
 40
0.4
 40
0.4
 40
0.5
 40
0.5
 40
0.5
 40
0.5
 40
0.6
 40
0.6
 40
0.6
 40
0.6
 40
0.7
 40
0.7
 40
0.7
 40
0.7
 40
0.8
 40
0.8
 40
0.8
 40
0.8
 40
1.0
 40
1.0
 40
1.0
 40
1.0
 10
2.0577
 20
0.0561
 30
0.0
 10
2.0577
 20
0.0561
 30
0.0
 10
2.2588
 20
-1.5658
 30
0.0
 10
2.2588
 20
-1.5658
 30
0.0
 10
2.2588
 20
-1.5658
 30
0.0
 10
2.2588
 20
-1.5658
 30
0.0
 10
2.3924
 20
-1.7369
 30
0.0
 10
2.3924
 20
-1.7369
 30
0.0
 10
2.3924
 20
-1.7369
 30
0.0
 10
2.3924
 20
-1.7369
 30
0.0
 10
2.6105
 20
-1.7839
 30
0.0
 10
2.6105
 20
-1.7839
 30
0.0
 10
2.6105
 20
-1.7839
 30
0.0
 10
2.6105
 20
-1.7839
 30
0.0
 10
2.9063
 20
-1.7839
 30
0.0
 10
2.9063
 20
-1.7839
 30
0.0
 10
2.9063
 20
-1.7839
 30
0.0
 10
2.9063
 20
-1.7839
 30
0.0
 10
3.1086
 20
-1.7681
 30
0.0
 10
3.1086
 20
-1.7681
 30
0.0
 10
3.1086
 20
-1.7681
 30
0.0
 10
3.1086
 20
-1.7681
 30
0.0
 10
3.2953
 20
-1.7526
 30
0.0
 10
3.2953
 20
-1.7526
 30
0.0
 10
3.2953
 20
-1.7526
 30
0.0
 10
3.2953
 20
-1.7526
 30
0.0
 10
3.4044
 20
-1.5498
 30
0.0
 10
3.4044
 20
-1.5498
 30
0.0
 10
3.4044
 20
-1.5498
 30
0.0
 10
3.4044
 20
-1.5498
 30
0.0
 10
3.4821
 20
-1.3001
 30
0.0
 10
3.4821
 20
-1.3001
 30
0.0
 10
3.4821
 20
-1.3001
 30
0.0
 10
3.4821
 20
-1.3001
 30
0.0
 10
3.6379
 20
0.0966
 30
0.0
 10
3.6379
 20
0.0966
 30
0.0
  0
SPLINE
  5
107
330
1F
100
AcDbEntity
  8
DEFAULT_1
 62
   250
100
AcDbSpline
210
0.0
220
0.0
230
1.0
 70
     8
 71
     3
 72
    40
 73
    36
 74
     0
 42
0.0000000001
 43
0.0000000001
 40
0.0
 40
0.0
 40
0.0
 40
0.0
 40
0.1
 40
0.1
 40
0.1
 40
0.1
 40
0.2
 40
0.2
 40
0.2
 40
0.2
 40
0.3
 40
0.3
 40
0.3
 40
0.3
 40
0.4
 40
0.4
 40
0.4
 40
0.4
 40
0.5
 40
0.5
 40
0.5
 40
0.5
 40
0.6
 40
0.6
 40
0.6
 40
0.6
 40
0.7
 40
0.7
 40
0.7
 40
0.7
 40
0.8
 40
0.8
 40
0.8
 40
0.8
 40
1.0
 40
1.0
 40
1.0
 40
1.0
 10
3.6658
 20
0.0632
 30
0.0
 10
3.6658
 20
0.0632
 30
0.0
 10
3.8669
 20
-1.5587
 30
0.0
 10
3.8669
 20
-1.5587
 30
0.0
 10
3.8669
 20
-1.5587
 30
0.0
 10
3.8669
 20
-1.5587
 30
0.0
 10
4.0005
 20
-1.7297
 30
0.0
 10
4.0005
 20
-1.7297
 30
0.0
 10
4.0005
 20
-1.7297
 30
0.0
 10
4.0005
 20
-1.7297
 30
0.0
 10
4.2185
 20
-1.7767
 30
0.0
 10
4.2185
 20
-1.7767
 30
0.0
 10
4.2185
 20
-1.7767
 30
0.0
 10
4.2185
 20
-1.7767
 30
0.0
 10
4.5143
 20
-1.7767
 30
0.0
 10
4.5143
 20
-1.7767
 30
0.0
 10
4.5143
 20
-1.7767
 30
0.0
 10
4.5143
 20
-1.7767
 30
0.0
 10
4.7166
 20
-1.761
 30
0.0
 10
4.7166
 20
-1.761
 30
0.0
 10
4.7166
 20
-1.761
 30
0.0
 10
4.7166
 20
-1.761
 30
0.0
 10
4.9034
 20
-1.7455
 30
0.0
 10
4.9034
 20
-1.7455
 30
0.0
 10
4.9034
 20
-1.7455
 30
0.0
 10
4.9034
 20
-1.7455
 30
0.0
 10
5.0124
 20
-1.5427
 30
0.0
 10
5.0124
 20
-1.5427
 30
0.0
 10
5.0124
 20
-1.5427
 30
0.0
 10
5.0124
 20
-1.5427
 30
0.0
 10
5.0902
 20
-1.2929
 30
0.0
 10
5.0902
 20
-1.2929
 30
0.0
 10
5.0902
 20
-1.2929
 30
0.0
 10
5.0902
 20
-1.2929
 30
0.0
 10
5.2459
 20
0.0895
 30
0.0
 10
5.2459
 20
0.0895
 30
0.0
  0
SPLINE
  5
108
330
1F
100
AcDbEntity
  8
DEFAULT_1
 62
   250
100
AcDbSpline
210
0.0
220
0.0
230
1.0
 70
     8
 71
     3
 72
    40
 73
    36
 74
     0
 42
0.0000000001
 43
0.0000000001
 40
0.0
 40
0.0
 40
0.0
 40
0.0
 40
0.1
 40
0.1
 40
0.1
 40
0.1
 40
0.2
 40
0.2
 40
0.2
 40
0.2
 40
0.3
 40
0.3
 40
0.3
 40
0.3
 40
0.4
 40
0.4
 40
0.4
 40
0.4
 40
0.5
 40
0.5
 40
0.5
 40
0.5
 40
0.6
 40
0.6
 40
0.6
 40
0.6
 40
0.7
 40
0.7
 40
0.7
 40
0.7
 40
0.8
 40
0.8
 40
0.8
 40
0.8
 40
1.0
 40
1.0
 40
1.0
 40
1.0
 10
5.2657
 20
0.0561
 30
0.0
 10
5.2657
 20
0.0561
 30
0.0
 10
5.4668
 20
-1.5658
 30
0.0
 10
5.4668
 20
-1.5658
 30
0.0
 10
5.4668
 20
-1.5658
 30
0.0
 10
5.4668
 20
-1.5658
 30
0.0
 10
5.6004
 20
-1.7369
 30
0.0
 10
5.6004
 20
-1.7369
 30
0.0
 10
5.6004
 20
-1.7369
 30
0.0
 10
5.6004
 20
-1.7369
 30
0.0
 10
5.8185
 20
-1.7839
 30
0.0
 10
5.8185
 20
-1.7839
 30
0.0
 10
5.8185
 20
-1.7839
 30
0.0
 10
5.8185
 20
-1.7839
 30
0.0
 10
6.1143
 20
-1.7839
 30
0.0
 10
6.1143
 20
-1.7839
 30
0.0
 10
6.1143
 20
-1.7839
 30
0.0
 10
6.1143
 20
-1.7839
 30
0.0
 10
6.3166
 20
-1.7681
 30
0.0
 10
6.3166
 20
-1.7681
 30
0.0
 10
6.3166
 20
-1.7681
 30
0.0
 10
6.3166
 20
-1.7681
 30
0.0
 10
6.5033
 20
-1.7526
 30
0.0
 10
6.5033
 20
-1.7526
 30
0.0
 10
6.5033
 20
-1.7526
 30
0.0
 10
6.5033
 20
-1.7526
 30
0.0
 10
6.6124
 20
-1.5498
 30
0.0
 10
6.6124
 20
-1.5498
 30
0.0
 10
6.6124
 20
-1.5498
 30
0.0
 10
6.6124
 20
-1.5498
 30
0.0
 10
6.6901
 20
-1.3001
 30
0.0
 10
6.6901
 20
-1.3001
 30
0.0
 10
6.6901
 20
-1.3001
 30
0.0
 10
6.6901
 20
-1.3001
 30
0.0
 10
6.8459
 20
0.0966
 30
0.0
 10
6.8459
 20
0.0966
 30
0.0
  0
SPLINE
  5
109
330
1F
100
AcDbEntity
  8
DEFAULT_1
 62
   250
100
AcDbSpline
210
0.0
220
0.0
230
1.0
 70
     8
 71
     3
 72
    40
 73
    36
 74
     0
 42
0.0000000001
 43
0.0000000001
 40
0.0
 40
0.0
 40
0.0
 40
0.0
 40
0.1
 40
0.1
 40
0.1
 40
0.1
 40
0.2
 40
0.2
 40
0.2
 40
0.2
 40
0.3
 40
0.3
 40
0.3
 40
0.3
 40
0.4
 40
0.4
 40
0.4
 40
0.4
 40
0.5
 40
0.5
 40
0.5
 40
0.5
 40
0.6
 40
0.6
 40
0.6
 40
0.6
 40
0.7
 40
0.7
 40
0.7
 40
0.7
 40
0.8
 40
0.8
 40
0.8
 40
0.8
 40
1.0
 40
1.0
 40
1.0
 40
1.0
 10
6.844
 20
0.0394
 30
0.0
 10
6.844
 20
0.0394
 30
0.0
 10
7.0451
 20
-1.5825
 30
0.0
 10
7.0451
 20
-1.5825
 30
0.0
 10
7.0451
 20
-1.5825
 30
0.0
 10
7.0451
 20
-1.5825
 30
0.0
 10
7.1787
 20
-1.7536
 30
0.0
 10
7.1787
 20
-1.7536
 30
0.0
 10
7.1787
 20
-1.7536
 30
0.0
 10
7.1787
 20
-1.7536
 30
0.0
 10
7.3967
 20
-1.8006
 30
0.0
 10
7.3967
 20
-1.8006
 30
0.0
 10
7.3967
 20
-1.8006
 30
0.0
 10
7.3967
 20
-1.8006
 30
0.0
 10
7.6925
 20
-1.8006
 30
0.0
 10
7.6925
 20
-1.8006
 30
0.0
 10
7.6925
 20
-1.8006
 30
0.0
 10
7.6925
 20
-1.8006
 30
0.0
 10
7.8948
 20
-1.7848
 30
0.0
 10
7.8948
 20
-1.7848
 30
0.0
 10
7.8948
 20
-1.7848
 30
0.0
 10
7.8948
 20
-1.7848
 30
0.0
 10
8.0816
 20
-1.7693
 30
0.0
 10
8.0816
 20
-1.7693
 30
0.0
 10
8.0816
 20
-1.7693
 30
0.0
 10
8.0816
 20
-1.7693
 30
0.0
 10
8.1906
 20
-1.5665
 30
0.0
 10
8.1906
 20
-1.5665
 30
0.0
 10
8.1906
 20
-1.5665
 30
0.0
 10
8.1906
 20
-1.5665
 30
0.0
 10
8.2684
 20
-1.3168
 30
0.0
 10
8.2684
 20
-1.3168
 30
0.0
 10
8.2684
 20
-1.3168
 30
0.0
 10
8.2684
 20
-1.3168
 30
0.0
 10
8.4241
 20
0.0656
 30
0.0
 10
8.4241
 20
0.0656
 30
0.0
  0
SPLINE
  5
10A
330
1F
100
AcDbEntity
  8
DEFAULT_1
 62
   250
100
AcDbSpline
210
0.0
220
0.0
230
1.0
 70
     8
 71
     3
 72
    40
 73
    36
 74
     0
 42
0.0000000001
 43
0.0000000001
 40
0.0
 40
0.0
 40
0.0
 40
0.0
 40
0.1
 40
0.1
 40
0.1
 40
0.1
 40
0.2
 40
0.2
 40
0.2
 40
0.2
 40
0.3
 40
0.3
 40
0.3
 40
0.3
 40
0.4
 40
0.4
 40
0.4
 40
0.4
 40
0.5
 40
0.5
 40
0.5
 40
0.5
 40
0.6
 40
0.6
 40
0.6
 40
0.6
 40
0.7
 40
0.7
 40
0.7
 40
0.7
 40
0.8
 40
0.8
 40
0.8
 40
0.8
 40
1.0
 40
1.0
 40
1.0
 40
1.0
 10
8.4439
 20
0.0322
 30
0.0
 10
8.4439
 20
0.0322
 30
0.0
 10
8.645
 20
-1.5897
 30
0.0
 10
8.645
 20
-1.5897
 30
0.0
 10
8.645
 20
-1.5897
 30
0.0
 10
8.645
 20
-1.5897
 30
0.0
 10
8.7786
 20
-1.7607
 30
0.0
 10
8.7786
 20
-1.7607
 30
0.0
 10
8.7786
 20
-1.7607
 30
0.0
 10
8.7786
 20
-1.7607
 30
0.0
 10
8.9967
 20
-1.8077
 30
0.0
 10
8.9967
 20
-1.8077
 30
0.0
 10
8.9967
 20
-1.8077
 30
0.0
 10
8.9967
 20
-1.8077
 30
0.0
 10
9.2925
 20
-1.8077
 30
0.0
 10
9.2925
 20
-1.8077
 30
0.0
 10
9.2925
 20
-1.8077
 30
0.0
 10
9.2925
 20
-1.8077
 30
0.0
 10
9.4947
 20
-1.792
 30
0.0
 10
9.4947
 20
-1.792
 30
0.0
 10
9.4947
 20
-1.792
 30
0.0
 10
9.4947
 20
-1.792
 30
0.0
 10
9.6815
 20
-1.7765
 30
0.0
 10
9.6815
 20
-1.7765
 30
0.0
 10
9.6815
 20
-1.7765
 30
0.0
 10
9.6815
 20
-1.7765
 30
0.0
 10
9.7905
 20
-1.5737
 30
0.0
 10
9.7905
 20
-1.5737
 30
0.0
 10
9.7905
 20
-1.5737
 30
0.0
 10
9.7905
 20
-1.5737
 30
0.0
 10
9.8683
 20
-1.3239
 30
0.0
 10
9.8683
 20
-1.3239
 30
0.0
 10
9.8683
 20
-1.3239
 30
0.0
 10
9.8683
 20
-1.3239
 30
0.0
 10
10.0241
 20
0.0728
 30
0.0
 10
10.0241
 20
0.0728
 30
0.0
  0
SPLINE
  5
10B
330
1F
100
AcDbEntity
  8
DEFAULT_1
 62
   250
100
AcDbSpline
210
0.0
220
0.0
230
1.0
 70
     8
 71
     3
 72
    40
 73
    36
 74
     0
 42
0.0000000001
 43
0.0000000001
 40
0.0
 40
0.0
 40
0.0
 40
0.0
 40
0.1
 40
0.1
 40
0.1
 40
0.1
 40
0.2
 40
0.2
 40
0.2
 40
0.2
 40
0.3
 40
0.3
 40
0.3
 40
0.3
 40
0.4
 40
0.4
 40
0.4
 40
0.4
 40
0.5
 40
0.5
 40
0.5
 40
0.5
 40
0.6
 40
0.6
 40
0.6
 40
0.6
 40
0.7
 40
0.7
 40
0.7
 40
0.7
 40
0.8
 40
0.8
 40
0.8
 40
0.8
 40
1.0
 40
1.0
 40
1.0
 40
1.0
 10
10.0327
 20
0.0632
 30
0.0
 10
10.0327
 20
0.0632
 30
0.0
 10
10.2338
 20
-1.5587
 30
0.0
 10
10.2338
 20
-1.5587
 30
0.0
 10
10.2338
 20
-1.5587
 30
0.0
 10
10.2338
 20
-1.5587
 30
0.0
 10
10.3674
 20
-1.7297
 30
0.0
 10
10.3674
 20
-1.7297
 30
0.0
 10
10.3674
 20
-1.7297
 30
0.0
 10
10.3674
 20
-1.7297
 30
0.0
 10
10.5854
 20
-1.7767
 30
0.0
 10
10.5854
 20
-1.7767
 30
0.0
 10
10.5854
 20
-1.7767
 30
0.0
 10
10.5854
 20
-1.7767
 30
0.0
 10
10.8812
 20
-1.7767
 30
0.0
 10
10.8812
 20
-1.7767
 30
0.0
 10
10.8812
 20
-1.7767
 30
0.0
 10
10.8812
 20
-1.7767
 30
0.0
 10
11.0835
 20
-1.761
 30
0.0
 10
11.0835
 20
-1.761
 30
0.0
 10
11.0835
 20
-1.761
 30
0.0
 10
11.0835
 20
-1.761
 30
0.0
 10
11.2703
 20
-1.7455
 30
0.0
 10
11.2703
 20
-1.7455
 30
0.0
 10
11.2703
 20
-1.7455
 30
0.0
 10
11.2703
 20
-1.7455
 30
0.0
 10
11.3793
 20
-1.5427
 30
0.0
 10
11.3793
 20
-1.5427
 30
0.0
 10
11.3793
 20
-1.5427
 30
0.0
 10
11.3793
 20
-1.5427
 30
0.0
 10
11.457
 20
-1.2929
 30
0.0
 10
11.457
 20
-1.2929
 30
0.0
 10
11.457
 20
-1.2929
 30
0.0
 10
11.457
 20
-1.2929
 30
0.0
 10
11.6128
 20
0.0895
 30
0.0
 10
11.6128
 20
0.0895
 30
0.0
  0
SPLINE
  5
10C
330
1F
100
AcDbEntity
  8
DEFAULT_1
 62
   250
100
AcDbSpline
210
0.0
220
0.0
230
1.0
 70
     8
 71
     3
 72
    40
 73
    36
 74
     0
 42
0.0000000001
 43
0.0000000001
 40
0.0
 40
0.0
 40
0.0
 40
0.0
 40
0.1
 40
0.1
 40
0.1
 40
0.1
 40
0.2
 40
0.2
 40
0.2
 40
0.2
 40
0.3
 40
0.3
 40
0.3
 40
0.3
 40
0.4
 40
0.4
 40
0.4
 40
0.4
 40
0.5
 40
0.5
 40
0.5
 40
0.5
 40
0.6
 40
0.6
 40
0.6
 40
0.6
 40
0.7
 40
0.7
 40
0.7
 40
0.7
 40
0.8
 40
0.8
 40
0.8
 40
0.8
 40
1.0
 40
1.0
 40
1.0
 40
1.0
 10
11.6326
 20
0.0561
 30
0.0
 10
11.6326
 20
0.0561
 30
0.0
 10
11.8337
 20
-1.5658
 30
0.0
 10
11.8337
 20
-1.5658
 30
0.0
 10
11.8337
 20
-1.5658
 30
0.0
 10
11.8337
 20
-1.5658
 30
0.0
 10
11.9673
 20
-1.7369
 30
0.0
 10
11.9673
 20
-1.7369
 30
0.0
 10
11.9673
 20
-1.7369
 30
0.0
 10
11.9673
 20
-1.7369
 30
0.0
 10
12.1853
 20
-1.7839
 30
0.0
 10
12.1853
 20
-1.7839
 30
0.0
 10
12.1853
 20
-1.7839
 30
0.0
 10
12.1853
 20
-1.7839
 30
0.0
 10
12.4811
 20
-1.7839
 30
0.0
 10
12.4811
 20
-1.7839
 30
0.0
 10
12.4811
 20
-1.7839
 30
0.0
 10
12.4811
 20
-1.7839
 30
0.0
 10
12.6834
 20
-1.7681
 30
0.0
 10
12.6834
 20
-1.7681
 30
0.0
 10
12.6834
 20
-1.7681
 30
0.0
 10
12.6834
 20
-1.7681
 30
0.0
 10
12.8702
 20
-1.7526
 30
0.0
 10
12.8702
 20
-1.7526
 30
0.0
 10
12.8702
 20
-1.7526
 30
0.0
 10
12.8702
 20
-1.7526
 30
0.0
 10
12.9792
 20
-1.5498
 30
0.0
 10
12.9792
 20
-1.5498
 30
0.0
 10
12.9792
 20
-1.5498
 30
0.0
 10
12.9792
 20
-1.5498
 30
0.0
 10
13.057
 20
-1.3001
 30
0.0
 10
13.057
 20
-1.3001
 30
0.0
 10
13.057
 20
-1.3001
 30
0.0
 10
13.057
 20
-1.3001
 30
0.0
 10
13.2128
 20
0.0966
 30
0.0
 10
13.2128
 20
0.0966
 30
0.0
  0
SPLINE
  5
10D
330
1F
100
AcDbEntity
  8
DEFAULT_1
 62
   250
100
AcDbSpline
210
0.0
220
0.0
230
1.0
 70
     8
 71
     3
 72
    40
 73
    36
 74
     0
 42
0.0000000001
 43
0.0000000001
 40
0.0
 40
0.0
 40
0.0
 40
0.0
 40
0.1
 40
0.1
 40
0.1
 40
0.1
 40
0.2
 40
0.2
 40
0.2
 40
0.2
 40
0.3
 40
0.3
 40
0.3
 40
0.3
 40
0.4
 40
0.4
 40
0.4
 40
0.4
 40
0.5
 40
0.5
 40
0.5
 40
0.5
 40
0.6
 40
0.6
 40
0.6
 40
0.6
 40
0.7
 40
0.7
 40
0.7
 40
0.7
 40
0.8
 40
0.8
 40
0.8
 40
0.8
 40
1.0
 40
1.0
 40
1.0
 40
1.0
 10
13.2407
 20
0.0632
 30
0.0
 10
13.2407
 20
0.0632
 30
0.0
 10
13.4418
 20
-1.5587
 30
0.0
 10
13.4418
 20
-1.5587
 30
0.0
 10
13.4418
 20
-1.5587
 30
0.0
 10
13.4418
 20
-1.5587
 30
0.0
 10
13.5754
 20
-1.7297
 30
0.0
 10
13.5754
 20
-1.7297
 30
0.0
 10
13.5754
 20
-1.7297
 30
0.0
 10
13.5754
 20
-1.7297
 30
0.0
 10
13.7934
 20
-1.7767
 30
0.0
 10
13.7934
 20
-1.7767
 30
0.0
 10
13.7934
 20
-1.7767
 30
0.0
 10
13.7934
 20
-1.7767
 30
0.0
 10
14.0892
 20
-1.7767
 30
0.0
 10
14.0892
 20
-1.7767
 30
0.0
 10
14.0892
 20
-1.7767
 30
0.0
 10
14.0892
 20
-1.7767
 30
0.0
 10
14.2915
 20
-1.761
 30
0.0
 10
14.2915
 20
-1.761
 30
0.0
 10
14.2915
 20
-1.761
 30
0.0
 10
14.2915
 20
-1.761
 30
0.0
 10
14.4783
 20
-1.7455
 30
0.0
 10
14.4783
 20
-1.7455
 30
0.0
 10
14.4783
 20
-1.7455
 30
0.0
 10
14.4783
 20
-1.7455
 30
0.0
 10
14.5873
 20
-1.5427
 30
0.0
 10
14.5873
 20
-1.5427
 30
0.0
 10
14.5873
 20
-1.5427
 30
0.0
 10
14.5873
 20
-1.5427
 30
0.0
 10
14.6651
 20
-1.2929
 30
0.0
 10
14.6651
 20
-1.2929
 30
0.0
 10
14.6651
 20
-1.2929
 30
0.0
 10
14.6651
 20
-1.2929
 30
0.0
 10
14.8208
 20
0.0895
 30
0.0
 10
14.8208
 20
0.0895
 30
0.0
  0
SPLINE
  5
10E
330
1F
100
AcDbEntity
  8
DEFAULT_1
 62
   250
100
AcDbSpline
210
0.0
220
0.0
230
1.0
 70
     8
 71
     3
 72
    40
 73
    36
 74
     0
 42
0.0000000001
 43
0.0000000001
 40
0.0
 40
0.0
 40
0.0
 40
0.0
 40
0.1
 40
0.1
 40
0.1
 40
0.1
 40
0.2
 40
0.2
 40
0.2
 40
0.2
 40
0.3
 40
0.3
 40
0.3
 40
0.3
 40
0.4
 40
0.4
 40
0.4
 40
0.4
 40
0.5
 40
0.5
 40
0.5
 40
0.5
 40
0.6
 40
0.6
 40
0.6
 40
0.6
 40
0.7
 40
0.7
 40
0.7
 40
0.7
 40
0.8
 40
0.8
 40
0.8
 40
0.8
 40
1.0
 40
1.0
 40
1.0
 40
1.0
 10
14.8406
 20
0.0561
 30
0.0
 10
14.8406
 20
0.0561
 30
0.0
 10
15.0417
 20
-1.5658
 30
0.0
 10
15.0417
 20
-1.5658
 30
0.0
 10
15.0417
 20
-1.5658
 30
0.0
 10
15.0417
 20
-1.5658
 30
0.0
 10
15.1753
 20
-1.7369
 30
0.0
 10
15.1753
 20
-1.7369
 30
0.0
 10
15.1753
 20
-1.7369
 30
0.0
 10
15.1753
 20
-1.7369
 30
0.0
 10
15.3933
 20
-1.7839
 30
0.0
 10
15.3933
 20
-1.7839
 30
0.0
 10
15.3933
 20
-1.7839
 30
0.0
 10
15.3933
 20
-1.7839
 30
0.0
 10
15.6891
 20
-1.7839
 30
0.0
 10
15.6891
 20
-1.7839
 30
0.0
 10
15.6891
 20
-1.7839
 30
0.0
 10
15.6891
 20
-1.7839
 30
0.0
 10
15.8914
 20
-1.7681
 30
0.0
 10
15.8914
 20
-1.7681
 30
0.0
 10
15.8914
 20
-1.7681
 30
0.0
 10
15.8914
 20
-1.7681
 30
0.0
 10
16.0782
 20
-1.7526
 30
0.0
 10
16.0782
 20
-1.7526
 30
0.0
 10
16.0782
 20
-1.7526
 30
0.0
 10
16.0782
 20
-1.7526
 30
0.0
 10
16.1872
 20
-1.5498
 30
0.0
 10
16.1872
 20
-1.5498
 30
0.0
 10
16.1872
 20
-1.5498
 30
0.0
 10
16.1872
 20
-1.5498
 30
0.0
 10
16.265
 20
-1.3001
 30
0.0
 10
16.265
 20
-1.3001
 30
0.0
 10
16.265
 20
-1.3001
 30
0.0
 10
16.265
 20
-1.3001
 30
0.0
 10
16.4208
 20
0.0966
 30
0.0
 10
16.4208
 20
0.0966
 30
0.0
  0
SPLINE
  5
10F
330
1F
100
AcDbEntity
  8
DEFAULT_1
 62
   250
100
AcDbSpline
210
0.0
220
0.0
230
1.0
 70
    24
 71
     3
 72
     8
 73
     4
 74
     0
 42
0.0000000001
 43
0.0000000001
 40
0.0
 40
0.0
 40
0.0
 40
0.0
 40
1.0
 40
1.0
 40
1.0
 40
1.0
 10
16.427
 20
-0.4368
 30
0.0
 10
16.427
 20
-0.4368
 30
0.0
 10
16.427
 20
12.8511
 30
0.0
 10
16.427
 20
12.8511
 30
0.0
  0
ENDSEC
  0
SECTION
  2
OBJECTS
  0
DICTIONARY
  5
C
330
0
100
AcDbDictionary
  3
ACAD_GROUP
350
D
  3
ACAD_LAYOUT
350
1A
  3
ACAD_MATERIAL
350
3B
  3
ACAD_MLEADERSTYLE
350
132
  3
ACAD_MLINESTYLE
350
17
  3
ACAD_PLOTSETTINGS
350
19
  3
ACAD_VISUALSTYLE
350
2A
  3
ACDBHEADERROUNDTRIPXREC
350
110
  3
ACDBVARIABLEDICTIONARY
350
130
  0
DICTIONARY
  5
D
102
{ACAD_REACTORS
330
C
102
}
330
C
100
AcDbDictionary
  0
DICTIONARY
  5
1A
102
{ACAD_REACTORS
330
C
102
}
330
C
100
AcDbDictionary
  0
DICTIONARY
  5
3B
102
{ACAD_REACTORS
330
C
102
}
330
C
100
AcDbDictionary
  3
BYBLOCK
350
3D
  3
BYLAYER
350
3C
  3
GLOBAL
350
3E
  0
DICTIONARY
  5
132
102
{ACAD_REACTORS
330
C
102
}
330
C
100
AcDbDictionary
  0
DICTIONARY
  5
17
102
{ACAD_REACTORS
330
C
102
}
330
C
100
AcDbDictionary
  3
STANDARD
350
18
  0
DICTIONARY
  5
19
102
{ACAD_REACTORS
330
C
102
}
330
C
100
AcDbDictionary
  0
DICTIONARY
  5
2A
102
{ACAD_REACTORS
330
C
102
}
330
C
100
AcDbDictionary
  3
2DWIREFRAME
350
2F
  3
3D_HIDDEN
350
31
  3
3DWIREFRAME
350
30
  3
BASIC
350
32
  3
BRIGHTEN
350
36
  3
COLORCHANGE
350
3A
  3
CONCEPTUAL
350
34
  3
DIM
350
35
  3
FACEPATTERN
350
39
  3
FLAT
350
2B
  3
FLATWITHEDGES
350
2C
  3
GOURAUD
350
2D
  3
GOURAUDWITHEDGES
350
2E
  3
LINEPATTERN
350
38
  3
REALISTIC
350
33
  3
THICKEN
350
37
  0
DICTIONARY
  5
110
102
{ACAD_REACTORS
330
C
102
}
330
C
100
AcDbDictionary
  3
CEPSNTYPE
350
119
  3
DIMSTYLEDATA
350
12F
  3
FINGERPRINTGUID
350
11A
  3
HYPERLINKBASE
350
113
  3
INSUNITS
350
118
  3
LAYOUTDICT
350
115
  3
LWETCUNION
350
117
  3
PLOTSETDICT
350
116
  3
PSVPSCALE
350
11C
  3
PUCSBASE
350
11F
  3
PUCSORGBACK
350
125
  3
PUCSORGBOTTOM
350
121
  3
PUCSORGFRONT
350
124
  3
PUCSORGLEFT
350
122
  3
PUCSORGRIGHT
350
123
  3
PUCSORGTOP
350
120
  3
PUCSORTHOREF
350
11D
  3
PUCSORTHOVIEW
350
11E
  3
STYLESHEET
350
114
  3
TSTACKALIGN
350
111
  3
TSTACKSIZE
350
112
  3
UCSBASE
350
128
  3
UCSORGBACK
350
12E
  3
UCSORGBOTTOM
350
12A
  3
UCSORGFRONT
350
12D
  3
UCSORGLEFT
350
12B
  3
UCSORGRIGHT
350
12C
  3
UCSORGTOP
350
129
  3
UCSORTHOREF
350
126
  3
UCSORTHOVIEW
350
127
  3
VERSIONGUID
350
11B
  0
DICTIONARY
  5
130
102
{ACAD_REACTORS
330
C
102
}
330
C
100
AcDbDictionary
  3
DIMASSOC
350
133
  3
HIDETEXT
350
134
  0
MATERIAL
  5
3D
102
{ACAD_REACTORS
330
3B
102
}
102
{ACAD_XDICTIONARY
360
137
102
}
330
3B
100
AcDbMaterial
  1
ByBlock
  0
MATERIAL
  5
3C
102
{ACAD_REACTORS
330
3B
102
}
102
{ACAD_XDICTIONARY
360
135
102
}
330
3B
100
AcDbMaterial
  1
ByLayer
  0
MATERIAL
  5
3E
102
{ACAD_REACTORS
330
3B
102
}
102
{ACAD_XDICTIONARY
360
139
102
}
330
3B
100
AcDbMaterial
  1
Global
  0
MLINESTYLE
  5
18
102
{ACAD_REACTORS
330
17
102
}
330
17
100
AcDbMlineStyle
  2
Standard
 70
     0
  3

 62
   256
 51
90.0
 52
90.0
 71
     2
 49
0.5
 62
   256
  6
BYLAYER
 49
-0.5
 62
   256
  6
BYLAYER
  0
ACAD_PROXY_OBJECT
  5
2F
102
{ACAD_REACTORS
330
2A
102
}
330
2A
100
AcDbProxyObject
 90
      499
 91
      501
 93
      436
310
42CC9915DA5C99599C985B595049028333333333333E3BF0000000000000FB0107901411070040501600405405064090741402480A0340
1001
ACAD
1000
AcDbSavedByObjectVersion
1070
     0
  0
ACAD_PROXY_OBJECT
  5
31
102
{ACAD_REACTORS
330
2A
102
}
330
2A
100
AcDbProxyObject
 90
      499
 91
      501
 93
      500
310
424CD108121A5919195B90640502408333333333333E3BF0000000000000FB01079024090700405020000000000001110200405405064090740C02480A0340
1001
ACAD
1000
AcDbSavedByObjectVersion
1070
     0
  0
ACAD_PROXY_OBJECT
  5
30
102
{ACAD_REACTORS
330
2A
102
}
330
2A
100
AcDbProxyObject
 90
      499
 91
      501
 93
      436
310
42CCD915DA5C99599C985B595059028333333333333E3BF0000000000000FB0107901411070040501600405405064090741402480A0340
1001
ACAD
1000
AcDbSavedByObjectVersion
1070
     0
  0
ACAD_PROXY_OBJECT
  5
32
102
{ACAD_REACTORS
330
2A
102
}
330
2A
100
AcDbProxyObject
 90
      499
 91
      501
 93
      388
310
4150985CDA58D07406404333333333333E3BF0000000000000FB0107A41107004050150841D405064090741402480A0350
1001
ACAD
1000
AcDbSavedByObjectVersion
1070
     0
  0
ACAD_PROXY_OBJECT
  5
36
102
{ACAD_REACTORS
330
2A
102
}
330
2A
100
AcDbProxyObject
 90
      499
 91
      501
 93
      428
310
42109C9A59DA1D195B90C409028333333333333E3BF0000000000000FB010790141107004050150841D405064090741402480A029950
1001
ACAD
1000
AcDbSavedByObjectVersion
1070
     0
  0
ACAD_PROXY_OBJECT
  5
3A
102
{ACAD_REACTORS
330
2A
102
}
330
2A
100
AcDbProxyObject
 90
      499
 91
      501
 93
      452
310
42D0DBDB1BDC90DA185B99D95104090240C333333333333E3BF0000000000000FB0108901411070040501508421405064090741402480A0350
1001
ACAD
1000
AcDbSavedByObjectVersion
1070
     0
  0
ACAD_PROXY_OBJECT
  5
34
102
{ACAD_REACTORS
330
2A
102
}
330
2A
100
AcDbProxyObject
 90
      499
 91
      501
 93
      500
310
4290DBDB98D95C1D1D585B10940D028333333333333E3BF0000000000000FB0107902409070040501000000000000111010841D405064090740C02480A0340
1001
ACAD
1000
AcDbSavedByObjectVersion
1070
     0
  0
ACAD_PROXY_OBJECT
  5
35
102
{ACAD_REACTORS
330
2A
102
}
330
2A
100
AcDbProxyObject
 90
      499
 91
      501
 93
      412
310
40D11A5B50B409028333333333333E3BF0000000000000FB010790141107004050150841D405064090741402480A02677FFFFFD0
1001
ACAD
1000
AcDbSavedByObjectVersion
1070
     0
  0
ACAD_PROXY_OBJECT
  5
39
102
{ACAD_REACTORS
330
2A
102
}
330
2A
100
AcDbProxyObject
 90
      499
 91
      501
 93
      444
310
42D19858D95C185D1D195C9B90F409028333333333333E3BF0000000000000FB010790141107004050150841D405064090741402480A0350
1001
ACAD
1000
AcDbSavedByObjectVersion
1070
     0
  0
ACAD_PROXY_OBJECT
  5
2B
102
{ACAD_REACTORS
330
2A
102
}
330
2A
100
AcDbProxyObject
 90
      499
 91
      501
 93
      388
310
41119B185D240901404333333333333E3BF0000000000000F9010740A41107004050150841D405064090741402480A1B50
1001
ACAD
1000
AcDbSavedByObjectVersion
1070
     0
  0
ACAD_PROXY_OBJECT
  5
2C
102
{ACAD_REACTORS
330
2A
102
}
330
2A
100
AcDbProxyObject
 90
      499
 91
      501
 93
      476
310
43519B185D15DA5D1A115919D95CD0140901404333333333333E3BF0000000000000F9010740901411070040501600405405064090741402480A1B50
1001
ACAD
1000
AcDbSavedByObjectVersion
1070
     0
  0
ACAD_PROXY_OBJECT
  5
2D
102
{ACAD_REACTORS
330
2A
102
}
330
2A
100
AcDbProxyObject
 90
      499
 91
      501
 93
      412
310
41D1DBDD5C985D5910240902404333333333333E3BF0000000000000F9010740A411070040501641D405064090741402480A1B50
1001
ACAD
1000
AcDbSavedByObjectVersion
1070
     0
  0
ACAD_PROXY_OBJECT
  5
2E
102
{ACAD_REACTORS
330
2A
102
}
330
2A
100
AcDbProxyObject
 90
      499
 91
      501
 93
      500
310
4411DBDD5C985D5915DA5D1A115919D95CD0340902404333333333333E3BF0000000000000F9010740901411070040501600405405064090741402480A1B50
1001
ACAD
1000
AcDbSavedByObjectVersion
1070
     0
  0
ACAD_PROXY_OBJECT
  5
38
102
{ACAD_REACTORS
330
2A
102
}
330
2A
100
AcDbProxyObject
 90
      499
 91
      501
 93
      444
310
42D31A5B995C185D1D195C9B90E409028333333333333E3BF0000000000000FB010790141107004050750841D405064090741402483A0350
1001
ACAD
1000
AcDbSavedByObjectVersion
1070
     0
  0
ACAD_PROXY_OBJECT
  5
33
102
{ACAD_REACTORS
330
2A
102
}
330
2A
100
AcDbProxyObject
 90
      499
 91
      501
 93
      420
310
425499585B1A5CDD1A58D08409028333333333333E3BF0000000000000FB01079019070040501508421405064090741402480A1B40
1001
ACAD
1000
AcDbSavedByObjectVersion
1070
     0
  0
ACAD_PROXY_OBJECT
  5
37
102
{ACAD_REACTORS
330
2A
102
}
330
2A
100
AcDbProxyObject
 90
      499
 91
      501
 93
      412
310
41D51A1A58DAD95B90D409028333333333333E3BF0000000000000FB010790141107004050150C41D405064090741402480A0350
1001
ACAD
1000
AcDbSavedByObjectVersion
1070
     0
  0
XRECORD
  5
119
102
{ACAD_REACTORS
330
110
102
}
330
110
100
AcDbXrecord
 90
        0
  0
XRECORD
  5
12F
102
{ACAD_REACTORS
330
110
102
}
330
110
100
AcDbXrecord
1000
DSTYLE
1002
{
1070
   340
340
11
1002
}
  0
XRECORD
  5
11A
102
{ACAD_REACTORS
330
110
102
}
330
110
100
AcDbXrecord
  1
{81C18419-BBD2-45E4-8C2C-06BE5D05D9AE}
  0
XRECORD
  5
113
102
{ACAD_REACTORS
330
110
102
}
330
110
100
AcDbXrecord
  1

  0
XRECORD
  5
118
102
{ACAD_REACTORS
330
110
102
}
330
110
100
AcDbXrecord
 90
        4
  0
XRECORD
  5
115
102
{ACAD_REACTORS
330
110
102
}
330
110
100
AcDbXrecord
340
1A
  0
XRECORD
  5
117
102
{ACAD_REACTORS
330
110
102
}
330
110
100
AcDbXrecord
 90
    10781
  0
XRECORD
  5
116
102
{ACAD_REACTORS
330
110
102
}
330
110
100
AcDbXrecord
340
19
  0
XRECORD
  5
11C
102
{ACAD_REACTORS
330
110
102
}
330
110
100
AcDbXrecord
 40
0.0
  0
XRECORD
  5
11F
102
{ACAD_REACTORS
330
110
102
}
330
110
100
AcDbXrecord
340
0
  0
XRECORD
  5
125
102
{ACAD_REACTORS
330
110
102
}
330
110
100
AcDbXrecord
 10
0.0
 20
0.0
 30
0.0
  0
XRECORD
  5
121
102
{ACAD_REACTORS
330
110
102
}
330
110
100
AcDbXrecord
 10
0.0
 20
0.0
 30
0.0
  0
XRECORD
  5
124
102
{ACAD_REACTORS
330
110
102
}
330
110
100
AcDbXrecord
 10
0.0
 20
0.0
 30
0.0
  0
XRECORD
  5
122
102
{ACAD_REACTORS
330
110
102
}
330
110
100
AcDbXrecord
 10
0.0
 20
0.0
 30
0.0
  0
XRECORD
  5
123
102
{ACAD_REACTORS
330
110
102
}
330
110
100
AcDbXrecord
 10
0.0
 20
0.0
 30
0.0
  0
XRECORD
  5
120
102
{ACAD_REACTORS
330
110
102
}
330
110
100
AcDbXrecord
 10
0.0
 20
0.0
 30
0.0
  0
XRECORD
  5
11D
102
{ACAD_REACTORS
330
110
102
}
330
110
100
AcDbXrecord
340
0
  0
XRECORD
  5
11E
102
{ACAD_REACTORS
330
110
102
}
330
110
100
AcDbXrecord
 70
     0
  0
XRECORD
  5
114
102
{ACAD_REACTORS
330
110
102
}
330
110
100
AcDbXrecord
  1

  0
XRECORD
  5
111
102
{ACAD_REACTORS
330
110
102
}
330
110
100
AcDbXrecord
 90
        1
  0
XRECORD
  5
112
102
{ACAD_REACTORS
330
110
102
}
330
110
100
AcDbXrecord
 90
       70
  0
XRECORD
  5
128
102
{ACAD_REACTORS
330
110
102
}
330
110
100
AcDbXrecord
340
0
  0
XRECORD
  5
12E
102
{ACAD_REACTORS
330
110
102
}
330
110
100
AcDbXrecord
 10
0.0
 20
0.0
 30
0.0
  0
XRECORD
  5
12A
102
{ACAD_REACTORS
330
110
102
}
330
110
100
AcDbXrecord
 10
0.0
 20
0.0
 30
0.0
  0
XRECORD
  5
12D
102
{ACAD_REACTORS
330
110
102
}
330
110
100
AcDbXrecord
 10
0.0
 20
0.0
 30
0.0
  0
XRECORD
  5
12B
102
{ACAD_REACTORS
330
110
102
}
330
110
100
AcDbXrecord
 10
0.0
 20
0.0
 30
0.0
  0
XRECORD
  5
12C
102
{ACAD_REACTORS
330
110
102
}
330
110
100
AcDbXrecord
 10
0.0
 20
0.0
 30
0.0
  0
XRECORD
  5
129
102
{ACAD_REACTORS
330
110
102
}
330
110
100
AcDbXrecord
 10
0.0
 20
0.0
 30
0.0
  0
XRECORD
  5
126
102
{ACAD_REACTORS
330
110
102
}
330
110
100
AcDbXrecord
340
0
  0
XRECORD
  5
127
102
{ACAD_REACTORS
330
110
102
}
330
110
100
AcDbXrecord
 70
     0
  0
XRECORD
  5
11B
102
{ACAD_REACTORS
330
110
102
}
330
110
100
AcDbXrecord
  1
{FAEB1C32-E019-11D5-929B-00C0DF256EC4}
  0
DICTIONARYVAR
  5
133
102
{ACAD_REACTORS
330
130
102
}
330
130
100
DictionaryVariables
280
     0
  1
2
  0
DICTIONARYVAR
  5
134
102
{ACAD_REACTORS
330
130
102
}
330
130
100
DictionaryVariables
280
     0
  1
1
  0
DICTIONARY
  5
137
330
3D
100
AcDbDictionary
280
     1
  3
ACAD_XREC_ROUNDTRIP
360
138
  0
DICTIONARY
  5
135
330
3C
100
AcDbDictionary
280
     1
  3
ACAD_XREC_ROUNDTRIP
360
136
  0
DICTIONARY
  5
139
330
3E
100
AcDbDictionary
280
     1
  3
ACAD_XREC_ROUNDTRIP
360
13A
  0
XRECORD
  5
138
102
{ACAD_REACTORS
330
137
102
}
330
137
100
AcDbXrecord
102
MATERIAL
148
0.0
149
0.0
149
0.0
 93
        0
 94
      127
282
     0
 72
     1
 77
     1
171
     1
175
     1
179
     1
273
     0
  0
XRECORD
  5
136
102
{ACAD_REACTORS
330
135
102
}
330
135
100
AcDbXrecord
102
MATERIAL
148
0.0
149
0.0
149
0.0
 93
        0
 94
      127
282
     0
 72
     1
 77
     1
171
     1
175
     1
179
     1
273
     0
  0
XRECORD
  5
13A
102
{ACAD_REACTORS
330
139
102
}
330
139
100
AcDbXrecord
102
MATERIAL
148
0.0
149
0.0
149
0.0
 93
        0
 94
      127
282
     0
 72
     1
 77
     1
171
     1
175
     1
179
     1
273
     0
  0
ENDSEC
  0
EOF
