  0
SECTION
  2
HEADER
  9
$ACADVER
  1
AC1021
  9
$ACADMAINTVER
 70
    25
  9
$DWGCODEPAGE
  3
ANSI_1252
  9
$INSBASE
 10
0.0
 20
0.0
 30
0.0
  9
$EXTMIN
 10
-56.3737
 20
-15.196
 30
0.0
  9
$EXTMAX
 10
56.0829
 20
15.196
 30
0.0
  9
$LIMMIN
 10
0.0
 20
0.0
  9
$LIMMAX
 10
12.0
 20
9.0
  9
$ORTHOMODE
 70
     0
  9
$REGENMODE
 70
     1
  9
$FILLMODE
 70
     1
  9
$QTEXTMODE
 70
     0
  9
$MIRRTEXT
 70
     1
  9
$LTSCALE
 40
1.0
  9
$ATTMODE
 70
     1
  9
$TEXTSIZE
 40
0.2
  9
$TRACEWID
 40
0.05
  9
$TEXTSTYLE
  7
Standard
  9
$CLAYER
  8
0
  9
$CELTYPE
  6
ByLayer
  9
$CECOLOR
 62
   256
  9
$CELTSCALE
 40
1.0
  9
$DISPSILH
 70
     0
  9
$DIMSCALE
 40
1.0
  9
$DIMASZ
 40
0.18
  9
$DIMEXO
 40
0.0625
  9
$DIMDLI
 40
0.38
  9
$DIMRND
 40
0.0
  9
$DIMDLE
 40
0.0
  9
$DIMEXE
 40
0.18
  9
$DIMTP
 40
0.0
  9
$DIMTM
 40
0.0
  9
$DIMTXT
 40
0.18
  9
$DIMCEN
 40
0.09
  9
$DIMTSZ
 40
0.0
  9
$DIMTOL
 70
     0
  9
$DIMLIM
 70
     0
  9
$DIMTIH
 70
     1
  9
$DIMTOH
 70
     1
  9
$DIMSE1
 70
     0
  9
$DIMSE2
 70
     0
  9
$DIMTAD
 70
     0
  9
$DIMZIN
 70
     0
  9
$DIMBLK
  1

  9
$DIMASO
 70
     1
  9
$DIMSHO
 70
     1
  9
$DIMPOST
  1

  9
$DIMAPOST
  1

  9
$DIMALT
 70
     0
  9
$DIMALTD
 70
     2
  9
$DIMALTF
 40
25.4
  9
$DIMLFAC
 40
1.0
  9
$DIMTOFL
 70
     0
  9
$DIMTVP
 40
0.0
  9
$DIMTIX
 70
     0
  9
$DIMSOXD
 70
     0
  9
$DIMSAH
 70
     0
  9
$DIMBLK1
  1

  9
$DIMBLK2
  1

  9
$DIMSTYLE
  2
Standard
  9
$DIMCLRD
 70
     0
  9
$DIMCLRE
 70
     0
  9
$DIMCLRT
 70
     0
  9
$DIMTFAC
 40
1.0
  9
$DIMGAP
 40
0.09
  9
$DIMJUST
 70
     0
  9
$DIMSD1
 70
     0
  9
$DIMSD2
 70
     0
  9
$DIMTOLJ
 70
     1
  9
$DIMTZIN
 70
     0
  9
$DIMALTZ
 70
     0
  9
$DIMALTTZ
 70
     0
  9
$DIMUPT
 70
     0
  9
$DIMDEC
 70
     4
  9
$DIMTDEC
 70
     4
  9
$DIMALTU
 70
     2
  9
$DIMALTTD
 70
     2
  9
$DIMTXSTY
  7
Standard
  9
$DIMAUNIT
 70
     0
  9
$DIMADEC
 70
     0
  9
$DIMALTRND
 40
0.0
  9
$DIMAZIN
 70
     0
  9
$DIMDSEP
 70
    46
  9
$DIMATFIT
 70
     3
  9
$DIMFRAC
 70
     0
  9
$DIMLDRBLK
  1

  9
$DIMLUNIT
 70
     2
  9
$DIMLWD
 70
    -2
  9
$DIMLWE
 70
    -2
  9
$DIMTMOVE
 70
     0
  9
$DIMFXL
 40
1.0
  9
$DIMFXLON
 70
     0
  9
$DIMJOGANG
 40
0.7853981633974483
  9
$DIMTFILL
 70
     0
  9
$DIMTFILLCLR
 70
     0
  9
$DIMARCSYM
 70
     0
  9
$DIMLTYPE
  6

  9
$DIMLTEX1
  6

  9
$DIMLTEX2
  6

  9
$LUNITS
 70
     2
  9
$LUPREC
 70
     4
  9
$SKETCHINC
 40
0.1
  9
$FILLETRAD
 40
0.5
  9
$AUNITS
 70
     0
  9
$AUPREC
 70
     0
  9
$MENU
  1
.
  9
$ELEVATION
 40
0.0
  9
$PELEVATION
 40
0.0
  9
$THICKNESS
 40
0.0
  9
$LIMCHECK
 70
     0
  9
$CHAMFERA
 40
0.0
  9
$CHAMFERB
 40
0.0
  9
$CHAMFERC
 40
0.0
  9
$CHAMFERD
 40
0.0
  9
$SKPOLY
 70
     0
  9
$TDCREATE
 40
2458425.570054282
  9
$TDUCREATE
 40
2458425.528387616
  9
$TDUPDATE
 40
2458425.570054479
  9
$TDUUPDATE
 40
2458425.528387812
  9
$TDINDWG
 40
0.0000000116
  9
$TDUSRTIMER
 40
0.0000000116
  9
$USRTIMER
 70
     1
  9
$ANGBASE
 50
0.0
  9
$ANGDIR
 70
     0
  9
$PDMODE
 70
     0
  9
$PDSIZE
 40
0.0
  9
$PLINEWID
 40
0.0
  9
$SPLFRAME
 70
     0
  9
$SPLINETYPE
 70
     6
  9
$SPLINESEGS
 70
     8
  9
$HANDSEED
  5
1BE
  9
$SURFTAB1
 70
     6
  9
$SURFTAB2
 70
     6
  9
$SURFTYPE
 70
     6
  9
$SURFU
 70
     6
  9
$SURFV
 70
     6
  9
$UCSBASE
  2

  9
$UCSNAME
  2

  9
$UCSORG
 10
0.0
 20
0.0
 30
0.0
  9
$UCSXDIR
 10
1.0
 20
0.0
 30
0.0
  9
$UCSYDIR
 10
0.0
 20
1.0
 30
0.0
  9
$UCSORTHOREF
  2

  9
$UCSORTHOVIEW
 70
     0
  9
$UCSORGTOP
 10
0.0
 20
0.0
 30
0.0
  9
$UCSORGBOTTOM
 10
0.0
 20
0.0
 30
0.0
  9
$UCSORGLEFT
 10
0.0
 20
0.0
 30
0.0
  9
$UCSORGRIGHT
 10
0.0
 20
0.0
 30
0.0
  9
$UCSORGFRONT
 10
0.0
 20
0.0
 30
0.0
  9
$UCSORGBACK
 10
0.0
 20
0.0
 30
0.0
  9
$PUCSBASE
  2

  9
$PUCSNAME
  2

  9
$PUCSORG
 10
0.0
 20
0.0
 30
0.0
  9
$PUCSXDIR
 10
1.0
 20
0.0
 30
0.0
  9
$PUCSYDIR
 10
0.0
 20
1.0
 30
0.0
  9
$PUCSORTHOREF
  2

  9
$PUCSORTHOVIEW
 70
     0
  9
$PUCSORGTOP
 10
0.0
 20
0.0
 30
0.0
  9
$PUCSORGBOTTOM
 10
0.0
 20
0.0
 30
0.0
  9
$PUCSORGLEFT
 10
0.0
 20
0.0
 30
0.0
  9
$PUCSORGRIGHT
 10
0.0
 20
0.0
 30
0.0
  9
$PUCSORGFRONT
 10
0.0
 20
0.0
 30
0.0
  9
$PUCSORGBACK
 10
0.0
 20
0.0
 30
0.0
  9
$USERI1
 70
     0
  9
$USERI2
 70
     0
  9
$USERI3
 70
     0
  9
$USERI4
 70
     0
  9
$USERI5
 70
     0
  9
$USERR1
 40
0.0
  9
$USERR2
 40
0.0
  9
$USERR3
 40
0.0
  9
$USERR4
 40
0.0
  9
$USERR5
 40
0.0
  9
$WORLDVIEW
 70
     1
  9
$SHADEDGE
 70
     3
  9
$SHADEDIF
 70
    70
  9
$TILEMODE
 70
     1
  9
$MAXACTVP
 70
    64
  9
$PINSBASE
 10
0.0
 20
0.0
 30
0.0
  9
$PLIMCHECK
 70
     0
  9
$PEXTMIN
 10
1.000000000000000E+20
 20
1.000000000000000E+20
 30
1.000000000000000E+20
  9
$PEXTMAX
 10
-1.000000000000000E+20
 20
-1.000000000000000E+20
 30
-1.000000000000000E+20
  9
$PLIMMIN
 10
0.0
 20
0.0
  9
$PLIMMAX
 10
12.0
 20
9.0
  9
$UNITMODE
 70
     0
  9
$VISRETAIN
 70
     1
  9
$PLINEGEN
 70
     0
  9
$PSLTSCALE
 70
     1
  9
$TREEDEPTH
 70
  3020
  9
$CMLSTYLE
  2
Standard
  9
$CMLJUST
 70
     0
  9
$CMLSCALE
 40
1.0
  9
$PROXYGRAPHICS
 70
     1
  9
$MEASUREMENT
 70
     0
  9
$CELWEIGHT
370
    -1
  9
$ENDCAPS
280
     0
  9
$JOINSTYLE
280
     0
  9
$LWDISPLAY
290
     0
  9
$INSUNITS
 70
     4
  9
$HYPERLINKBASE
  1

  9
$STYLESHEET
  1

  9
$XEDIT
290
     1
  9
$CEPSNTYPE
380
     0
  9
$PSTYLEMODE
290
     1
  9
$FINGERPRINTGUID
  2
{DB747C6B-72FC-4D04-94AD-6995417B44B4}
  9
$VERSIONGUID
  2
{FAEB1C32-E019-11D5-929B-00C0DF256EC4}
  9
$EXTNAMES
290
     1
  9
$PSVPSCALE
 40
0.0
  9
$OLESTARTUP
290
     0
  9
$SORTENTS
280
   127
  9
$INDEXCTL
280
     0
  9
$HIDETEXT
280
     1
  9
$XCLIPFRAME
290
     0
  9
$HALOGAP
280
     0
  9
$OBSCOLOR
 70
   257
  9
$OBSLTYPE
280
     0
  9
$INTERSECTIONDISPLAY
280
     0
  9
$INTERSECTIONCOLOR
 70
   257
  9
$DIMASSOC
280
     2
  9
$PROJECTNAME
  1

  9
$CAMERADISPLAY
290
     0
  9
$LENSLENGTH
 40
50.0
  9
$CAMERAHEIGHT
 40
0.0
  9
$STEPSPERSEC
 40
2.0
  9
$STEPSIZE
 40
6.0
  9
$3DDWFPREC
 40
2.0
  9
$PSOLWIDTH
 40
0.25
  9
$PSOLHEIGHT
 40
4.0
  9
$LOFTANG1
 40
1.570796326794897
  9
$LOFTANG2
 40
1.570796326794897
  9
$LOFTMAG1
 40
0.0
  9
$LOFTMAG2
 40
0.0
  9
$LOFTPARAM
 70
     7
  9
$LOFTNORMALS
280
     1
  9
$LATITUDE
 40
37.795
  9
$LONGITUDE
 40
-122.394
  9
$NORTHDIRECTION
 40
0.0
  9
$TIMEZONE
 70
 -8000
  9
$LIGHTGLYPHDISPLAY
280
     1
  9
$TILEMODELIGHTSYNCH
280
     1
  9
$CMATERIAL
347
44
  9
$SOLIDHIST
280
     0
  9
$SHOWHIST
280
     1
  9
$DWFFRAME
280
     2
  9
$DGNFRAME
280
     2
  9
$REALWORLDSCALE
290
     1
  9
$INTERFERECOLOR
 62
   256
  9
$CSHADOW
280
     0
  9
$SHADOWPLANELOCATION
 40
0.0
  0
ENDSEC
  0
SECTION
  2
CLASSES
  0
CLASS
  1
ACDBDICTIONARYWDFLT
  2
AcDbDictionaryWithDefault
  3
ObjectDBX Classes
 90
        0
 91
        4
280
     0
281
     0
  0
CLASS
  1
VISUALSTYLE
  2
AcDbVisualStyle
  3
ObjectDBX Classes
 90
     4095
 91
        4
280
     0
281
     0
  0
CLASS
  1
MATERIAL
  2
AcDbMaterial
  3
ObjectDBX Classes
 90
     1153
 91
        4
280
     0
281
     0
  0
CLASS
  1
SCALE
  2
AcDbScale
  3
ObjectDBX Classes
 90
     1153
 91
        4
280
     0
281
     0
  0
CLASS
  1
TABLESTYLE
  2
AcDbTableStyle
  3
ObjectDBX Classes
 90
     4095
 91
        4
280
     0
281
     0
  0
CLASS
  1
MLEADERSTYLE
  2
AcDbMLeaderStyle
  3
ACDB_MLEADERSTYLE_CLASS
 90
     4095
 91
        4
280
     0
281
     0
  0
CLASS
  1
SUN
  2
AcDbSun
  3
SCENEOE
 90
     1153
 91
        4
280
     0
281
     0
  0
CLASS
  1
DICTIONARYVAR
  2
AcDbDictionaryVar
  3
ObjectDBX Classes
 90
        0
 91
        4
280
     0
281
     0
  0
CLASS
  1
CELLSTYLEMAP
  2
AcDbCellStyleMap
  3
ObjectDBX Classes
 90
     1152
 91
        4
280
     0
281
     0
  0
ENDSEC
  0
SECTION
  2
TABLES
  0
TABLE
  2
VPORT
  5
8
330
0
100
AcDbSymbolTable
 70
     1
  0
VPORT
  5
29
330
8
100
AcDbSymbolTableRecord
100
AcDbViewportTableRecord
  2
*Active
 70
     0
 10
0.0
 20
0.0
 11
1.0
 21
1.0
 12
10.42990654205607
 22
4.5
 13
0.0
 23
0.0
 14
0.5
 24
0.5
 15
0.5
 25
0.5
 16
0.0
 26
0.0
 36
1.0
 17
0.0
 27
0.0
 37
0.0
 40
9.0
 41
1.972972972850329
 42
50.0
 43
0.0
 44
0.0
 50
0.0
 51
0.0
 71
     0
 72
   100
 73
     1
 74
     3
 75
     0
 76
     0
 77
     0
 78
     0
281
     0
 65
     1
110
0.0
120
0.0
130
0.0
111
1.0
121
0.0
131
0.0
112
0.0
122
1.0
132
0.0
 79
     0
146
0.0
348
2F
 60
     3
 61
     5
292
     1
282
     1
141
0.0
142
0.0
 63
   250
361
6D
  0
ENDTAB
  0
TABLE
  2
LTYPE
  5
5
330
0
100
AcDbSymbolTable
 70
     2
  0
LTYPE
  5
14
330
5
100
AcDbSymbolTableRecord
100
AcDbLinetypeTableRecord
  2
ByBlock
 70
     0
  3

 72
    65
 73
     0
 40
0.0
  0
LTYPE
  5
15
330
5
100
AcDbSymbolTableRecord
100
AcDbLinetypeTableRecord
  2
ByLayer
 70
     0
  3

 72
    65
 73
     0
 40
0.0
  0
LTYPE
  5
16
330
5
100
AcDbSymbolTableRecord
100
AcDbLinetypeTableRecord
  2
Continuous
 70
     0
  3
Solid line
 72
    65
 73
     0
 40
0.0
  0
LTYPE
  5
7C
330
5
100
AcDbSymbolTableRecord
100
AcDbLinetypeTableRecord
  2
New Line1
 70
     0
  3

 72
    65
 73
     4
 40
1.2
 49
0.5
 74
     4
 75
     0
340
0
 46
1.0
 50
0.0
 44
0.0
 45
0.0
 49
-0.3
 74
     4
 75
     0
340
0
 46
1.0
 50
0.0
 44
0.0
 45
0.0
 49
0.1
 74
     4
 75
     0
340
0
 46
1.0
 50
0.0
 44
0.0
 45
0.0
 49
-0.3
 74
     4
 75
     0
340
0
 46
1.0
 50
0.0
 44
0.0
 45
0.0
  0
ENDTAB
  0
TABLE
  2
LAYER
  5
2
330
0
100
AcDbSymbolTable
 70
     2
  0
LAYER
  5
10
330
2
100
AcDbSymbolTableRecord
100
AcDbLayerTableRecord
  2
0
 70
     0
 62
     7
  6
Continuous
370
    -3
390
F
347
46
  0
LAYER
  5
6F
330
2
100
AcDbSymbolTableRecord
100
AcDbLayerTableRecord
  2
Vrstva 1
 70
     0
 62
     7
  6
Continuous
370
    -3
390
F
347
46
  0
ENDTAB
  0
TABLE
  2
STYLE
  5
3
330
0
100
AcDbSymbolTable
 70
     1
  0
STYLE
  5
11
330
3
100
AcDbSymbolTableRecord
100
AcDbTextStyleTableRecord
  2
Standard
 70
     0
 40
0.0
 41
1.0
 50
0.0
 71
     0
 42
0.2
  3
txt
  4

  0
ENDTAB
  0
TABLE
  2
VIEW
  5
6
330
0
100
AcDbSymbolTable
 70
     0
  0
ENDTAB
  0
TABLE
  2
UCS
  5
7
330
0
100
AcDbSymbolTable
 70
     0
  0
ENDTAB
  0
TABLE
  2
APPID
  5
9
330
0
100
AcDbSymbolTable
 70
     3
  0
APPID
  5
12
330
9
100
AcDbSymbolTableRecord
100
AcDbRegAppTableRecord
  2
ACAD
 70
     0
  0
APPID
  5
6E
330
9
100
AcDbSymbolTableRecord
100
AcDbRegAppTableRecord
  2
ODA
 70
     0
  0
APPID
  5
1B6
330
9
100
AcDbSymbolTableRecord
100
AcDbRegAppTableRecord
  2
ACAD_MLEADERVER
 70
     0
  0
ENDTAB
  0
TABLE
  2
DIMSTYLE
  5
A
330
0
100
AcDbSymbolTable
 70
     1
100
AcDbDimStyleTable
  0
DIMSTYLE
105
27
330
A
100
AcDbSymbolTableRecord
100
AcDbDimStyleTableRecord
  2
Standard
 70
     0
178
     0
340
11
  0
ENDTAB
  0
TABLE
  2
BLOCK_RECORD
  5
1
330
0
100
AcDbSymbolTable
 70
     1
  0
BLOCK_RECORD
  5
1F
330
1
100
AcDbSymbolTableRecord
100
AcDbBlockTableRecord
  2
*Model_Space
340
22
 70
     0
280
     1
281
     0
  0
BLOCK_RECORD
  5
1B
330
1
100
AcDbSymbolTableRecord
100
AcDbBlockTableRecord
  2
*Paper_Space
340
1E
 70
     0
280
     1
281
     0
  0
BLOCK_RECORD
  5
23
330
1
100
AcDbSymbolTableRecord
100
AcDbBlockTableRecord
  2
*Paper_Space0
340
26
 70
     0
280
     1
281
     0
  0
ENDTAB
  0
ENDSEC
  0
SECTION
  2
BLOCKS
  0
BLOCK
  5
20
330
1F
100
AcDbEntity
  8
0
100
AcDbBlockBegin
  2
*Model_Space
 70
     0
 10
0.0
 20
0.0
 30
0.0
  3
*Model_Space
  1

  0
ENDBLK
  5
21
330
1F
100
AcDbEntity
  8
0
100
AcDbBlockEnd
  0
BLOCK
  5
1C
330
1B
100
AcDbEntity
 67
     1
  8
0
100
AcDbBlockBegin
  2
*Paper_Space
 70
     0
 10
0.0
 20
0.0
 30
0.0
  3
*Paper_Space
  1

  0
ENDBLK
  5
1D
330
1B
100
AcDbEntity
 67
     1
  8
0
100
AcDbBlockEnd
  0
BLOCK
  5
24
330
23
100
AcDbEntity
  8
0
100
AcDbBlockBegin
  2
*Paper_Space0
 70
     0
 10
0.0
 20
0.0
 30
0.0
  3
*Paper_Space0
  1

  0
ENDBLK
  5
25
330
23
100
AcDbEntity
  8
0
100
AcDbBlockEnd
  0
ENDSEC
  0
SECTION
  2
ENTITIES
  0
SPLINE
  5
70
330
1F
100
AcDbEntity
  8
Vrstva 1
 62
   250
370
    15
100
AcDbSpline
210
0.0
220
0.0
230
1.0
 70
    27
 71
     3
 72
    11
 73
     7
 74
     0
 42
0.000000001
 43
0.0000000001
 40
0.0
 40
0.0
 40
0.0
 40
0.0
 40
1.0
 40
1.0
 40
1.0
 40
26.8696
 40
26.8696
 40
26.8696
 40
26.8696
 10
-29.9931
 20
-10.6736
 30
0.0
 10
-29.9931
 20
-10.6736
 30
0.0
 10
-29.9931
 20
15.196
 30
0.0
 10
-29.9931
 20
15.196
 30
0.0
 10
-29.9931
 20
15.196
 30
0.0
 10
-29.9931
 20
-10.6736
 30
0.0
 10
-29.9931
 20
-10.6736
 30
0.0
  0
SPLINE
  5
71
330
1F
100
AcDbEntity
  8
Vrstva 1
 62
   250
370
    15
100
AcDbSpline
210
0.0
220
0.0
230
1.0
 70
    27
 71
     3
 72
    12
 73
     8
 74
     0
 42
0.000000001
 43
0.0000000001
 40
0.0
 40
0.0
 40
0.0
 40
0.0
 40
0.3333333333333333
 40
0.3333333333333333
 40
0.3333333333333333
 40
0.3333333333333333
 40
1.0
 40
1.0
 40
1.0
 40
1.0
 10
53.2444
 20
-14.5999
 30
0.0
 10
53.2444
 20
-14.5999
 30
0.0
 10
-53.6176
 20
-14.5999
 30
0.0
 10
-53.6176
 20
-14.5999
 30
0.0
 10
-53.6176
 20
-14.5999
 30
0.0
 10
-53.6176
 20
-14.5999
 30
0.0
 10
53.2444
 20
-14.5999
 30
0.0
 10
53.2444
 20
-14.5999
 30
0.0
  0
SPLINE
  5
72
330
1F
100
AcDbEntity
  8
Vrstva 1
 62
   250
100
AcDbSpline
210
0.0
220
0.0
230
1.0
 70
    11
 71
     3
 72
    52
 73
    48
 74
     0
 42
0.000000001
 43
0.0000000001
 40
0.0
 40
0.0
 40
0.0
 40
0.0
 40
0.0769230769230769
 40
0.0769230769230769
 40
0.0769230769230769
 40
0.0769230769230769
 40
0.1538461538461539
 40
0.1538461538461539
 40
0.1538461538461539
 40
0.1538461538461539
 40
0.2307692307692308
 40
0.2307692307692308
 40
0.2307692307692308
 40
0.2307692307692308
 40
0.3076923076923077
 40
0.3076923076923077
 40
0.3076923076923077
 40
0.3076923076923077
 40
0.3846153846153846
 40
0.3846153846153846
 40
0.3846153846153846
 40
0.3846153846153846
 40
0.4615384615384616
 40
0.4615384615384616
 40
0.4615384615384616
 40
0.4615384615384616
 40
0.5384615384615384
 40
0.5384615384615384
 40
0.5384615384615384
 40
0.5384615384615384
 40
0.6153846153846154
 40
0.6153846153846154
 40
0.6153846153846154
 40
0.6153846153846154
 40
0.6923076923076923
 40
0.6923076923076923
 40
0.6923076923076923
 40
0.6923076923076923
 40
0.7692307692307693
 40
0.7692307692307693
 40
0.7692307692307693
 40
0.7692307692307693
 40
0.8461538461538461
 40
0.8461538461538461
 40
0.8461538461538461
 40
0.8461538461538461
 40
1.0
 40
1.0
 40
1.0
 40
1.0
 10
-30.6651
 20
-10.1221
 30
0.0
 10
-30.6651
 20
-10.1221
 30
0.0
 10
-30.9969
 20
-9.8754
 30
0.0
 10
-30.9969
 20
-9.8754
 30
0.0
 10
-30.9969
 20
-9.8754
 30
0.0
 10
-30.8598
 20
-9.6901
 30
0.0
 10
-30.7847
 20
-9.4614
 30
0.0
 10
-30.7834
 20
-9.2169
 30
0.0
 10
-30.7834
 20
-9.2169
 30
0.0
 10
-30.7789
 20
-8.589
 30
0.0
 10
-31.237
 20
-8.023
 30
0.0
 10
-32.149
 20
-8.017
 30
0.0
 10
-32.149
 20
-8.017
 30
0.0
 10
-32.5331
 20
-8.0146
 30
0.0
 10
-32.8756
 20
-8.1326
 30
0.0
 10
-33.1136
 20
-8.3485
 30
0.0
 10
-33.1136
 20
-8.3485
 30
0.0
 10
-33.1136
 20
-8.3485
 30
0.0
 10
-33.4452
 20
-8.1056
 30
0.0
 10
-33.4452
 20
-8.1056
 30
0.0
 10
-33.4452
 20
-8.1056
 30
0.0
 10
-33.4452
 20
-8.1056
 30
0.0
 10
-33.5869
 20
-8.3102
 30
0.0
 10
-33.5869
 20
-8.3102
 30
0.0
 10
-33.5869
 20
-8.3102
 30
0.0
 10
-33.5869
 20
-8.3102
 30
0.0
 10
-33.274
 20
-8.5414
 30
0.0
 10
-33.274
 20
-8.5414
 30
0.0
 10
-33.274
 20
-8.5414
 30
0.0
 10
-33.4148
 20
-8.7266
 30
0.0
 10
-33.486
 20
-8.9514
 30
0.0
 10
-33.4873
 20
-9.192
 30
0.0
 10
-33.4873
 20
-9.192
 30
0.0
 10
-33.492
 20
-9.8789
 30
0.0
 10
-32.9561
 20
-10.4024
 30
0.0
 10
-32.1296
 20
-10.4075
 30
0.0
 10
-32.1296
 20
-10.4075
 30
0.0
 10
-31.7377
 20
-10.41
 30
0.0
 10
-31.3952
 20
-10.2842
 30
0.0
 10
-31.1571
 20
-10.0682
 30
0.0
 10
-31.1571
 20
-10.0682
 30
0.0
 10
-31.1571
 20
-10.0682
 30
0.0
 10
-30.8216
 20
-10.3111
 30
0.0
 10
-30.8216
 20
-10.3111
 30
0.0
 10
-30.8216
 20
-10.3111
 30
0.0
 10
-30.8216
 20
-10.3111
 30
0.0
 10
-30.6651
 20
-10.1221
 30
0.0
 10
-30.6651
 20
-10.1221
 30
0.0
  0
SPLINE
  5
73
330
1F
100
AcDbEntity
  8
Vrstva 1
 62
   250
100
AcDbSpline
210
0.0
220
0.0
230
1.0
 70
    11
 71
     3
 72
    24
 73
    20
 74
     0
 42
0.000000001
 43
0.0000000001
 40
0.0
 40
0.0
 40
0.0
 40
0.0
 40
0.1666666666666667
 40
0.1666666666666667
 40
0.1666666666666667
 40
0.1666666666666667
 40
0.3333333333333333
 40
0.3333333333333333
 40
0.3333333333333333
 40
0.3333333333333333
 40
0.5
 40
0.5
 40
0.5
 40
0.5
 40
0.6666666666666666
 40
0.6666666666666666
 40
0.6666666666666666
 40
0.6666666666666666
 40
1.0
 40
1.0
 40
1.0
 40
1.0
 10
-31.443
 20
-9.8689
 30
0.0
 10
-31.443
 20
-9.8689
 30
0.0
 10
-31.4393
 20
-9.8767
 30
0.0
 10
-31.4393
 20
-9.8767
 30
0.0
 10
-31.4393
 20
-9.8767
 30
0.0
 10
-31.642
 20
-9.9918
 30
0.0
 10
-31.8517
 20
-10.0642
 30
0.0
 10
-32.1428
 20
-10.0621
 30
0.0
 10
-32.1428
 20
-10.0621
 30
0.0
 10
-32.6938
 20
-10.0585
 30
0.0
 10
-33.2194
 20
-9.7678
 30
0.0
 10
-33.2157
 20
-9.2012
 30
0.0
 10
-33.2157
 20
-9.2012
 30
0.0
 10
-33.2145
 20
-9.0033
 30
0.0
 10
-33.1436
 20
-8.8413
 30
0.0
 10
-33.0306
 20
-8.7096
 30
0.0
 10
-33.0306
 20
-8.7096
 30
0.0
 10
-33.0306
 20
-8.7096
 30
0.0
 10
-31.443
 20
-9.8689
 30
0.0
 10
-31.443
 20
-9.8689
 30
0.0
  0
SPLINE
  5
74
330
1F
100
AcDbEntity
  8
Vrstva 1
 62
   250
100
AcDbSpline
210
0.0
220
0.0
230
1.0
 70
    11
 71
     3
 72
    24
 73
    20
 74
     0
 42
0.000000001
 43
0.0000000001
 40
0.0
 40
0.0
 40
0.0
 40
0.0
 40
0.1666666666666667
 40
0.1666666666666667
 40
0.1666666666666667
 40
0.1666666666666667
 40
0.3333333333333333
 40
0.3333333333333333
 40
0.3333333333333333
 40
0.3333333333333333
 40
0.5
 40
0.5
 40
0.5
 40
0.5
 40
0.6666666666666666
 40
0.6666666666666666
 40
0.6666666666666666
 40
0.6666666666666666
 40
1.0
 40
1.0
 40
1.0
 40
1.0
 10
-32.8238
 20
-8.5518
 30
0.0
 10
-32.8238
 20
-8.5518
 30
0.0
 10
-32.8237
 20
-8.5401
 30
0.0
 10
-32.8237
 20
-8.5401
 30
0.0
 10
-32.8237
 20
-8.5401
 30
0.0
 10
-32.5976
 20
-8.4063
 30
0.0
 10
-32.3647
 20
-8.3611
 30
0.0
 10
-32.1396
 20
-8.3625
 30
0.0
 10
-32.1396
 20
-8.3625
 30
0.0
 10
-31.5537
 20
-8.3661
 30
0.0
 10
-31.0515
 20
-8.6761
 30
0.0
 10
-31.055
 20
-9.2194
 30
0.0
 10
-31.055
 20
-9.2194
 30
0.0
 10
-31.0563
 20
-9.4328
 30
0.0
 10
-31.1234
 20
-9.58
 30
0.0
 10
-31.2441
 20
-9.7072
 30
0.0
 10
-31.2441
 20
-9.7072
 30
0.0
 10
-31.2441
 20
-9.7072
 30
0.0
 10
-32.8238
 20
-8.5518
 30
0.0
 10
-32.8238
 20
-8.5518
 30
0.0
  0
SPLINE
  5
75
330
1F
100
AcDbEntity
  8
Vrstva 1
 62
   250
100
AcDbSpline
210
0.0
220
0.0
230
1.0
 70
    11
 71
     3
 72
    48
 73
    44
 74
     0
 42
0.000000001
 43
0.0000000001
 40
0.0
 40
0.0
 40
0.0
 40
0.0
 40
0.0833333333333333
 40
0.0833333333333333
 40
0.0833333333333333
 40
0.0833333333333333
 40
0.1666666666666667
 40
0.1666666666666667
 40
0.1666666666666667
 40
0.1666666666666667
 40
0.25
 40
0.25
 40
0.25
 40
0.25
 40
0.3333333333333333
 40
0.3333333333333333
 40
0.3333333333333333
 40
0.3333333333333333
 40
0.4166666666666667
 40
0.4166666666666667
 40
0.4166666666666667
 40
0.4166666666666667
 40
0.5
 40
0.5
 40
0.5
 40
0.5
 40
0.5833333333333334
 40
0.5833333333333334
 40
0.5833333333333334
 40
0.5833333333333334
 40
0.6666666666666666
 40
0.6666666666666666
 40
0.6666666666666666
 40
0.6666666666666666
 40
0.75
 40
0.75
 40
0.75
 40
0.75
 40
0.8333333333333334
 40
0.8333333333333334
 40
0.8333333333333334
 40
0.8333333333333334
 40
1.0
 40
1.0
 40
1.0
 40
1.0
 10
-30.8167
 20
-6.3297
 30
0.0
 10
-30.8167
 20
-6.3297
 30
0.0
 10
-31.5075
 20
-6.3251
 30
0.0
 10
-31.5075
 20
-6.3251
 30
0.0
 10
-31.5075
 20
-6.3251
 30
0.0
 10
-31.5075
 20
-6.3251
 30
0.0
 10
-31.5051
 20
-5.9726
 30
0.0
 10
-31.5051
 20
-5.9726
 30
0.0
 10
-31.5051
 20
-5.9726
 30
0.0
 10
-31.5051
 20
-5.9726
 30
0.0
 10
-31.7689
 20
-5.9705
 30
0.0
 10
-31.7689
 20
-5.9705
 30
0.0
 10
-31.7689
 20
-5.9705
 30
0.0
 10
-31.7689
 20
-5.9705
 30
0.0
 10
-31.7707
 20
-6.3237
 30
0.0
 10
-31.7707
 20
-6.3237
 30
0.0
 10
-31.7707
 20
-6.3237
 30
0.0
 10
-31.7707
 20
-6.3237
 30
0.0
 10
-33.3384
 20
-6.3138
 30
0.0
 10
-33.3384
 20
-6.3138
 30
0.0
 10
-33.3384
 20
-6.3138
 30
0.0
 10
-33.3384
 20
-6.3138
 30
0.0
 10
-33.3408
 20
-6.6823
 30
0.0
 10
-33.3408
 20
-6.6823
 30
0.0
 10
-33.3408
 20
-6.6823
 30
0.0
 10
-33.3408
 20
-6.6823
 30
0.0
 10
-31.7383
 20
-7.8178
 30
0.0
 10
-31.7383
 20
-7.8178
 30
0.0
 10
-31.7383
 20
-7.8178
 30
0.0
 10
-31.7383
 20
-7.8178
 30
0.0
 10
-31.5171
 20
-7.819
 30
0.0
 10
-31.5171
 20
-7.819
 30
0.0
 10
-31.5171
 20
-7.819
 30
0.0
 10
-31.5171
 20
-7.819
 30
0.0
 10
-31.5091
 20
-6.6472
 30
0.0
 10
-31.5091
 20
-6.6472
 30
0.0
 10
-31.5091
 20
-6.6472
 30
0.0
 10
-31.5091
 20
-6.6472
 30
0.0
 10
-30.8184
 20
-6.6518
 30
0.0
 10
-30.8184
 20
-6.6518
 30
0.0
 10
-30.8184
 20
-6.6518
 30
0.0
 10
-30.8184
 20
-6.6518
 30
0.0
 10
-30.8167
 20
-6.3297
 30
0.0
 10
-30.8167
 20
-6.3297
 30
0.0
  0
SPLINE
  5
76
330
1F
100
AcDbEntity
  8
Vrstva 1
 62
   250
100
AcDbSpline
210
0.0
220
0.0
230
1.0
 70
    11
 71
     3
 72
    32
 73
    28
 74
     0
 42
0.000000001
 43
0.0000000001
 40
0.0
 40
0.0
 40
0.0
 40
0.0
 40
0.125
 40
0.125
 40
0.125
 40
0.125
 40
0.25
 40
0.25
 40
0.25
 40
0.25
 40
0.375
 40
0.375
 40
0.375
 40
0.375
 40
0.5
 40
0.5
 40
0.5
 40
0.5
 40
0.625
 40
0.625
 40
0.625
 40
0.625
 40
0.75
 40
0.75
 40
0.75
 40
0.75
 40
1.0
 40
1.0
 40
1.0
 40
1.0
 10
-31.7786
 20
-7.4722
 30
0.0
 10
-31.7786
 20
-7.4722
 30
0.0
 10
-31.7864
 20
-7.4722
 30
0.0
 10
-31.7864
 20
-7.4722
 30
0.0
 10
-31.7864
 20
-7.4722
 30
0.0
 10
-31.7864
 20
-7.4722
 30
0.0
 10
-32.6396
 20
-6.8495
 30
0.0
 10
-32.6396
 20
-6.8495
 30
0.0
 10
-32.6396
 20
-6.8495
 30
0.0
 10
-32.7558
 20
-6.7792
 30
0.0
 10
-32.8636
 20
-6.7162
 30
0.0
 10
-33.0108
 20
-6.6374
 30
0.0
 10
-33.0108
 20
-6.6374
 30
0.0
 10
-33.0108
 20
-6.6374
 30
0.0
 10
-33.0108
 20
-6.6258
 30
0.0
 10
-33.0108
 20
-6.6258
 30
0.0
 10
-33.0108
 20
-6.6258
 30
0.0
 10
-32.8788
 20
-6.6346
 30
0.0
 10
-32.7469
 20
-6.6395
 30
0.0
 10
-32.6149
 20
-6.6399
 30
0.0
 10
-32.6149
 20
-6.6399
 30
0.0
 10
-32.6149
 20
-6.6399
 30
0.0
 10
-31.7729
 20
-6.6457
 30
0.0
 10
-31.7729
 20
-6.6457
 30
0.0
 10
-31.7729
 20
-6.6457
 30
0.0
 10
-31.7729
 20
-6.6457
 30
0.0
 10
-31.7786
 20
-7.4722
 30
0.0
 10
-31.7786
 20
-7.4722
 30
0.0
  0
SPLINE
  5
77
330
1F
100
AcDbEntity
  8
Vrstva 1
 62
   250
100
AcDbSpline
210
0.0
220
0.0
230
1.0
 70
    11
 71
     3
 72
    20
 73
    16
 74
     0
 42
0.000000001
 43
0.0000000001
 40
0.0
 40
0.0
 40
0.0
 40
0.0
 40
0.2
 40
0.2
 40
0.2
 40
0.2
 40
0.4
 40
0.4
 40
0.4
 40
0.4
 40
0.6
 40
0.6
 40
0.6
 40
0.6
 40
1.0
 40
1.0
 40
1.0
 40
1.0
 10
-33.3786
 20
-4.8539
 30
0.0
 10
-33.3821
 20
-5.3661
 30
0.0
 10
-32.9227
 20
-5.7381
 30
0.0
 10
-32.0729
 20
-5.7433
 30
0.0
 10
-32.0729
 20
-5.7433
 30
0.0
 10
-31.2385
 20
-5.7412
 30
0.0
 10
-30.7745
 20
-5.4063
 30
0.0
 10
-30.7717
 20
-4.9135
 30
0.0
 10
-30.7717
 20
-4.9135
 30
0.0
 10
-30.7681
 20
-4.3586
 30
0.0
 10
-31.2393
 20
-4.0338
 30
0.0
 10
-32.0969
 20
-4.028
 30
0.0
 10
-32.0969
 20
-4.028
 30
0.0
 10
-32.9001
 20
-4.023
 30
0.0
 10
-33.3751
 20
-4.3261
 30
0.0
 10
-33.3786
 20
-4.8539
 30
0.0
  0
SPLINE
  5
78
330
1F
100
AcDbEntity
  8
Vrstva 1
 62
   250
100
AcDbSpline
210
0.0
220
0.0
230
1.0
 70
    11
 71
     3
 72
    20
 73
    16
 74
     0
 42
0.000000001
 43
0.0000000001
 40
0.0
 40
0.0
 40
0.0
 40
0.0
 40
0.2
 40
0.2
 40
0.2
 40
0.2
 40
0.4
 40
0.4
 40
0.4
 40
0.4
 40
0.6
 40
0.6
 40
0.6
 40
0.6
 40
1.0
 40
1.0
 40
1.0
 40
1.0
 10
-33.1148
 20
-4.8793
 30
0.0
 10
-33.1125
 20
-4.5222
 30
0.0
 10
-32.7045
 20
-4.3695
 30
0.0
 10
-32.0836
 20
-4.3734
 30
0.0
 10
-32.0836
 20
-4.3734
 30
0.0
 10
-31.4395
 20
-4.3779
 30
0.0
 10
-31.0332
 20
-4.5473
 30
0.0
 10
-31.0356
 20
-4.8927
 30
0.0
 10
-31.0356
 20
-4.8927
 30
0.0
 10
-31.0371
 20
-5.2031
 30
0.0
 10
-31.4109
 20
-5.4024
 30
0.0
 10
-32.0667
 20
-5.3979
 30
0.0
 10
-32.0667
 20
-5.3979
 30
0.0
 10
-32.7535
 20
-5.3939
 30
0.0
 10
-33.1169
 20
-5.1742
 30
0.0
 10
-33.1148
 20
-4.8793
 30
0.0
  0
SPLINE
  5
79
330
1F
100
AcDbEntity
  8
Vrstva 1
 62
   250
370
    15
100
AcDbSpline
210
0.0
220
0.0
230
1.0
 70
    27
 71
     3
 72
    11
 73
     7
 74
     0
 42
0.000000001
 43
0.0000000001
 40
0.0
 40
0.0
 40
0.0
 40
0.0
 40
1.0
 40
1.0
 40
1.0
 40
11.7512
 40
11.7512
 40
11.7512
 40
11.7512
 10
-54.6059
 20
-4.4448
 30
0.0
 10
-54.6059
 20
-4.4448
 30
0.0
 10
-54.6059
 20
-15.196
 30
0.0
 10
-54.6059
 20
-15.196
 30
0.0
 10
-54.6059
 20
-15.196
 30
0.0
 10
-54.6059
 20
-4.4448
 30
0.0
 10
-54.6059
 20
-4.4448
 30
0.0
  0
SPLINE
  5
7A
330
1F
100
AcDbEntity
  8
Vrstva 1
 62
   250
370
    15
100
AcDbSpline
210
0.0
220
0.0
230
1.0
 70
    27
 71
     3
 72
    11
 73
     7
 74
     0
 42
0.000000001
 43
0.0000000001
 40
0.0
 40
0.0
 40
0.0
 40
0.0
 40
1.0
 40
1.0
 40
1.0
 40
11.5854
 40
11.5854
 40
11.5854
 40
11.5854
 10
54.0375
 20
-4.5896
 30
0.0
 10
54.0375
 20
-4.5896
 30
0.0
 10
54.0375
 20
-15.175
 30
0.0
 10
54.0375
 20
-15.175
 30
0.0
 10
54.0375
 20
-15.175
 30
0.0
 10
54.0375
 20
-4.5896
 30
0.0
 10
54.0375
 20
-4.5896
 30
0.0
  0
SPLINE
  5
7B
330
1F
100
AcDbEntity
  8
Vrstva 1
  6
New Line1
 62
   250
370
    15
100
AcDbSpline
210
0.0
220
0.0
230
1.0
 70
    27
 71
     3
 72
    11
 73
     7
 74
     0
 42
0.000000001
 43
0.0000000001
 40
0.0
 40
0.0
 40
0.0
 40
0.0
 40
1.0
 40
1.0
 40
1.0
 40
113.7475
 40
113.7475
 40
113.7475
 40
113.7475
 10
-56.3737
 20
4.1672
 30
0.0
 10
-56.3737
 20
4.1672
 30
0.0
 10
56.3738
 20
4.1672
 30
0.0
 10
56.3738
 20
4.1672
 30
0.0
 10
56.3738
 20
4.1672
 30
0.0
 10
-56.3737
 20
4.1672
 30
0.0
 10
-56.3737
 20
4.1672
 30
0.0
  0
SPLINE
  5
7D
330
1F
100
AcDbEntity
  8
Vrstva 1
 62
   250
370
    15
100
AcDbSpline
210
0.0
220
0.0
230
1.0
 70
    27
 71
     3
 72
    11
 73
     7
 74
     0
 42
0.000000001
 43
0.0000000001
 40
0.0
 40
0.0
 40
0.0
 40
0.0
 40
1.0
 40
1.0
 40
1.0
 40
24.4477
 40
24.4477
 40
24.4477
 40
24.4477
 10
30.2261
 20
-10.0668
 30
0.0
 10
30.2261
 20
-10.0668
 30
0.0
 10
30.2261
 20
13.3809
 30
0.0
 10
30.2261
 20
13.3809
 30
0.0
 10
30.2261
 20
13.3809
 30
0.0
 10
30.2261
 20
-10.0668
 30
0.0
 10
30.2261
 20
-10.0668
 30
0.0
  0
SPLINE
  5
7E
330
1F
100
AcDbEntity
  8
Vrstva 1
 62
   250
100
AcDbSpline
210
0.0
220
0.0
230
1.0
 70
    11
 71
     3
 72
    52
 73
    48
 74
     0
 42
0.000000001
 43
0.0000000001
 40
0.0
 40
0.0
 40
0.0
 40
0.0
 40
0.0769230769230769
 40
0.0769230769230769
 40
0.0769230769230769
 40
0.0769230769230769
 40
0.1538461538461539
 40
0.1538461538461539
 40
0.1538461538461539
 40
0.1538461538461539
 40
0.2307692307692308
 40
0.2307692307692308
 40
0.2307692307692308
 40
0.2307692307692308
 40
0.3076923076923077
 40
0.3076923076923077
 40
0.3076923076923077
 40
0.3076923076923077
 40
0.3846153846153846
 40
0.3846153846153846
 40
0.3846153846153846
 40
0.3846153846153846
 40
0.4615384615384616
 40
0.4615384615384616
 40
0.4615384615384616
 40
0.4615384615384616
 40
0.5384615384615384
 40
0.5384615384615384
 40
0.5384615384615384
 40
0.5384615384615384
 40
0.6153846153846154
 40
0.6153846153846154
 40
0.6153846153846154
 40
0.6153846153846154
 40
0.6923076923076923
 40
0.6923076923076923
 40
0.6923076923076923
 40
0.6923076923076923
 40
0.7692307692307693
 40
0.7692307692307693
 40
0.7692307692307693
 40
0.7692307692307693
 40
0.8461538461538461
 40
0.8461538461538461
 40
0.8461538461538461
 40
0.8461538461538461
 40
1.0
 40
1.0
 40
1.0
 40
1.0
 10
29.5722
 20
-9.5046
 30
0.0
 10
29.5722
 20
-9.5046
 30
0.0
 10
29.2404
 20
-9.2579
 30
0.0
 10
29.2404
 20
-9.2579
 30
0.0
 10
29.2404
 20
-9.2579
 30
0.0
 10
29.3775
 20
-9.0726
 30
0.0
 10
29.4526
 20
-8.8439
 30
0.0
 10
29.4539
 20
-8.5994
 30
0.0
 10
29.4539
 20
-8.5994
 30
0.0
 10
29.4584
 20
-7.9715
 30
0.0
 10
29.0003
 20
-7.4055
 30
0.0
 10
28.0883
 20
-7.3995
 30
0.0
 10
28.0883
 20
-7.3995
 30
0.0
 10
27.7042
 20
-7.3971
 30
0.0
 10
27.3617
 20
-7.5151
 30
0.0
 10
27.1237
 20
-7.731
 30
0.0
 10
27.1237
 20
-7.731
 30
0.0
 10
27.1237
 20
-7.731
 30
0.0
 10
26.7921
 20
-7.4881
 30
0.0
 10
26.7921
 20
-7.4881
 30
0.0
 10
26.7921
 20
-7.4881
 30
0.0
 10
26.7921
 20
-7.4881
 30
0.0
 10
26.6504
 20
-7.6927
 30
0.0
 10
26.6504
 20
-7.6927
 30
0.0
 10
26.6504
 20
-7.6927
 30
0.0
 10
26.6504
 20
-7.6927
 30
0.0
 10
26.9633
 20
-7.9239
 30
0.0
 10
26.9633
 20
-7.9239
 30
0.0
 10
26.9633
 20
-7.9239
 30
0.0
 10
26.8225
 20
-8.1091
 30
0.0
 10
26.7513
 20
-8.3339
 30
0.0
 10
26.75
 20
-8.5745
 30
0.0
 10
26.75
 20
-8.5745
 30
0.0
 10
26.7453
 20
-9.2614
 30
0.0
 10
27.2812
 20
-9.7849
 30
0.0
 10
28.1077
 20
-9.79
 30
0.0
 10
28.1077
 20
-9.79
 30
0.0
 10
28.4996
 20
-9.7925
 30
0.0
 10
28.8421
 20
-9.6667
 30
0.0
 10
29.0802
 20
-9.4507
 30
0.0
 10
29.0802
 20
-9.4507
 30
0.0
 10
29.0802
 20
-9.4507
 30
0.0
 10
29.4157
 20
-9.6936
 30
0.0
 10
29.4157
 20
-9.6936
 30
0.0
 10
29.4157
 20
-9.6936
 30
0.0
 10
29.4157
 20
-9.6936
 30
0.0
 10
29.5722
 20
-9.5046
 30
0.0
 10
29.5722
 20
-9.5046
 30
0.0
  0
SPLINE
  5
7F
330
1F
100
AcDbEntity
  8
Vrstva 1
 62
   250
100
AcDbSpline
210
0.0
220
0.0
230
1.0
 70
    11
 71
     3
 72
    24
 73
    20
 74
     0
 42
0.000000001
 43
0.0000000001
 40
0.0
 40
0.0
 40
0.0
 40
0.0
 40
0.1666666666666667
 40
0.1666666666666667
 40
0.1666666666666667
 40
0.1666666666666667
 40
0.3333333333333333
 40
0.3333333333333333
 40
0.3333333333333333
 40
0.3333333333333333
 40
0.5
 40
0.5
 40
0.5
 40
0.5
 40
0.6666666666666666
 40
0.6666666666666666
 40
0.6666666666666666
 40
0.6666666666666666
 40
1.0
 40
1.0
 40
1.0
 40
1.0
 10
28.7943
 20
-9.2514
 30
0.0
 10
28.7943
 20
-9.2514
 30
0.0
 10
28.798
 20
-9.2592
 30
0.0
 10
28.798
 20
-9.2592
 30
0.0
 10
28.798
 20
-9.2592
 30
0.0
 10
28.5953
 20
-9.3743
 30
0.0
 10
28.3856
 20
-9.4467
 30
0.0
 10
28.0945
 20
-9.4446
 30
0.0
 10
28.0945
 20
-9.4446
 30
0.0
 10
27.5435
 20
-9.441
 30
0.0
 10
27.0179
 20
-9.1503
 30
0.0
 10
27.0216
 20
-8.5837
 30
0.0
 10
27.0216
 20
-8.5837
 30
0.0
 10
27.0228
 20
-8.3858
 30
0.0
 10
27.0937
 20
-8.2238
 30
0.0
 10
27.2067
 20
-8.0921
 30
0.0
 10
27.2067
 20
-8.0921
 30
0.0
 10
27.2067
 20
-8.0921
 30
0.0
 10
28.7943
 20
-9.2514
 30
0.0
 10
28.7943
 20
-9.2514
 30
0.0
  0
SPLINE
  5
80
330
1F
100
AcDbEntity
  8
Vrstva 1
 62
   250
100
AcDbSpline
210
0.0
220
0.0
230
1.0
 70
    11
 71
     3
 72
    24
 73
    20
 74
     0
 42
0.000000001
 43
0.0000000001
 40
0.0
 40
0.0
 40
0.0
 40
0.0
 40
0.1666666666666667
 40
0.1666666666666667
 40
0.1666666666666667
 40
0.1666666666666667
 40
0.3333333333333333
 40
0.3333333333333333
 40
0.3333333333333333
 40
0.3333333333333333
 40
0.5
 40
0.5
 40
0.5
 40
0.5
 40
0.6666666666666666
 40
0.6666666666666666
 40
0.6666666666666666
 40
0.6666666666666666
 40
1.0
 40
1.0
 40
1.0
 40
1.0
 10
27.4135
 20
-7.9343
 30
0.0
 10
27.4135
 20
-7.9343
 30
0.0
 10
27.4136
 20
-7.9226
 30
0.0
 10
27.4136
 20
-7.9226
 30
0.0
 10
27.4136
 20
-7.9226
 30
0.0
 10
27.6397
 20
-7.7888
 30
0.0
 10
27.8726
 20
-7.7436
 30
0.0
 10
28.0977
 20
-7.745
 30
0.0
 10
28.0977
 20
-7.745
 30
0.0
 10
28.6836
 20
-7.7486
 30
0.0
 10
29.1858
 20
-8.0586
 30
0.0
 10
29.1823
 20
-8.6019
 30
0.0
 10
29.1823
 20
-8.6019
 30
0.0
 10
29.181
 20
-8.8153
 30
0.0
 10
29.1139
 20
-8.9625
 30
0.0
 10
28.9932
 20
-9.0897
 30
0.0
 10
28.9932
 20
-9.0897
 30
0.0
 10
28.9932
 20
-9.0897
 30
0.0
 10
27.4135
 20
-7.9343
 30
0.0
 10
27.4135
 20
-7.9343
 30
0.0
  0
SPLINE
  5
81
330
1F
100
AcDbEntity
  8
Vrstva 1
 62
   250
100
AcDbSpline
210
0.0
220
0.0
230
1.0
 70
    11
 71
     3
 72
    48
 73
    44
 74
     0
 42
0.000000001
 43
0.0000000001
 40
0.0
 40
0.0
 40
0.0
 40
0.0
 40
0.0833333333333333
 40
0.0833333333333333
 40
0.0833333333333333
 40
0.0833333333333333
 40
0.1666666666666667
 40
0.1666666666666667
 40
0.1666666666666667
 40
0.1666666666666667
 40
0.25
 40
0.25
 40
0.25
 40
0.25
 40
0.3333333333333333
 40
0.3333333333333333
 40
0.3333333333333333
 40
0.3333333333333333
 40
0.4166666666666667
 40
0.4166666666666667
 40
0.4166666666666667
 40
0.4166666666666667
 40
0.5
 40
0.5
 40
0.5
 40
0.5
 40
0.5833333333333334
 40
0.5833333333333334
 40
0.5833333333333334
 40
0.5833333333333334
 40
0.6666666666666666
 40
0.6666666666666666
 40
0.6666666666666666
 40
0.6666666666666666
 40
0.75
 40
0.75
 40
0.75
 40
0.75
 40
0.8333333333333334
 40
0.8333333333333334
 40
0.8333333333333334
 40
0.8333333333333334
 40
1.0
 40
1.0
 40
1.0
 40
1.0
 10
29.4206
 20
-5.7122
 30
0.0
 10
29.4206
 20
-5.7122
 30
0.0
 10
28.7298
 20
-5.7076
 30
0.0
 10
28.7298
 20
-5.7076
 30
0.0
 10
28.7298
 20
-5.7076
 30
0.0
 10
28.7298
 20
-5.7076
 30
0.0
 10
28.7322
 20
-5.3551
 30
0.0
 10
28.7322
 20
-5.3551
 30
0.0
 10
28.7322
 20
-5.3551
 30
0.0
 10
28.7322
 20
-5.3551
 30
0.0
 10
28.4684
 20
-5.353
 30
0.0
 10
28.4684
 20
-5.353
 30
0.0
 10
28.4684
 20
-5.353
 30
0.0
 10
28.4684
 20
-5.353
 30
0.0
 10
28.4666
 20
-5.7062
 30
0.0
 10
28.4666
 20
-5.7062
 30
0.0
 10
28.4666
 20
-5.7062
 30
0.0
 10
28.4666
 20
-5.7062
 30
0.0
 10
26.8989
 20
-5.6963
 30
0.0
 10
26.8989
 20
-5.6963
 30
0.0
 10
26.8989
 20
-5.6963
 30
0.0
 10
26.8989
 20
-5.6963
 30
0.0
 10
26.8965
 20
-6.0648
 30
0.0
 10
26.8965
 20
-6.0648
 30
0.0
 10
26.8965
 20
-6.0648
 30
0.0
 10
26.8965
 20
-6.0648
 30
0.0
 10
28.499
 20
-7.2003
 30
0.0
 10
28.499
 20
-7.2003
 30
0.0
 10
28.499
 20
-7.2003
 30
0.0
 10
28.499
 20
-7.2003
 30
0.0
 10
28.7202
 20
-7.2015
 30
0.0
 10
28.7202
 20
-7.2015
 30
0.0
 10
28.7202
 20
-7.2015
 30
0.0
 10
28.7202
 20
-7.2015
 30
0.0
 10
28.7282
 20
-6.0297
 30
0.0
 10
28.7282
 20
-6.0297
 30
0.0
 10
28.7282
 20
-6.0297
 30
0.0
 10
28.7282
 20
-6.0297
 30
0.0
 10
29.4189
 20
-6.0343
 30
0.0
 10
29.4189
 20
-6.0343
 30
0.0
 10
29.4189
 20
-6.0343
 30
0.0
 10
29.4189
 20
-6.0343
 30
0.0
 10
29.4206
 20
-5.7122
 30
0.0
 10
29.4206
 20
-5.7122
 30
0.0
  0
SPLINE
  5
82
330
1F
100
AcDbEntity
  8
Vrstva 1
 62
   250
100
AcDbSpline
210
0.0
220
0.0
230
1.0
 70
    11
 71
     3
 72
    32
 73
    28
 74
     0
 42
0.000000001
 43
0.0000000001
 40
0.0
 40
0.0
 40
0.0
 40
0.0
 40
0.125
 40
0.125
 40
0.125
 40
0.125
 40
0.25
 40
0.25
 40
0.25
 40
0.25
 40
0.375
 40
0.375
 40
0.375
 40
0.375
 40
0.5
 40
0.5
 40
0.5
 40
0.5
 40
0.625
 40
0.625
 40
0.625
 40
0.625
 40
0.75
 40
0.75
 40
0.75
 40
0.75
 40
1.0
 40
1.0
 40
1.0
 40
1.0
 10
28.4587
 20
-6.8547
 30
0.0
 10
28.4587
 20
-6.8547
 30
0.0
 10
28.4509
 20
-6.8547
 30
0.0
 10
28.4509
 20
-6.8547
 30
0.0
 10
28.4509
 20
-6.8547
 30
0.0
 10
28.4509
 20
-6.8547
 30
0.0
 10
27.5977
 20
-6.232
 30
0.0
 10
27.5977
 20
-6.232
 30
0.0
 10
27.5977
 20
-6.232
 30
0.0
 10
27.4815
 20
-6.1617
 30
0.0
 10
27.3737
 20
-6.0987
 30
0.0
 10
27.2265
 20
-6.0199
 30
0.0
 10
27.2265
 20
-6.0199
 30
0.0
 10
27.2265
 20
-6.0199
 30
0.0
 10
27.2265
 20
-6.0083
 30
0.0
 10
27.2265
 20
-6.0083
 30
0.0
 10
27.2265
 20
-6.0083
 30
0.0
 10
27.3585
 20
-6.0171
 30
0.0
 10
27.4904
 20
-6.022
 30
0.0
 10
27.6224
 20
-6.0224
 30
0.0
 10
27.6224
 20
-6.0224
 30
0.0
 10
27.6224
 20
-6.0224
 30
0.0
 10
28.4644
 20
-6.0282
 30
0.0
 10
28.4644
 20
-6.0282
 30
0.0
 10
28.4644
 20
-6.0282
 30
0.0
 10
28.4644
 20
-6.0282
 30
0.0
 10
28.4587
 20
-6.8547
 30
0.0
 10
28.4587
 20
-6.8547
 30
0.0
  0
SPLINE
  5
83
330
1F
100
AcDbEntity
  8
Vrstva 1
 62
   250
100
AcDbSpline
210
0.0
220
0.0
230
1.0
 70
    11
 71
     3
 72
    20
 73
    16
 74
     0
 42
0.000000001
 43
0.0000000001
 40
0.0
 40
0.0
 40
0.0
 40
0.0
 40
0.2
 40
0.2
 40
0.2
 40
0.2
 40
0.4
 40
0.4
 40
0.4
 40
0.4
 40
0.6
 40
0.6
 40
0.6
 40
0.6
 40
1.0
 40
1.0
 40
1.0
 40
1.0
 10
26.8587
 20
-4.2364
 30
0.0
 10
26.8552
 20
-4.7486
 30
0.0
 10
27.3146
 20
-5.1206
 30
0.0
 10
28.1644
 20
-5.1258
 30
0.0
 10
28.1644
 20
-5.1258
 30
0.0
 10
28.9988
 20
-5.1237
 30
0.0
 10
29.4628
 20
-4.7888
 30
0.0
 10
29.4656
 20
-4.296
 30
0.0
 10
29.4656
 20
-4.296
 30
0.0
 10
29.4692
 20
-3.7411
 30
0.0
 10
28.998
 20
-3.4163
 30
0.0
 10
28.1404
 20
-3.4105
 30
0.0
 10
28.1404
 20
-3.4105
 30
0.0
 10
27.3372
 20
-3.4055
 30
0.0
 10
26.8622
 20
-3.7086
 30
0.0
 10
26.8587
 20
-4.2364
 30
0.0
  0
SPLINE
  5
84
330
1F
100
AcDbEntity
  8
Vrstva 1
 62
   250
100
AcDbSpline
210
0.0
220
0.0
230
1.0
 70
    11
 71
     3
 72
    20
 73
    16
 74
     0
 42
0.000000001
 43
0.0000000001
 40
0.0
 40
0.0
 40
0.0
 40
0.0
 40
0.2
 40
0.2
 40
0.2
 40
0.2
 40
0.4
 40
0.4
 40
0.4
 40
0.4
 40
0.6
 40
0.6
 40
0.6
 40
0.6
 40
1.0
 40
1.0
 40
1.0
 40
1.0
 10
27.1225
 20
-4.2618
 30
0.0
 10
27.1248
 20
-3.9047
 30
0.0
 10
27.5328
 20
-3.752
 30
0.0
 10
28.1537
 20
-3.7559
 30
0.0
 10
28.1537
 20
-3.7559
 30
0.0
 10
28.7978
 20
-3.7604
 30
0.0
 10
29.2041
 20
-3.9298
 30
0.0
 10
29.2017
 20
-4.2752
 30
0.0
 10
29.2017
 20
-4.2752
 30
0.0
 10
29.2002
 20
-4.5856
 30
0.0
 10
28.8264
 20
-4.7849
 30
0.0
 10
28.1706
 20
-4.7804
 30
0.0
 10
28.1706
 20
-4.7804
 30
0.0
 10
27.4838
 20
-4.7764
 30
0.0
 10
27.1204
 20
-4.5567
 30
0.0
 10
27.1225
 20
-4.2618
 30
0.0
  0
SPLINE
  5
85
330
1F
100
AcDbEntity
  8
Vrstva 1
 62
   250
370
    15
100
AcDbSpline
210
0.0
220
0.0
230
1.0
 70
    27
 71
     3
 72
    11
 73
     7
 74
     0
 42
0.000000001
 43
0.0000000001
 40
0.0
 40
0.0
 40
0.0
 40
0.0
 40
1.0
 40
1.0
 40
1.0
 40
27.1762
 40
27.1762
 40
27.1762
 40
27.1762
 10
-45.524
 20
-11.4775
 30
0.0
 10
-45.524
 20
-11.4775
 30
0.0
 10
-45.524
 20
14.6987
 30
0.0
 10
-45.524
 20
14.6987
 30
0.0
 10
-45.524
 20
14.6987
 30
0.0
 10
-45.524
 20
-11.4775
 30
0.0
 10
-45.524
 20
-11.4775
 30
0.0
  0
SPLINE
  5
86
330
1F
100
AcDbEntity
  8
Vrstva 1
 62
   250
100
AcDbSpline
210
0.0
220
0.0
230
1.0
 70
    11
 71
     3
 72
    52
 73
    48
 74
     0
 42
0.000000001
 43
0.0000000001
 40
0.0
 40
0.0
 40
0.0
 40
0.0
 40
0.0769230769230769
 40
0.0769230769230769
 40
0.0769230769230769
 40
0.0769230769230769
 40
0.1538461538461539
 40
0.1538461538461539
 40
0.1538461538461539
 40
0.1538461538461539
 40
0.2307692307692308
 40
0.2307692307692308
 40
0.2307692307692308
 40
0.2307692307692308
 40
0.3076923076923077
 40
0.3076923076923077
 40
0.3076923076923077
 40
0.3076923076923077
 40
0.3846153846153846
 40
0.3846153846153846
 40
0.3846153846153846
 40
0.3846153846153846
 40
0.4615384615384616
 40
0.4615384615384616
 40
0.4615384615384616
 40
0.4615384615384616
 40
0.5384615384615384
 40
0.5384615384615384
 40
0.5384615384615384
 40
0.5384615384615384
 40
0.6153846153846154
 40
0.6153846153846154
 40
0.6153846153846154
 40
0.6153846153846154
 40
0.6923076923076923
 40
0.6923076923076923
 40
0.6923076923076923
 40
0.6923076923076923
 40
0.7692307692307693
 40
0.7692307692307693
 40
0.7692307692307693
 40
0.7692307692307693
 40
0.8461538461538461
 40
0.8461538461538461
 40
0.8461538461538461
 40
0.8461538461538461
 40
1.0
 40
1.0
 40
1.0
 40
1.0
 10
-46.2874
 20
-11.4303
 30
0.0
 10
-46.2874
 20
-11.4303
 30
0.0
 10
-46.6192
 20
-11.1836
 30
0.0
 10
-46.6192
 20
-11.1836
 30
0.0
 10
-46.6192
 20
-11.1836
 30
0.0
 10
-46.4821
 20
-10.9983
 30
0.0
 10
-46.407
 20
-10.7696
 30
0.0
 10
-46.4057
 20
-10.5251
 30
0.0
 10
-46.4057
 20
-10.5251
 30
0.0
 10
-46.4012
 20
-9.8972
 30
0.0
 10
-46.8593
 20
-9.3312
 30
0.0
 10
-47.7713
 20
-9.3252
 30
0.0
 10
-47.7713
 20
-9.3252
 30
0.0
 10
-48.1554
 20
-9.3228
 30
0.0
 10
-48.4979
 20
-9.4408
 30
0.0
 10
-48.7359
 20
-9.6567
 30
0.0
 10
-48.7359
 20
-9.6567
 30
0.0
 10
-48.7359
 20
-9.6567
 30
0.0
 10
-49.0675
 20
-9.4138
 30
0.0
 10
-49.0675
 20
-9.4138
 30
0.0
 10
-49.0675
 20
-9.4138
 30
0.0
 10
-49.0675
 20
-9.4138
 30
0.0
 10
-49.2092
 20
-9.6184
 30
0.0
 10
-49.2092
 20
-9.6184
 30
0.0
 10
-49.2092
 20
-9.6184
 30
0.0
 10
-49.2092
 20
-9.6184
 30
0.0
 10
-48.8963
 20
-9.8496
 30
0.0
 10
-48.8963
 20
-9.8496
 30
0.0
 10
-48.8963
 20
-9.8496
 30
0.0
 10
-49.0371
 20
-10.0348
 30
0.0
 10
-49.1083
 20
-10.2596
 30
0.0
 10
-49.1096
 20
-10.5002
 30
0.0
 10
-49.1096
 20
-10.5002
 30
0.0
 10
-49.1143
 20
-11.1871
 30
0.0
 10
-48.5784
 20
-11.7106
 30
0.0
 10
-47.7519
 20
-11.7157
 30
0.0
 10
-47.7519
 20
-11.7157
 30
0.0
 10
-47.36
 20
-11.7182
 30
0.0
 10
-47.0175
 20
-11.5924
 30
0.0
 10
-46.7794
 20
-11.3764
 30
0.0
 10
-46.7794
 20
-11.3764
 30
0.0
 10
-46.7794
 20
-11.3764
 30
0.0
 10
-46.4439
 20
-11.6193
 30
0.0
 10
-46.4439
 20
-11.6193
 30
0.0
 10
-46.4439
 20
-11.6193
 30
0.0
 10
-46.4439
 20
-11.6193
 30
0.0
 10
-46.2874
 20
-11.4303
 30
0.0
 10
-46.2874
 20
-11.4303
 30
0.0
  0
SPLINE
  5
87
330
1F
100
AcDbEntity
  8
Vrstva 1
 62
   250
100
AcDbSpline
210
0.0
220
0.0
230
1.0
 70
    11
 71
     3
 72
    24
 73
    20
 74
     0
 42
0.000000001
 43
0.0000000001
 40
0.0
 40
0.0
 40
0.0
 40
0.0
 40
0.1666666666666667
 40
0.1666666666666667
 40
0.1666666666666667
 40
0.1666666666666667
 40
0.3333333333333333
 40
0.3333333333333333
 40
0.3333333333333333
 40
0.3333333333333333
 40
0.5
 40
0.5
 40
0.5
 40
0.5
 40
0.6666666666666666
 40
0.6666666666666666
 40
0.6666666666666666
 40
0.6666666666666666
 40
1.0
 40
1.0
 40
1.0
 40
1.0
 10
-47.0653
 20
-11.1771
 30
0.0
 10
-47.0653
 20
-11.1771
 30
0.0
 10
-47.0616
 20
-11.1849
 30
0.0
 10
-47.0616
 20
-11.1849
 30
0.0
 10
-47.0616
 20
-11.1849
 30
0.0
 10
-47.2643
 20
-11.3
 30
0.0
 10
-47.474
 20
-11.3724
 30
0.0
 10
-47.7651
 20
-11.3703
 30
0.0
 10
-47.7651
 20
-11.3703
 30
0.0
 10
-48.3161
 20
-11.3667
 30
0.0
 10
-48.8417
 20
-11.076
 30
0.0
 10
-48.838
 20
-10.5094
 30
0.0
 10
-48.838
 20
-10.5094
 30
0.0
 10
-48.8368
 20
-10.3115
 30
0.0
 10
-48.7659
 20
-10.1495
 30
0.0
 10
-48.6529
 20
-10.0178
 30
0.0
 10
-48.6529
 20
-10.0178
 30
0.0
 10
-48.6529
 20
-10.0178
 30
0.0
 10
-47.0653
 20
-11.1771
 30
0.0
 10
-47.0653
 20
-11.1771
 30
0.0
  0
SPLINE
  5
88
330
1F
100
AcDbEntity
  8
Vrstva 1
 62
   250
100
AcDbSpline
210
0.0
220
0.0
230
1.0
 70
    11
 71
     3
 72
    24
 73
    20
 74
     0
 42
0.000000001
 43
0.0000000001
 40
0.0
 40
0.0
 40
0.0
 40
0.0
 40
0.1666666666666667
 40
0.1666666666666667
 40
0.1666666666666667
 40
0.1666666666666667
 40
0.3333333333333333
 40
0.3333333333333333
 40
0.3333333333333333
 40
0.3333333333333333
 40
0.5
 40
0.5
 40
0.5
 40
0.5
 40
0.6666666666666666
 40
0.6666666666666666
 40
0.6666666666666666
 40
0.6666666666666666
 40
1.0
 40
1.0
 40
1.0
 40
1.0
 10
-48.4461
 20
-9.86
 30
0.0
 10
-48.4461
 20
-9.86
 30
0.0
 10
-48.446
 20
-9.8483
 30
0.0
 10
-48.446
 20
-9.8483
 30
0.0
 10
-48.446
 20
-9.8483
 30
0.0
 10
-48.2199
 20
-9.7145
 30
0.0
 10
-47.987
 20
-9.6693
 30
0.0
 10
-47.7619
 20
-9.6707
 30
0.0
 10
-47.7619
 20
-9.6707
 30
0.0
 10
-47.176
 20
-9.6743
 30
0.0
 10
-46.6738
 20
-9.9843
 30
0.0
 10
-46.6773
 20
-10.5276
 30
0.0
 10
-46.6773
 20
-10.5276
 30
0.0
 10
-46.6786
 20
-10.741
 30
0.0
 10
-46.7457
 20
-10.8882
 30
0.0
 10
-46.8664
 20
-11.0154
 30
0.0
 10
-46.8664
 20
-11.0154
 30
0.0
 10
-46.8664
 20
-11.0154
 30
0.0
 10
-48.4461
 20
-9.86
 30
0.0
 10
-48.4461
 20
-9.86
 30
0.0
  0
SPLINE
  5
89
330
1F
100
AcDbEntity
  8
Vrstva 1
 62
   250
100
AcDbSpline
210
0.0
220
0.0
230
1.0
 70
    11
 71
     3
 72
    64
 73
    60
 74
     0
 42
0.000000001
 43
0.0000000001
 40
0.0
 40
0.0
 40
0.0
 40
0.0
 40
0.0625
 40
0.0625
 40
0.0625
 40
0.0625
 40
0.125
 40
0.125
 40
0.125
 40
0.125
 40
0.1875
 40
0.1875
 40
0.1875
 40
0.1875
 40
0.25
 40
0.25
 40
0.25
 40
0.25
 40
0.3125
 40
0.3125
 40
0.3125
 40
0.3125
 40
0.375
 40
0.375
 40
0.375
 40
0.375
 40
0.4375
 40
0.4375
 40
0.4375
 40
0.4375
 40
0.5
 40
0.5
 40
0.5
 40
0.5
 40
0.5625
 40
0.5625
 40
0.5625
 40
0.5625
 40
0.625
 40
0.625
 40
0.625
 40
0.625
 40
0.6875
 40
0.6875
 40
0.6875
 40
0.6875
 40
0.75
 40
0.75
 40
0.75
 40
0.75
 40
0.8125
 40
0.8125
 40
0.8125
 40
0.8125
 40
0.875
 40
0.875
 40
0.875
 40
0.875
 40
1.0
 40
1.0
 40
1.0
 40
1.0
 10
-48.9603
 20
-7.4939
 30
0.0
 10
-48.9603
 20
-7.4939
 30
0.0
 10
-48.9678
 20
-8.7
 30
0.0
 10
-48.9678
 20
-8.7
 30
0.0
 10
-48.9678
 20
-8.7
 30
0.0
 10
-48.9678
 20
-8.7
 30
0.0
 10
-47.7582
 20
-8.8712
 30
0.0
 10
-47.7582
 20
-8.8712
 30
0.0
 10
-47.7582
 20
-8.8712
 30
0.0
 10
-47.7696
 20
-8.778
 30
0.0
 10
-47.7803
 20
-8.6655
 30
0.0
 10
-47.7791
 20
-8.518
 30
0.0
 10
-47.7791
 20
-8.518
 30
0.0
 10
-47.7763
 20
-8.0174
 30
0.0
 10
-47.5455
 20
-7.7976
 30
0.0
 10
-47.2195
 20
-7.7999
 30
0.0
 10
-47.2195
 20
-7.7999
 30
0.0
 10
-46.8819
 20
-7.7983
 30
0.0
 10
-46.6744
 20
-8.0789
 30
0.0
 10
-46.6767
 20
-8.3971
 30
0.0
 10
-46.6767
 20
-8.3971
 30
0.0
 10
-46.6781
 20
-8.63
 30
0.0
 10
-46.7569
 20
-8.8348
 30
0.0
 10
-46.82
 20
-8.9394
 30
0.0
 10
-46.82
 20
-8.9394
 30
0.0
 10
-46.82
 20
-8.9394
 30
0.0
 10
-46.5603
 20
-9.0262
 30
0.0
 10
-46.5603
 20
-9.0262
 30
0.0
 10
-46.5603
 20
-9.0262
 30
0.0
 10
-46.4816
 20
-8.9028
 30
0.0
 10
-46.4027
 20
-8.6741
 30
0.0
 10
-46.4012
 20
-8.3987
 30
0.0
 10
-46.4012
 20
-8.3987
 30
0.0
 10
-46.3976
 20
-7.8515
 30
0.0
 10
-46.7638
 20
-7.4572
 30
0.0
 10
-47.2566
 20
-7.4544
 30
0.0
 10
-47.2566
 20
-7.4544
 30
0.0
 10
-47.5702
 20
-7.4521
 30
0.0
 10
-47.7926
 20
-7.6139
 30
0.0
 10
-47.9025
 20
-7.8107
 30
0.0
 10
-47.9025
 20
-7.8107
 30
0.0
 10
-48.0006
 20
-7.9656
 30
0.0
 10
-48.0407
 20
-8.1557
 30
0.0
 10
-48.0419
 20
-8.3529
 30
0.0
 10
-48.0419
 20
-8.3529
 30
0.0
 10
-48.0428
 20
-8.4461
 30
0.0
 10
-48.0391
 20
-8.5004
 30
0.0
 10
-48.0315
 20
-8.5593
 30
0.0
 10
-48.0315
 20
-8.5593
 30
0.0
 10
-48.0315
 20
-8.5593
 30
0.0
 10
-48.6793
 20
-8.4577
 30
0.0
 10
-48.6793
 20
-8.4577
 30
0.0
 10
-48.6793
 20
-8.4577
 30
0.0
 10
-48.6793
 20
-8.4577
 30
0.0
 10
-48.6731
 20
-7.4954
 30
0.0
 10
-48.6731
 20
-7.4954
 30
0.0
 10
-48.6731
 20
-7.4954
 30
0.0
 10
-48.6731
 20
-7.4954
 30
0.0
 10
-48.9603
 20
-7.4939
 30
0.0
 10
-48.9603
 20
-7.4939
 30
0.0
  0
SPLINE
  5
8A
330
1F
100
AcDbEntity
  8
Vrstva 1
 62
   250
100
AcDbSpline
210
0.0
220
0.0
230
1.0
 70
    11
 71
     3
 72
    20
 73
    16
 74
     0
 42
0.000000001
 43
0.0000000001
 40
0.0
 40
0.0
 40
0.0
 40
0.0
 40
0.2
 40
0.2
 40
0.2
 40
0.2
 40
0.4
 40
0.4
 40
0.4
 40
0.4
 40
0.6
 40
0.6
 40
0.6
 40
0.6
 40
1.0
 40
1.0
 40
1.0
 40
1.0
 10
-49.0009
 20
-6.1621
 30
0.0
 10
-49.0044
 20
-6.6743
 30
0.0
 10
-48.545
 20
-7.0463
 30
0.0
 10
-47.6952
 20
-7.0515
 30
0.0
 10
-47.6952
 20
-7.0515
 30
0.0
 10
-46.8608
 20
-7.0494
 30
0.0
 10
-46.3968
 20
-6.7145
 30
0.0
 10
-46.394
 20
-6.2217
 30
0.0
 10
-46.394
 20
-6.2217
 30
0.0
 10
-46.3904
 20
-5.6668
 30
0.0
 10
-46.8616
 20
-5.342
 30
0.0
 10
-47.7192
 20
-5.3362
 30
0.0
 10
-47.7192
 20
-5.3362
 30
0.0
 10
-48.5224
 20
-5.3312
 30
0.0
 10
-48.9974
 20
-5.6343
 30
0.0
 10
-49.0009
 20
-6.1621
 30
0.0
  0
SPLINE
  5
8B
330
1F
100
AcDbEntity
  8
Vrstva 1
 62
   250
100
AcDbSpline
210
0.0
220
0.0
230
1.0
 70
    11
 71
     3
 72
    20
 73
    16
 74
     0
 42
0.000000001
 43
0.0000000001
 40
0.0
 40
0.0
 40
0.0
 40
0.0
 40
0.2
 40
0.2
 40
0.2
 40
0.2
 40
0.4
 40
0.4
 40
0.4
 40
0.4
 40
0.6
 40
0.6
 40
0.6
 40
0.6
 40
1.0
 40
1.0
 40
1.0
 40
1.0
 10
-48.7371
 20
-6.1875
 30
0.0
 10
-48.7348
 20
-5.8304
 30
0.0
 10
-48.3268
 20
-5.6777
 30
0.0
 10
-47.7059
 20
-5.6816
 30
0.0
 10
-47.7059
 20
-5.6816
 30
0.0
 10
-47.0618
 20
-5.6861
 30
0.0
 10
-46.6555
 20
-5.8555
 30
0.0
 10
-46.6579
 20
-6.2009
 30
0.0
 10
-46.6579
 20
-6.2009
 30
0.0
 10
-46.6594
 20
-6.5113
 30
0.0
 10
-47.0332
 20
-6.7106
 30
0.0
 10
-47.689
 20
-6.7061
 30
0.0
 10
-47.689
 20
-6.7061
 30
0.0
 10
-48.3758
 20
-6.7021
 30
0.0
 10
-48.7392
 20
-6.4824
 30
0.0
 10
-48.7371
 20
-6.1875
 30
0.0
  0
SPLINE
  5
8C
330
1F
100
AcDbEntity
  8
Vrstva 1
 62
   250
370
    15
100
AcDbSpline
210
0.0
220
0.0
230
1.0
 70
    27
 71
     3
 72
    11
 73
     7
 74
     0
 42
0.000000001
 43
0.0000000001
 40
0.0
 40
0.0
 40
0.0
 40
0.0
 40
1.0
 40
1.0
 40
1.0
 40
28.7923
 40
28.7923
 40
28.7923
 40
28.7923
 10
45.4561
 20
-12.8515
 30
0.0
 10
45.4561
 20
-12.8515
 30
0.0
 10
45.4561
 20
14.9408
 30
0.0
 10
45.4561
 20
14.9408
 30
0.0
 10
45.4561
 20
14.9408
 30
0.0
 10
45.4561
 20
-12.8515
 30
0.0
 10
45.4561
 20
-12.8515
 30
0.0
  0
SPLINE
  5
8D
330
1F
100
AcDbEntity
  8
Vrstva 1
 62
   250
100
AcDbSpline
210
0.0
220
0.0
230
1.0
 70
    11
 71
     3
 72
    52
 73
    48
 74
     0
 42
0.000000001
 43
0.0000000001
 40
0.0
 40
0.0
 40
0.0
 40
0.0
 40
0.0769230769230769
 40
0.0769230769230769
 40
0.0769230769230769
 40
0.0769230769230769
 40
0.1538461538461539
 40
0.1538461538461539
 40
0.1538461538461539
 40
0.1538461538461539
 40
0.2307692307692308
 40
0.2307692307692308
 40
0.2307692307692308
 40
0.2307692307692308
 40
0.3076923076923077
 40
0.3076923076923077
 40
0.3076923076923077
 40
0.3076923076923077
 40
0.3846153846153846
 40
0.3846153846153846
 40
0.3846153846153846
 40
0.3846153846153846
 40
0.4615384615384616
 40
0.4615384615384616
 40
0.4615384615384616
 40
0.4615384615384616
 40
0.5384615384615384
 40
0.5384615384615384
 40
0.5384615384615384
 40
0.5384615384615384
 40
0.6153846153846154
 40
0.6153846153846154
 40
0.6153846153846154
 40
0.6153846153846154
 40
0.6923076923076923
 40
0.6923076923076923
 40
0.6923076923076923
 40
0.6923076923076923
 40
0.7692307692307693
 40
0.7692307692307693
 40
0.7692307692307693
 40
0.7692307692307693
 40
0.8461538461538461
 40
0.8461538461538461
 40
0.8461538461538461
 40
0.8461538461538461
 40
1.0
 40
1.0
 40
1.0
 40
1.0
 10
45.2431
 20
-12.271
 30
0.0
 10
45.2431
 20
-12.271
 30
0.0
 10
44.9113
 20
-12.0243
 30
0.0
 10
44.9113
 20
-12.0243
 30
0.0
 10
44.9113
 20
-12.0243
 30
0.0
 10
45.0484
 20
-11.839
 30
0.0
 10
45.1235
 20
-11.6103
 30
0.0
 10
45.1248
 20
-11.3658
 30
0.0
 10
45.1248
 20
-11.3658
 30
0.0
 10
45.1293
 20
-10.7379
 30
0.0
 10
44.6712
 20
-10.1719
 30
0.0
 10
43.7592
 20
-10.1659
 30
0.0
 10
43.7592
 20
-10.1659
 30
0.0
 10
43.3751
 20
-10.1635
 30
0.0
 10
43.0326
 20
-10.2815
 30
0.0
 10
42.7946
 20
-10.4974
 30
0.0
 10
42.7946
 20
-10.4974
 30
0.0
 10
42.7946
 20
-10.4974
 30
0.0
 10
42.463
 20
-10.2545
 30
0.0
 10
42.463
 20
-10.2545
 30
0.0
 10
42.463
 20
-10.2545
 30
0.0
 10
42.463
 20
-10.2545
 30
0.0
 10
42.3213
 20
-10.4591
 30
0.0
 10
42.3213
 20
-10.4591
 30
0.0
 10
42.3213
 20
-10.4591
 30
0.0
 10
42.3213
 20
-10.4591
 30
0.0
 10
42.6342
 20
-10.6903
 30
0.0
 10
42.6342
 20
-10.6903
 30
0.0
 10
42.6342
 20
-10.6903
 30
0.0
 10
42.4934
 20
-10.8755
 30
0.0
 10
42.4222
 20
-11.1003
 30
0.0
 10
42.4209
 20
-11.3409
 30
0.0
 10
42.4209
 20
-11.3409
 30
0.0
 10
42.4162
 20
-12.0278
 30
0.0
 10
42.9521
 20
-12.5513
 30
0.0
 10
43.7786
 20
-12.5564
 30
0.0
 10
43.7786
 20
-12.5564
 30
0.0
 10
44.1705
 20
-12.5589
 30
0.0
 10
44.513
 20
-12.4331
 30
0.0
 10
44.7511
 20
-12.2171
 30
0.0
 10
44.7511
 20
-12.2171
 30
0.0
 10
44.7511
 20
-12.2171
 30
0.0
 10
45.0866
 20
-12.46
 30
0.0
 10
45.0866
 20
-12.46
 30
0.0
 10
45.0866
 20
-12.46
 30
0.0
 10
45.0866
 20
-12.46
 30
0.0
 10
45.2431
 20
-12.271
 30
0.0
 10
45.2431
 20
-12.271
 30
0.0
  0
SPLINE
  5
8E
330
1F
100
AcDbEntity
  8
Vrstva 1
 62
   250
100
AcDbSpline
210
0.0
220
0.0
230
1.0
 70
    11
 71
     3
 72
    24
 73
    20
 74
     0
 42
0.000000001
 43
0.0000000001
 40
0.0
 40
0.0
 40
0.0
 40
0.0
 40
0.1666666666666667
 40
0.1666666666666667
 40
0.1666666666666667
 40
0.1666666666666667
 40
0.3333333333333333
 40
0.3333333333333333
 40
0.3333333333333333
 40
0.3333333333333333
 40
0.5
 40
0.5
 40
0.5
 40
0.5
 40
0.6666666666666666
 40
0.6666666666666666
 40
0.6666666666666666
 40
0.6666666666666666
 40
1.0
 40
1.0
 40
1.0
 40
1.0
 10
44.4652
 20
-12.0178
 30
0.0
 10
44.4652
 20
-12.0178
 30
0.0
 10
44.4689
 20
-12.0256
 30
0.0
 10
44.4689
 20
-12.0256
 30
0.0
 10
44.4689
 20
-12.0256
 30
0.0
 10
44.2662
 20
-12.1407
 30
0.0
 10
44.0565
 20
-12.2131
 30
0.0
 10
43.7654
 20
-12.211
 30
0.0
 10
43.7654
 20
-12.211
 30
0.0
 10
43.2144
 20
-12.2074
 30
0.0
 10
42.6888
 20
-11.9167
 30
0.0
 10
42.6925
 20
-11.3501
 30
0.0
 10
42.6925
 20
-11.3501
 30
0.0
 10
42.6937
 20
-11.1522
 30
0.0
 10
42.7646
 20
-10.9902
 30
0.0
 10
42.8776
 20
-10.8585
 30
0.0
 10
42.8776
 20
-10.8585
 30
0.0
 10
42.8776
 20
-10.8585
 30
0.0
 10
44.4652
 20
-12.0178
 30
0.0
 10
44.4652
 20
-12.0178
 30
0.0
  0
SPLINE
  5
8F
330
1F
100
AcDbEntity
  8
Vrstva 1
 62
   250
100
AcDbSpline
210
0.0
220
0.0
230
1.0
 70
    11
 71
     3
 72
    24
 73
    20
 74
     0
 42
0.000000001
 43
0.0000000001
 40
0.0
 40
0.0
 40
0.0
 40
0.0
 40
0.1666666666666667
 40
0.1666666666666667
 40
0.1666666666666667
 40
0.1666666666666667
 40
0.3333333333333333
 40
0.3333333333333333
 40
0.3333333333333333
 40
0.3333333333333333
 40
0.5
 40
0.5
 40
0.5
 40
0.5
 40
0.6666666666666666
 40
0.6666666666666666
 40
0.6666666666666666
 40
0.6666666666666666
 40
1.0
 40
1.0
 40
1.0
 40
1.0
 10
43.0844
 20
-10.7007
 30
0.0
 10
43.0844
 20
-10.7007
 30
0.0
 10
43.0845
 20
-10.689
 30
0.0
 10
43.0845
 20
-10.689
 30
0.0
 10
43.0845
 20
-10.689
 30
0.0
 10
43.3106
 20
-10.5552
 30
0.0
 10
43.5435
 20
-10.51
 30
0.0
 10
43.7686
 20
-10.5114
 30
0.0
 10
43.7686
 20
-10.5114
 30
0.0
 10
44.3545
 20
-10.515
 30
0.0
 10
44.8567
 20
-10.825
 30
0.0
 10
44.8532
 20
-11.3683
 30
0.0
 10
44.8532
 20
-11.3683
 30
0.0
 10
44.8519
 20
-11.5817
 30
0.0
 10
44.7848
 20
-11.7289
 30
0.0
 10
44.6641
 20
-11.8561
 30
0.0
 10
44.6641
 20
-11.8561
 30
0.0
 10
44.6641
 20
-11.8561
 30
0.0
 10
43.0844
 20
-10.7007
 30
0.0
 10
43.0844
 20
-10.7007
 30
0.0
  0
SPLINE
  5
90
330
1F
100
AcDbEntity
  8
Vrstva 1
 62
   250
100
AcDbSpline
210
0.0
220
0.0
230
1.0
 70
    11
 71
     3
 72
    64
 73
    60
 74
     0
 42
0.000000001
 43
0.0000000001
 40
0.0
 40
0.0
 40
0.0
 40
0.0
 40
0.0625
 40
0.0625
 40
0.0625
 40
0.0625
 40
0.125
 40
0.125
 40
0.125
 40
0.125
 40
0.1875
 40
0.1875
 40
0.1875
 40
0.1875
 40
0.25
 40
0.25
 40
0.25
 40
0.25
 40
0.3125
 40
0.3125
 40
0.3125
 40
0.3125
 40
0.375
 40
0.375
 40
0.375
 40
0.375
 40
0.4375
 40
0.4375
 40
0.4375
 40
0.4375
 40
0.5
 40
0.5
 40
0.5
 40
0.5
 40
0.5625
 40
0.5625
 40
0.5625
 40
0.5625
 40
0.625
 40
0.625
 40
0.625
 40
0.625
 40
0.6875
 40
0.6875
 40
0.6875
 40
0.6875
 40
0.75
 40
0.75
 40
0.75
 40
0.75
 40
0.8125
 40
0.8125
 40
0.8125
 40
0.8125
 40
0.875
 40
0.875
 40
0.875
 40
0.875
 40
1.0
 40
1.0
 40
1.0
 40
1.0
 10
42.5702
 20
-8.3346
 30
0.0
 10
42.5702
 20
-8.3346
 30
0.0
 10
42.5627
 20
-9.5407
 30
0.0
 10
42.5627
 20
-9.5407
 30
0.0
 10
42.5627
 20
-9.5407
 30
0.0
 10
42.5627
 20
-9.5407
 30
0.0
 10
43.7723
 20
-9.7119
 30
0.0
 10
43.7723
 20
-9.7119
 30
0.0
 10
43.7723
 20
-9.7119
 30
0.0
 10
43.7609
 20
-9.6187
 30
0.0
 10
43.7502
 20
-9.5062
 30
0.0
 10
43.7514
 20
-9.3587
 30
0.0
 10
43.7514
 20
-9.3587
 30
0.0
 10
43.7542
 20
-8.8581
 30
0.0
 10
43.985
 20
-8.6383
 30
0.0
 10
44.311
 20
-8.6406
 30
0.0
 10
44.311
 20
-8.6406
 30
0.0
 10
44.6486
 20
-8.639
 30
0.0
 10
44.8561
 20
-8.9196
 30
0.0
 10
44.8538
 20
-9.2378
 30
0.0
 10
44.8538
 20
-9.2378
 30
0.0
 10
44.8524
 20
-9.4707
 30
0.0
 10
44.7736
 20
-9.6755
 30
0.0
 10
44.7105
 20
-9.7801
 30
0.0
 10
44.7105
 20
-9.7801
 30
0.0
 10
44.7105
 20
-9.7801
 30
0.0
 10
44.9702
 20
-9.8669
 30
0.0
 10
44.9702
 20
-9.8669
 30
0.0
 10
44.9702
 20
-9.8669
 30
0.0
 10
45.0489
 20
-9.7435
 30
0.0
 10
45.1278
 20
-9.5148
 30
0.0
 10
45.1293
 20
-9.2394
 30
0.0
 10
45.1293
 20
-9.2394
 30
0.0
 10
45.1329
 20
-8.6922
 30
0.0
 10
44.7667
 20
-8.2979
 30
0.0
 10
44.2739
 20
-8.2951
 30
0.0
 10
44.2739
 20
-8.2951
 30
0.0
 10
43.9603
 20
-8.2928
 30
0.0
 10
43.7379
 20
-8.4546
 30
0.0
 10
43.628
 20
-8.6514
 30
0.0
 10
43.628
 20
-8.6514
 30
0.0
 10
43.5299
 20
-8.8063
 30
0.0
 10
43.4898
 20
-8.9964
 30
0.0
 10
43.4886
 20
-9.1936
 30
0.0
 10
43.4886
 20
-9.1936
 30
0.0
 10
43.4877
 20
-9.2868
 30
0.0
 10
43.4914
 20
-9.3411
 30
0.0
 10
43.499
 20
-9.4
 30
0.0
 10
43.499
 20
-9.4
 30
0.0
 10
43.499
 20
-9.4
 30
0.0
 10
42.8512
 20
-9.2984
 30
0.0
 10
42.8512
 20
-9.2984
 30
0.0
 10
42.8512
 20
-9.2984
 30
0.0
 10
42.8512
 20
-9.2984
 30
0.0
 10
42.8574
 20
-8.3361
 30
0.0
 10
42.8574
 20
-8.3361
 30
0.0
 10
42.8574
 20
-8.3361
 30
0.0
 10
42.8574
 20
-8.3361
 30
0.0
 10
42.5702
 20
-8.3346
 30
0.0
 10
42.5702
 20
-8.3346
 30
0.0
  0
SPLINE
  5
91
330
1F
100
AcDbEntity
  8
Vrstva 1
 62
   250
100
AcDbSpline
210
0.0
220
0.0
230
1.0
 70
    11
 71
     3
 72
    20
 73
    16
 74
     0
 42
0.000000001
 43
0.0000000001
 40
0.0
 40
0.0
 40
0.0
 40
0.0
 40
0.2
 40
0.2
 40
0.2
 40
0.2
 40
0.4
 40
0.4
 40
0.4
 40
0.4
 40
0.6
 40
0.6
 40
0.6
 40
0.6
 40
1.0
 40
1.0
 40
1.0
 40
1.0
 10
42.5296
 20
-7.0028
 30
0.0
 10
42.5261
 20
-7.515
 30
0.0
 10
42.9855
 20
-7.887
 30
0.0
 10
43.8353
 20
-7.8922
 30
0.0
 10
43.8353
 20
-7.8922
 30
0.0
 10
44.6697
 20
-7.8901
 30
0.0
 10
45.1337
 20
-7.5552
 30
0.0
 10
45.1365
 20
-7.0624
 30
0.0
 10
45.1365
 20
-7.0624
 30
0.0
 10
45.1401
 20
-6.5075
 30
0.0
 10
44.6689
 20
-6.1827
 30
0.0
 10
43.8113
 20
-6.1769
 30
0.0
 10
43.8113
 20
-6.1769
 30
0.0
 10
43.0081
 20
-6.1719
 30
0.0
 10
42.5331
 20
-6.475
 30
0.0
 10
42.5296
 20
-7.0028
 30
0.0
  0
SPLINE
  5
92
330
1F
100
AcDbEntity
  8
Vrstva 1
 62
   250
100
AcDbSpline
210
0.0
220
0.0
230
1.0
 70
    11
 71
     3
 72
    20
 73
    16
 74
     0
 42
0.000000001
 43
0.0000000001
 40
0.0
 40
0.0
 40
0.0
 40
0.0
 40
0.2
 40
0.2
 40
0.2
 40
0.2
 40
0.4
 40
0.4
 40
0.4
 40
0.4
 40
0.6
 40
0.6
 40
0.6
 40
0.6
 40
1.0
 40
1.0
 40
1.0
 40
1.0
 10
42.7934
 20
-7.0282
 30
0.0
 10
42.7957
 20
-6.6711
 30
0.0
 10
43.2037
 20
-6.5184
 30
0.0
 10
43.8246
 20
-6.5223
 30
0.0
 10
43.8246
 20
-6.5223
 30
0.0
 10
44.4687
 20
-6.5268
 30
0.0
 10
44.875
 20
-6.6962
 30
0.0
 10
44.8726
 20
-7.0416
 30
0.0
 10
44.8726
 20
-7.0416
 30
0.0
 10
44.8711
 20
-7.352
 30
0.0
 10
44.4973
 20
-7.5513
 30
0.0
 10
43.8415
 20
-7.5468
 30
0.0
 10
43.8415
 20
-7.5468
 30
0.0
 10
43.1547
 20
-7.5428
 30
0.0
 10
42.7913
 20
-7.3231
 30
0.0
 10
42.7934
 20
-7.0282
 30
0.0
  0
SPLINE
  5
93
330
1F
100
AcDbEntity
  8
Vrstva 1
 62
   250
100
AcDbSpline
210
0.0
220
0.0
230
1.0
 70
    11
 71
     3
 72
    48
 73
    44
 74
     0
 42
0.000000001
 43
0.0000000001
 40
0.0
 40
0.0
 40
0.0
 40
0.0
 40
0.0833333333333333
 40
0.0833333333333333
 40
0.0833333333333333
 40
0.0833333333333333
 40
0.1666666666666667
 40
0.1666666666666667
 40
0.1666666666666667
 40
0.1666666666666667
 40
0.25
 40
0.25
 40
0.25
 40
0.25
 40
0.3333333333333333
 40
0.3333333333333333
 40
0.3333333333333333
 40
0.3333333333333333
 40
0.4166666666666667
 40
0.4166666666666667
 40
0.4166666666666667
 40
0.4166666666666667
 40
0.5
 40
0.5
 40
0.5
 40
0.5
 40
0.5833333333333334
 40
0.5833333333333334
 40
0.5833333333333334
 40
0.5833333333333334
 40
0.6666666666666666
 40
0.6666666666666666
 40
0.6666666666666666
 40
0.6666666666666666
 40
0.75
 40
0.75
 40
0.75
 40
0.75
 40
0.8333333333333334
 40
0.8333333333333334
 40
0.8333333333333334
 40
0.8333333333333334
 40
1.0
 40
1.0
 40
1.0
 40
1.0
 10
-6.1184
 20
-13.9828
 30
0.0
 10
-6.1184
 20
-13.9828
 30
0.0
 10
-6.1184
 20
-13.2921
 30
0.0
 10
-6.1184
 20
-13.2921
 30
0.0
 10
-6.1184
 20
-13.2921
 30
0.0
 10
-6.1184
 20
-13.2921
 30
0.0
 10
-5.7653
 20
-13.2921
 30
0.0
 10
-5.7653
 20
-13.2921
 30
0.0
 10
-5.7653
 20
-13.2921
 30
0.0
 10
-5.7653
 20
-13.2921
 30
0.0
 10
-5.7653
 20
-13.0282
 30
0.0
 10
-5.7653
 20
-13.0282
 30
0.0
 10
-5.7653
 20
-13.0282
 30
0.0
 10
-5.7653
 20
-13.0282
 30
0.0
 10
-6.1184
 20
-13.0282
 30
0.0
 10
-6.1184
 20
-13.0282
 30
0.0
 10
-6.1184
 20
-13.0282
 30
0.0
 10
-6.1184
 20
-13.0282
 30
0.0
 10
-6.1184
 20
-11.4605
 30
0.0
 10
-6.1184
 20
-11.4605
 30
0.0
 10
-6.1184
 20
-11.4605
 30
0.0
 10
-6.1184
 20
-11.4605
 30
0.0
 10
-6.487
 20
-11.4605
 30
0.0
 10
-6.487
 20
-11.4605
 30
0.0
 10
-6.487
 20
-11.4605
 30
0.0
 10
-6.487
 20
-11.4605
 30
0.0
 10
-7.6124
 20
-13.0709
 30
0.0
 10
-7.6124
 20
-13.0709
 30
0.0
 10
-7.6124
 20
-13.0709
 30
0.0
 10
-7.6124
 20
-13.0709
 30
0.0
 10
-7.6124
 20
-13.2921
 30
0.0
 10
-7.6124
 20
-13.2921
 30
0.0
 10
-7.6124
 20
-13.2921
 30
0.0
 10
-7.6124
 20
-13.2921
 30
0.0
 10
-6.4405
 20
-13.2921
 30
0.0
 10
-6.4405
 20
-13.2921
 30
0.0
 10
-6.4405
 20
-13.2921
 30
0.0
 10
-6.4405
 20
-13.2921
 30
0.0
 10
-6.4405
 20
-13.9828
 30
0.0
 10
-6.4405
 20
-13.9828
 30
0.0
 10
-6.4405
 20
-13.9828
 30
0.0
 10
-6.4405
 20
-13.9828
 30
0.0
 10
-6.1184
 20
-13.9828
 30
0.0
 10
-6.1184
 20
-13.9828
 30
0.0
  0
SPLINE
  5
94
330
1F
100
AcDbEntity
  8
Vrstva 1
 62
   250
100
AcDbSpline
210
0.0
220
0.0
230
1.0
 70
    11
 71
     3
 72
    32
 73
    28
 74
     0
 42
0.000000001
 43
0.0000000001
 40
0.0
 40
0.0
 40
0.0
 40
0.0
 40
0.125
 40
0.125
 40
0.125
 40
0.125
 40
0.25
 40
0.25
 40
0.25
 40
0.25
 40
0.375
 40
0.375
 40
0.375
 40
0.375
 40
0.5
 40
0.5
 40
0.5
 40
0.5
 40
0.625
 40
0.625
 40
0.625
 40
0.625
 40
0.75
 40
0.75
 40
0.75
 40
0.75
 40
1.0
 40
1.0
 40
1.0
 40
1.0
 10
-7.267
 20
-13.0282
 30
0.0
 10
-7.267
 20
-13.0282
 30
0.0
 10
-7.267
 20
-13.0204
 30
0.0
 10
-7.267
 20
-13.0204
 30
0.0
 10
-7.267
 20
-13.0204
 30
0.0
 10
-7.267
 20
-13.0204
 30
0.0
 10
-6.65
 20
-12.1628
 30
0.0
 10
-6.65
 20
-12.1628
 30
0.0
 10
-6.65
 20
-12.1628
 30
0.0
 10
-6.5802
 20
-12.0464
 30
0.0
 10
-6.5181
 20
-11.9378
 30
0.0
 10
-6.4405
 20
-11.7903
 30
0.0
 10
-6.4405
 20
-11.7903
 30
0.0
 10
-6.4405
 20
-11.7903
 30
0.0
 10
-6.4288
 20
-11.7903
 30
0.0
 10
-6.4288
 20
-11.7903
 30
0.0
 10
-6.4288
 20
-11.7903
 30
0.0
 10
-6.4366
 20
-11.9223
 30
0.0
 10
-6.4405
 20
-12.0542
 30
0.0
 10
-6.4405
 20
-12.1861
 30
0.0
 10
-6.4405
 20
-12.1861
 30
0.0
 10
-6.4405
 20
-12.1861
 30
0.0
 10
-6.4405
 20
-13.0282
 30
0.0
 10
-6.4405
 20
-13.0282
 30
0.0
 10
-6.4405
 20
-13.0282
 30
0.0
 10
-6.4405
 20
-13.0282
 30
0.0
 10
-7.267
 20
-13.0282
 30
0.0
 10
-7.267
 20
-13.0282
 30
0.0
  0
SPLINE
  5
95
330
1F
100
AcDbEntity
  8
Vrstva 1
 62
   250
100
AcDbSpline
210
0.0
220
0.0
230
1.0
 70
    11
 71
     3
 72
    76
 73
    72
 74
     0
 42
0.000000001
 43
0.0000000001
 40
0.0
 40
0.0
 40
0.0
 40
0.0
 40
0.0526315789473684
 40
0.0526315789473684
 40
0.0526315789473684
 40
0.0526315789473684
 40
0.1052631578947368
 40
0.1052631578947368
 40
0.1052631578947368
 40
0.1052631578947368
 40
0.1578947368421053
 40
0.1578947368421053
 40
0.1578947368421053
 40
0.1578947368421053
 40
0.2105263157894737
 40
0.2105263157894737
 40
0.2105263157894737
 40
0.2105263157894737
 40
0.2631578947368421
 40
0.2631578947368421
 40
0.2631578947368421
 40
0.2631578947368421
 40
0.3157894736842105
 40
0.3157894736842105
 40
0.3157894736842105
 40
0.3157894736842105
 40
0.3684210526315789
 40
0.3684210526315789
 40
0.3684210526315789
 40
0.3684210526315789
 40
0.4210526315789473
 40
0.4210526315789473
 40
0.4210526315789473
 40
0.4210526315789473
 40
0.4736842105263158
 40
0.4736842105263158
 40
0.4736842105263158
 40
0.4736842105263158
 40
0.5263157894736842
 40
0.5263157894736842
 40
0.5263157894736842
 40
0.5263157894736842
 40
0.5789473684210527
 40
0.5789473684210527
 40
0.5789473684210527
 40
0.5789473684210527
 40
0.631578947368421
 40
0.631578947368421
 40
0.631578947368421
 40
0.631578947368421
 40
0.6842105263157895
 40
0.6842105263157895
 40
0.6842105263157895
 40
0.6842105263157895
 40
0.7368421052631579
 40
0.7368421052631579
 40
0.7368421052631579
 40
0.7368421052631579
 40
0.7894736842105263
 40
0.7894736842105263
 40
0.7894736842105263
 40
0.7894736842105263
 40
0.8421052631578947
 40
0.8421052631578947
 40
0.8421052631578947
 40
0.8421052631578947
 40
0.8947368421052632
 40
0.8947368421052632
 40
0.8947368421052632
 40
0.8947368421052632
 40
1.0
 40
1.0
 40
1.0
 40
1.0
 10
-5.5169
 20
-13.8547
 30
0.0
 10
-5.3927
 20
-13.9362
 30
0.0
 10
-5.1444
 20
-14.0255
 30
0.0
 10
-4.8611
 20
-14.0255
 30
0.0
 10
-4.8611
 20
-14.0255
 30
0.0
 10
-4.2596
 20
-14.0255
 30
0.0
 10
-3.9414
 20
-13.6724
 30
0.0
 10
-3.9414
 20
-13.2688
 30
0.0
 10
-3.9414
 20
-13.2688
 30
0.0
 10
-3.9453
 20
-12.9157
 30
0.0
 10
-4.1937
 20
-12.6828
 30
0.0
 10
-4.5041
 20
-12.6246
 30
0.0
 10
-4.5041
 20
-12.6246
 30
0.0
 10
-4.5041
 20
-12.6246
 30
0.0
 10
-4.5041
 20
-12.6169
 30
0.0
 10
-4.5041
 20
-12.6169
 30
0.0
 10
-4.5041
 20
-12.6169
 30
0.0
 10
-4.1975
 20
-12.5043
 30
0.0
 10
-4.0384
 20
-12.2831
 30
0.0
 10
-4.0384
 20
-12.0193
 30
0.0
 10
-4.0384
 20
-12.0193
 30
0.0
 10
-4.0384
 20
-11.7127
 30
0.0
 10
-4.2635
 20
-11.4178
 30
0.0
 10
-4.7602
 20
-11.4178
 30
0.0
 10
-4.7602
 20
-11.4178
 30
0.0
 10
-5.0319
 20
-11.4178
 30
0.0
 10
-5.288
 20
-11.5148
 30
0.0
 10
-5.4238
 20
-11.6118
 30
0.0
 10
-5.4238
 20
-11.6118
 30
0.0
 10
-5.4238
 20
-11.6118
 30
0.0
 10
-5.3307
 20
-11.8602
 30
0.0
 10
-5.3307
 20
-11.8602
 30
0.0
 10
-5.3307
 20
-11.8602
 30
0.0
 10
-5.222
 20
-11.7826
 30
0.0
 10
-5.028
 20
-11.6933
 30
0.0
 10
-4.8262
 20
-11.6933
 30
0.0
 10
-4.8262
 20
-11.6933
 30
0.0
 10
-4.5119
 20
-11.6933
 30
0.0
 10
-4.3838
 20
-11.8718
 30
0.0
 10
-4.3838
 20
-12.0736
 30
0.0
 10
-4.3838
 20
-12.0736
 30
0.0
 10
-4.3838
 20
-12.3724
 30
0.0
 10
-4.6981
 20
-12.5004
 30
0.0
 10
-4.9465
 20
-12.5004
 30
0.0
 10
-4.9465
 20
-12.5004
 30
0.0
 10
-4.9465
 20
-12.5004
 30
0.0
 10
-5.1366
 20
-12.5004
 30
0.0
 10
-5.1366
 20
-12.5004
 30
0.0
 10
-5.1366
 20
-12.5004
 30
0.0
 10
-5.1366
 20
-12.5004
 30
0.0
 10
-5.1366
 20
-12.7566
 30
0.0
 10
-5.1366
 20
-12.7566
 30
0.0
 10
-5.1366
 20
-12.7566
 30
0.0
 10
-5.1366
 20
-12.7566
 30
0.0
 10
-4.9465
 20
-12.7566
 30
0.0
 10
-4.9465
 20
-12.7566
 30
0.0
 10
-4.9465
 20
-12.7566
 30
0.0
 10
-4.6166
 20
-12.7566
 30
0.0
 10
-4.2984
 20
-12.9079
 30
0.0
 10
-4.2946
 20
-13.261
 30
0.0
 10
-4.2946
 20
-13.261
 30
0.0
 10
-4.2907
 20
-13.4745
 30
0.0
 10
-4.4304
 20
-13.75
 30
0.0
 10
-4.865
 20
-13.75
 30
0.0
 10
-4.865
 20
-13.75
 30
0.0
 10
-5.1056
 20
-13.75
 30
0.0
 10
-5.3268
 20
-13.653
 30
0.0
 10
-5.4238
 20
-13.5947
 30
0.0
 10
-5.4238
 20
-13.5947
 30
0.0
 10
-5.4238
 20
-13.5947
 30
0.0
 10
-5.5169
 20
-13.8547
 30
0.0
 10
-5.5169
 20
-13.8547
 30
0.0
  0
SPLINE
  5
96
330
1F
100
AcDbEntity
  8
Vrstva 1
 62
   250
100
AcDbSpline
210
0.0
220
0.0
230
1.0
 70
    11
 71
     3
 72
    64
 73
    60
 74
     0
 42
0.000000001
 43
0.0000000001
 40
0.0
 40
0.0
 40
0.0
 40
0.0
 40
0.0625
 40
0.0625
 40
0.0625
 40
0.0625
 40
0.125
 40
0.125
 40
0.125
 40
0.125
 40
0.1875
 40
0.1875
 40
0.1875
 40
0.1875
 40
0.25
 40
0.25
 40
0.25
 40
0.25
 40
0.3125
 40
0.3125
 40
0.3125
 40
0.3125
 40
0.375
 40
0.375
 40
0.375
 40
0.375
 40
0.4375
 40
0.4375
 40
0.4375
 40
0.4375
 40
0.5
 40
0.5
 40
0.5
 40
0.5
 40
0.5625
 40
0.5625
 40
0.5625
 40
0.5625
 40
0.625
 40
0.625
 40
0.625
 40
0.625
 40
0.6875
 40
0.6875
 40
0.6875
 40
0.6875
 40
0.75
 40
0.75
 40
0.75
 40
0.75
 40
0.8125
 40
0.8125
 40
0.8125
 40
0.8125
 40
0.875
 40
0.875
 40
0.875
 40
0.875
 40
1.0
 40
1.0
 40
1.0
 40
1.0
 10
-2.0089
 20
-11.4605
 30
0.0
 10
-2.0089
 20
-11.4605
 30
0.0
 10
-3.2158
 20
-11.4605
 30
0.0
 10
-3.2158
 20
-11.4605
 30
0.0
 10
-3.2158
 20
-11.4605
 30
0.0
 10
-3.2158
 20
-11.4605
 30
0.0
 10
-3.3788
 20
-12.6712
 30
0.0
 10
-3.3788
 20
-12.6712
 30
0.0
 10
-3.3788
 20
-12.6712
 30
0.0
 10
-3.2856
 20
-12.6595
 30
0.0
 10
-3.1731
 20
-12.6479
 30
0.0
 10
-3.0256
 20
-12.6479
 30
0.0
 10
-3.0256
 20
-12.6479
 30
0.0
 10
-2.525
 20
-12.6479
 30
0.0
 10
-2.3039
 20
-12.8769
 30
0.0
 10
-2.3039
 20
-13.2028
 30
0.0
 10
-2.3039
 20
-13.2028
 30
0.0
 10
-2.3
 20
-13.5404
 30
0.0
 10
-2.5794
 20
-13.75
 30
0.0
 10
-2.8976
 20
-13.75
 30
0.0
 10
-2.8976
 20
-13.75
 30
0.0
 10
-3.1304
 20
-13.75
 30
0.0
 10
-3.3361
 20
-13.6724
 30
0.0
 10
-3.4408
 20
-13.6103
 30
0.0
 10
-3.4408
 20
-13.6103
 30
0.0
 10
-3.4408
 20
-13.6103
 30
0.0
 10
-3.5262
 20
-13.8703
 30
0.0
 10
-3.5262
 20
-13.8703
 30
0.0
 10
-3.5262
 20
-13.8703
 30
0.0
 10
-3.402
 20
-13.9479
 30
0.0
 10
-3.1731
 20
-14.0255
 30
0.0
 10
-2.8976
 20
-14.0255
 30
0.0
 10
-2.8976
 20
-14.0255
 30
0.0
 10
-2.3504
 20
-14.0255
 30
0.0
 10
-1.9585
 20
-13.6568
 30
0.0
 10
-1.9585
 20
-13.164
 30
0.0
 10
-1.9585
 20
-13.164
 30
0.0
 10
-1.9585
 20
-12.8497
 30
0.0
 10
-2.1215
 20
-12.6285
 30
0.0
 10
-2.3194
 20
-12.5199
 30
0.0
 10
-2.3194
 20
-12.5199
 30
0.0
 10
-2.4746
 20
-12.4228
 30
0.0
 10
-2.6647
 20
-12.384
 30
0.0
 10
-2.8627
 20
-12.384
 30
0.0
 10
-2.8627
 20
-12.384
 30
0.0
 10
-2.9558
 20
-12.384
 30
0.0
 10
-3.0101
 20
-12.3879
 30
0.0
 10
-3.0683
 20
-12.3957
 30
0.0
 10
-3.0683
 20
-12.3957
 30
0.0
 10
-3.0683
 20
-12.3957
 30
0.0
 10
-2.9713
 20
-11.7476
 30
0.0
 10
-2.9713
 20
-11.7476
 30
0.0
 10
-2.9713
 20
-11.7476
 30
0.0
 10
-2.9713
 20
-11.7476
 30
0.0
 10
-2.0089
 20
-11.7476
 30
0.0
 10
-2.0089
 20
-11.7476
 30
0.0
 10
-2.0089
 20
-11.7476
 30
0.0
 10
-2.0089
 20
-11.7476
 30
0.0
 10
-2.0089
 20
-11.4605
 30
0.0
 10
-2.0089
 20
-11.4605
 30
0.0
  0
SPLINE
  5
97
330
1F
100
AcDbEntity
  8
Vrstva 1
 62
   250
100
AcDbSpline
210
0.0
220
0.0
230
1.0
 70
    11
 71
     3
 72
    44
 73
    40
 74
     0
 42
0.000000001
 43
0.0000000001
 40
0.0
 40
0.0
 40
0.0
 40
0.0
 40
0.0909090909090909
 40
0.0909090909090909
 40
0.0909090909090909
 40
0.0909090909090909
 40
0.1818181818181818
 40
0.1818181818181818
 40
0.1818181818181818
 40
0.1818181818181818
 40
0.2727272727272727
 40
0.2727272727272727
 40
0.2727272727272727
 40
0.2727272727272727
 40
0.3636363636363636
 40
0.3636363636363636
 40
0.3636363636363636
 40
0.3636363636363636
 40
0.4545454545454545
 40
0.4545454545454545
 40
0.4545454545454545
 40
0.4545454545454545
 40
0.5454545454545454
 40
0.5454545454545454
 40
0.5454545454545454
 40
0.5454545454545454
 40
0.6363636363636364
 40
0.6363636363636364
 40
0.6363636363636364
 40
0.6363636363636364
 40
0.7272727272727273
 40
0.7272727272727273
 40
0.7272727272727273
 40
0.7272727272727273
 40
0.8181818181818182
 40
0.8181818181818182
 40
0.8181818181818182
 40
0.8181818181818182
 40
1.0
 40
1.0
 40
1.0
 40
1.0
 10
0.886
 20
-12.6673
 30
0.0
 10
0.5755
 20
-12.7992
 30
0.0
 10
0.3854
 20
-13.0282
 30
0.0
 10
0.3854
 20
-13.3464
 30
0.0
 10
0.3854
 20
-13.3464
 30
0.0
 10
0.3854
 20
-13.715
 30
0.0
 10
0.7036
 20
-14.0255
 30
0.0
 10
1.2313
 20
-14.0255
 30
0.0
 10
1.2313
 20
-14.0255
 30
0.0
 10
1.7125
 20
-14.0255
 30
0.0
 10
2.0889
 20
-13.7344
 30
0.0
 10
2.0889
 20
-13.2921
 30
0.0
 10
2.0889
 20
-13.2921
 30
0.0
 10
2.0889
 20
-12.9894
 30
0.0
 10
1.8949
 20
-12.7643
 30
0.0
 10
1.5806
 20
-12.6401
 30
0.0
 10
1.5806
 20
-12.6401
 30
0.0
 10
1.5806
 20
-12.6401
 30
0.0
 10
1.5806
 20
-12.6285
 30
0.0
 10
1.5806
 20
-12.6285
 30
0.0
 10
1.5806
 20
-12.6285
 30
0.0
 10
1.891
 20
-12.4849
 30
0.0
 10
1.9997
 20
-12.2521
 30
0.0
 10
1.9997
 20
-12.0387
 30
0.0
 10
1.9997
 20
-12.0387
 30
0.0
 10
1.9997
 20
-11.7205
 30
0.0
 10
1.7513
 20
-11.4178
 30
0.0
 10
1.2624
 20
-11.4178
 30
0.0
 10
1.2624
 20
-11.4178
 30
0.0
 10
0.8161
 20
-11.4178
 30
0.0
 10
0.4785
 20
-11.6894
 30
0.0
 10
0.4785
 20
-12.0891
 30
0.0
 10
0.4785
 20
-12.0891
 30
0.0
 10
0.4785
 20
-12.3064
 30
0.0
 10
0.5988
 20
-12.5237
 30
0.0
 10
0.8821
 20
-12.6557
 30
0.0
 10
0.8821
 20
-12.6557
 30
0.0
 10
0.8821
 20
-12.6557
 30
0.0
 10
0.886
 20
-12.6673
 30
0.0
 10
0.886
 20
-12.6673
 30
0.0
  0
SPLINE
  5
98
330
1F
100
AcDbEntity
  8
Vrstva 1
 62
   250
100
AcDbSpline
210
0.0
220
0.0
230
1.0
 70
    11
 71
     3
 72
    20
 73
    16
 74
     0
 42
0.000000001
 43
0.0000000001
 40
0.0
 40
0.0
 40
0.0
 40
0.0
 40
0.2
 40
0.2
 40
0.2
 40
0.2
 40
0.4
 40
0.4
 40
0.4
 40
0.4
 40
0.6
 40
0.6
 40
0.6
 40
0.6
 40
1.0
 40
1.0
 40
1.0
 40
1.0
 10
1.2391
 20
-13.7771
 30
0.0
 10
0.917
 20
-13.7771
 30
0.0
 10
0.723
 20
-13.5521
 30
0.0
 10
0.7346
 20
-13.2998
 30
0.0
 10
0.7346
 20
-13.2998
 30
0.0
 10
0.7346
 20
-13.0592
 30
0.0
 10
0.8937
 20
-12.8613
 30
0.0
 10
1.1886
 20
-12.776
 30
0.0
 10
1.1886
 20
-12.776
 30
0.0
 10
1.5301
 20
-12.873
 30
0.0
 10
1.7436
 20
-13.0243
 30
0.0
 10
1.7436
 20
-13.327
 30
0.0
 10
1.7436
 20
-13.327
 30
0.0
 10
1.7436
 20
-13.587
 30
0.0
 10
1.5456
 20
-13.7771
 30
0.0
 10
1.2391
 20
-13.7771
 30
0.0
  0
SPLINE
  5
99
330
1F
100
AcDbEntity
  8
Vrstva 1
 62
   250
100
AcDbSpline
210
0.0
220
0.0
230
1.0
 70
    11
 71
     3
 72
    20
 73
    16
 74
     0
 42
0.000000001
 43
0.0000000001
 40
0.0
 40
0.0
 40
0.0
 40
0.0
 40
0.2
 40
0.2
 40
0.2
 40
0.2
 40
0.4
 40
0.4
 40
0.4
 40
0.4
 40
0.6
 40
0.6
 40
0.6
 40
0.6
 40
1.0
 40
1.0
 40
1.0
 40
1.0
 10
1.243
 20
-11.6623
 30
0.0
 10
1.5495
 20
-11.6623
 30
0.0
 10
1.6698
 20
-11.8718
 30
0.0
 10
1.6698
 20
-12.0736
 30
0.0
 10
1.6698
 20
-12.0736
 30
0.0
 10
1.6698
 20
-12.3025
 30
0.0
 10
1.503
 20
-12.4578
 30
0.0
 10
1.2857
 20
-12.5315
 30
0.0
 10
1.2857
 20
-12.5315
 30
0.0
 10
0.9946
 20
-12.4539
 30
0.0
 10
0.8006
 20
-12.3181
 30
0.0
 10
0.8045
 20
-12.0658
 30
0.0
 10
0.8045
 20
-12.0658
 30
0.0
 10
0.8045
 20
-11.8485
 30
0.0
 10
0.9597
 20
-11.6623
 30
0.0
 10
1.243
 20
-11.6623
 30
0.0
  0
SPLINE
  5
9A
330
1F
100
AcDbEntity
  8
Vrstva 1
 62
   250
100
AcDbSpline
210
0.0
220
0.0
230
1.0
 70
    11
 71
     3
 72
    44
 73
    40
 74
     0
 42
0.000000001
 43
0.0000000001
 40
0.0
 40
0.0
 40
0.0
 40
0.0
 40
0.0909090909090909
 40
0.0909090909090909
 40
0.0909090909090909
 40
0.0909090909090909
 40
0.1818181818181818
 40
0.1818181818181818
 40
0.1818181818181818
 40
0.1818181818181818
 40
0.2727272727272727
 40
0.2727272727272727
 40
0.2727272727272727
 40
0.2727272727272727
 40
0.3636363636363636
 40
0.3636363636363636
 40
0.3636363636363636
 40
0.3636363636363636
 40
0.4545454545454545
 40
0.4545454545454545
 40
0.4545454545454545
 40
0.4545454545454545
 40
0.5454545454545454
 40
0.5454545454545454
 40
0.5454545454545454
 40
0.5454545454545454
 40
0.6363636363636364
 40
0.6363636363636364
 40
0.6363636363636364
 40
0.6363636363636364
 40
0.7272727272727273
 40
0.7272727272727273
 40
0.7272727272727273
 40
0.7272727272727273
 40
0.8181818181818182
 40
0.8181818181818182
 40
0.8181818181818182
 40
0.8181818181818182
 40
1.0
 40
1.0
 40
1.0
 40
1.0
 10
2.8767
 20
-12.6673
 30
0.0
 10
2.5662
 20
-12.7992
 30
0.0
 10
2.3761
 20
-13.0282
 30
0.0
 10
2.3761
 20
-13.3464
 30
0.0
 10
2.3761
 20
-13.3464
 30
0.0
 10
2.3761
 20
-13.715
 30
0.0
 10
2.6943
 20
-14.0255
 30
0.0
 10
3.222
 20
-14.0255
 30
0.0
 10
3.222
 20
-14.0255
 30
0.0
 10
3.7032
 20
-14.0255
 30
0.0
 10
4.0796
 20
-13.7344
 30
0.0
 10
4.0796
 20
-13.2921
 30
0.0
 10
4.0796
 20
-13.2921
 30
0.0
 10
4.0796
 20
-12.9894
 30
0.0
 10
3.8856
 20
-12.7643
 30
0.0
 10
3.5713
 20
-12.6401
 30
0.0
 10
3.5713
 20
-12.6401
 30
0.0
 10
3.5713
 20
-12.6401
 30
0.0
 10
3.5713
 20
-12.6285
 30
0.0
 10
3.5713
 20
-12.6285
 30
0.0
 10
3.5713
 20
-12.6285
 30
0.0
 10
3.8817
 20
-12.4849
 30
0.0
 10
3.9904
 20
-12.2521
 30
0.0
 10
3.9904
 20
-12.0387
 30
0.0
 10
3.9904
 20
-12.0387
 30
0.0
 10
3.9904
 20
-11.7205
 30
0.0
 10
3.742
 20
-11.4178
 30
0.0
 10
3.2531
 20
-11.4178
 30
0.0
 10
3.2531
 20
-11.4178
 30
0.0
 10
2.8068
 20
-11.4178
 30
0.0
 10
2.4692
 20
-11.6894
 30
0.0
 10
2.4692
 20
-12.0891
 30
0.0
 10
2.4692
 20
-12.0891
 30
0.0
 10
2.4692
 20
-12.3064
 30
0.0
 10
2.5895
 20
-12.5237
 30
0.0
 10
2.8728
 20
-12.6557
 30
0.0
 10
2.8728
 20
-12.6557
 30
0.0
 10
2.8728
 20
-12.6557
 30
0.0
 10
2.8767
 20
-12.6673
 30
0.0
 10
2.8767
 20
-12.6673
 30
0.0
  0
SPLINE
  5
9B
330
1F
100
AcDbEntity
  8
Vrstva 1
 62
   250
100
AcDbSpline
210
0.0
220
0.0
230
1.0
 70
    11
 71
     3
 72
    20
 73
    16
 74
     0
 42
0.000000001
 43
0.0000000001
 40
0.0
 40
0.0
 40
0.0
 40
0.0
 40
0.2
 40
0.2
 40
0.2
 40
0.2
 40
0.4
 40
0.4
 40
0.4
 40
0.4
 40
0.6
 40
0.6
 40
0.6
 40
0.6
 40
1.0
 40
1.0
 40
1.0
 40
1.0
 10
3.2298
 20
-13.7771
 30
0.0
 10
2.9077
 20
-13.7771
 30
0.0
 10
2.7137
 20
-13.5521
 30
0.0
 10
2.7253
 20
-13.2998
 30
0.0
 10
2.7253
 20
-13.2998
 30
0.0
 10
2.7253
 20
-13.0592
 30
0.0
 10
2.8844
 20
-12.8613
 30
0.0
 10
3.1793
 20
-12.776
 30
0.0
 10
3.1793
 20
-12.776
 30
0.0
 10
3.5208
 20
-12.873
 30
0.0
 10
3.7343
 20
-13.0243
 30
0.0
 10
3.7343
 20
-13.327
 30
0.0
 10
3.7343
 20
-13.327
 30
0.0
 10
3.7343
 20
-13.587
 30
0.0
 10
3.5363
 20
-13.7771
 30
0.0
 10
3.2298
 20
-13.7771
 30
0.0
  0
SPLINE
  5
9C
330
1F
100
AcDbEntity
  8
Vrstva 1
 62
   250
100
AcDbSpline
210
0.0
220
0.0
230
1.0
 70
    11
 71
     3
 72
    20
 73
    16
 74
     0
 42
0.000000001
 43
0.0000000001
 40
0.0
 40
0.0
 40
0.0
 40
0.0
 40
0.2
 40
0.2
 40
0.2
 40
0.2
 40
0.4
 40
0.4
 40
0.4
 40
0.4
 40
0.6
 40
0.6
 40
0.6
 40
0.6
 40
1.0
 40
1.0
 40
1.0
 40
1.0
 10
3.2337
 20
-11.6623
 30
0.0
 10
3.5402
 20
-11.6623
 30
0.0
 10
3.6605
 20
-11.8718
 30
0.0
 10
3.6605
 20
-12.0736
 30
0.0
 10
3.6605
 20
-12.0736
 30
0.0
 10
3.6605
 20
-12.3025
 30
0.0
 10
3.4937
 20
-12.4578
 30
0.0
 10
3.2764
 20
-12.5315
 30
0.0
 10
3.2764
 20
-12.5315
 30
0.0
 10
2.9853
 20
-12.4539
 30
0.0
 10
2.7913
 20
-12.3181
 30
0.0
 10
2.7952
 20
-12.0658
 30
0.0
 10
2.7952
 20
-12.0658
 30
0.0
 10
2.7952
 20
-11.8485
 30
0.0
 10
2.9504
 20
-11.6623
 30
0.0
 10
3.2337
 20
-11.6623
 30
0.0
  0
SPLINE
  5
9D
330
1F
100
AcDbEntity
  8
Vrstva 1
 62
   250
100
AcDbSpline
210
0.0
220
0.0
230
1.0
 70
    11
 71
     3
 72
    64
 73
    60
 74
     0
 42
0.000000001
 43
0.0000000001
 40
0.0
 40
0.0
 40
0.0
 40
0.0
 40
0.0625
 40
0.0625
 40
0.0625
 40
0.0625
 40
0.125
 40
0.125
 40
0.125
 40
0.125
 40
0.1875
 40
0.1875
 40
0.1875
 40
0.1875
 40
0.25
 40
0.25
 40
0.25
 40
0.25
 40
0.3125
 40
0.3125
 40
0.3125
 40
0.3125
 40
0.375
 40
0.375
 40
0.375
 40
0.375
 40
0.4375
 40
0.4375
 40
0.4375
 40
0.4375
 40
0.5
 40
0.5
 40
0.5
 40
0.5
 40
0.5625
 40
0.5625
 40
0.5625
 40
0.5625
 40
0.625
 40
0.625
 40
0.625
 40
0.625
 40
0.6875
 40
0.6875
 40
0.6875
 40
0.6875
 40
0.75
 40
0.75
 40
0.75
 40
0.75
 40
0.8125
 40
0.8125
 40
0.8125
 40
0.8125
 40
0.875
 40
0.875
 40
0.875
 40
0.875
 40
1.0
 40
1.0
 40
1.0
 40
1.0
 10
5.9035
 20
-11.4605
 30
0.0
 10
5.9035
 20
-11.4605
 30
0.0
 10
4.6966
 20
-11.4605
 30
0.0
 10
4.6966
 20
-11.4605
 30
0.0
 10
4.6966
 20
-11.4605
 30
0.0
 10
4.6966
 20
-11.4605
 30
0.0
 10
4.5336
 20
-12.6712
 30
0.0
 10
4.5336
 20
-12.6712
 30
0.0
 10
4.5336
 20
-12.6712
 30
0.0
 10
4.6268
 20
-12.6595
 30
0.0
 10
4.7393
 20
-12.6479
 30
0.0
 10
4.8868
 20
-12.6479
 30
0.0
 10
4.8868
 20
-12.6479
 30
0.0
 10
5.3874
 20
-12.6479
 30
0.0
 10
5.6085
 20
-12.8769
 30
0.0
 10
5.6085
 20
-13.2028
 30
0.0
 10
5.6085
 20
-13.2028
 30
0.0
 10
5.6124
 20
-13.5404
 30
0.0
 10
5.333
 20
-13.75
 30
0.0
 10
5.0148
 20
-13.75
 30
0.0
 10
5.0148
 20
-13.75
 30
0.0
 10
4.782
 20
-13.75
 30
0.0
 10
4.5763
 20
-13.6724
 30
0.0
 10
4.4716
 20
-13.6103
 30
0.0
 10
4.4716
 20
-13.6103
 30
0.0
 10
4.4716
 20
-13.6103
 30
0.0
 10
4.3862
 20
-13.8703
 30
0.0
 10
4.3862
 20
-13.8703
 30
0.0
 10
4.3862
 20
-13.8703
 30
0.0
 10
4.5104
 20
-13.9479
 30
0.0
 10
4.7393
 20
-14.0255
 30
0.0
 10
5.0148
 20
-14.0255
 30
0.0
 10
5.0148
 20
-14.0255
 30
0.0
 10
5.562
 20
-14.0255
 30
0.0
 10
5.9539
 20
-13.6568
 30
0.0
 10
5.9539
 20
-13.164
 30
0.0
 10
5.9539
 20
-13.164
 30
0.0
 10
5.9539
 20
-12.8497
 30
0.0
 10
5.7909
 20
-12.6285
 30
0.0
 10
5.593
 20
-12.5199
 30
0.0
 10
5.593
 20
-12.5199
 30
0.0
 10
5.4378
 20
-12.4228
 30
0.0
 10
5.2477
 20
-12.384
 30
0.0
 10
5.0497
 20
-12.384
 30
0.0
 10
5.0497
 20
-12.384
 30
0.0
 10
4.9566
 20
-12.384
 30
0.0
 10
4.9023
 20
-12.3879
 30
0.0
 10
4.8441
 20
-12.3957
 30
0.0
 10
4.8441
 20
-12.3957
 30
0.0
 10
4.8441
 20
-12.3957
 30
0.0
 10
4.9411
 20
-11.7476
 30
0.0
 10
4.9411
 20
-11.7476
 30
0.0
 10
4.9411
 20
-11.7476
 30
0.0
 10
4.9411
 20
-11.7476
 30
0.0
 10
5.9035
 20
-11.7476
 30
0.0
 10
5.9035
 20
-11.7476
 30
0.0
 10
5.9035
 20
-11.7476
 30
0.0
 10
5.9035
 20
-11.7476
 30
0.0
 10
5.9035
 20
-11.4605
 30
0.0
 10
5.9035
 20
-11.4605
 30
0.0
  0
SPLINE
  5
9E
330
1F
100
AcDbEntity
  8
Vrstva 1
 62
   250
100
AcDbSpline
210
0.0
220
0.0
230
1.0
 70
    11
 71
     3
 72
    20
 73
    16
 74
     0
 42
0.000000001
 43
0.0000000001
 40
0.0
 40
0.0
 40
0.0
 40
0.0
 40
0.2
 40
0.2
 40
0.2
 40
0.2
 40
0.4
 40
0.4
 40
0.4
 40
0.4
 40
0.6
 40
0.6
 40
0.6
 40
0.6
 40
1.0
 40
1.0
 40
1.0
 40
1.0
 10
-1.5821
 20
-12.8807
 30
0.0
 10
-1.5821
 20
-12.8807
 30
0.0
 10
-1.5821
 20
-13.1136
 30
0.0
 10
-1.5821
 20
-13.1136
 30
0.0
 10
-1.5821
 20
-13.1136
 30
0.0
 10
-1.5821
 20
-13.1136
 30
0.0
 10
0.1253
 20
-13.1136
 30
0.0
 10
0.1253
 20
-13.1136
 30
0.0
 10
0.1253
 20
-13.1136
 30
0.0
 10
0.1253
 20
-13.1136
 30
0.0
 10
0.1253
 20
-12.8807
 30
0.0
 10
0.1253
 20
-12.8807
 30
0.0
 10
0.1253
 20
-12.8807
 30
0.0
 10
0.1253
 20
-12.8807
 30
0.0
 10
-1.5821
 20
-12.8807
 30
0.0
 10
-1.5821
 20
-12.8807
 30
0.0
  0
SPLINE
  5
9F
330
1F
100
AcDbEntity
  8
Vrstva 1
 62
   250
370
     9
100
AcDbSpline
210
0.0
220
0.0
230
1.0
 70
    11
 71
     3
 72
    32
 73
    28
 74
     0
 42
0.000000001
 43
0.0000000001
 40
0.0
 40
0.0
 40
0.0
 40
0.0
 40
0.125
 40
0.125
 40
0.125
 40
0.125
 40
0.25
 40
0.25
 40
0.25
 40
0.25
 40
0.375
 40
0.375
 40
0.375
 40
0.375
 40
0.5
 40
0.5
 40
0.5
 40
0.5
 40
0.625
 40
0.625
 40
0.625
 40
0.625
 40
0.75
 40
0.75
 40
0.75
 40
0.75
 40
1.0
 40
1.0
 40
1.0
 40
1.0
 10
52.6781
 20
-15.0085
 30
0.0
 10
52.6781
 20
-15.0085
 30
0.0
 10
52.6781
 20
-15.0085
 30
0.0
 10
52.6781
 20
-15.0085
 30
0.0
 10
52.6781
 20
-15.0085
 30
0.0
 10
52.6781
 20
-15.0085
 30
0.0
 10
52.6781
 20
-15.0085
 30
0.0
 10
52.6781
 20
-15.0085
 30
0.0
 10
52.6781
 20
-15.0085
 30
0.0
 10
52.6781
 20
-15.0085
 30
0.0
 10
53.9509
 20
-14.5651
 30
0.0
 10
53.9509
 20
-14.5651
 30
0.0
 10
53.9509
 20
-14.5651
 30
0.0
 10
53.9509
 20
-14.5651
 30
0.0
 10
52.6781
 20
-14.1217
 30
0.0
 10
52.6781
 20
-14.1217
 30
0.0
 10
52.6781
 20
-14.1217
 30
0.0
 10
52.6781
 20
-14.1217
 30
0.0
 10
52.6781
 20
-14.1217
 30
0.0
 10
52.6781
 20
-14.1217
 30
0.0
 10
52.6781
 20
-14.1217
 30
0.0
 10
52.6781
 20
-14.1217
 30
0.0
 10
52.6781
 20
-14.1217
 30
0.0
 10
52.6781
 20
-14.1217
 30
0.0
 10
52.6781
 20
-14.1217
 30
0.0
 10
52.6781
 20
-14.1217
 30
0.0
 10
52.6781
 20
-15.0085
 30
0.0
 10
52.6781
 20
-15.0085
 30
0.0
  0
SPLINE
  5
A0
330
1F
100
AcDbEntity
  8
Vrstva 1
 62
   250
370
     9
100
AcDbSpline
210
0.0
220
0.0
230
1.0
 70
    11
 71
     3
 72
    32
 73
    28
 74
     0
 42
0.000000001
 43
0.0000000001
 40
0.0
 40
0.0
 40
0.0
 40
0.0
 40
0.125
 40
0.125
 40
0.125
 40
0.125
 40
0.25
 40
0.25
 40
0.25
 40
0.25
 40
0.375
 40
0.375
 40
0.375
 40
0.375
 40
0.5
 40
0.5
 40
0.5
 40
0.5
 40
0.625
 40
0.625
 40
0.625
 40
0.625
 40
0.75
 40
0.75
 40
0.75
 40
0.75
 40
1.0
 40
1.0
 40
1.0
 40
1.0
 10
-45.0776
 20
-5.5234
 30
0.0
 10
-45.0776
 20
-5.5234
 30
0.0
 10
-45.0776
 20
-5.5234
 30
0.0
 10
-45.0776
 20
-5.5234
 30
0.0
 10
-45.0776
 20
-5.5234
 30
0.0
 10
-45.0776
 20
-5.5234
 30
0.0
 10
-45.0776
 20
-5.5234
 30
0.0
 10
-45.0776
 20
-5.5234
 30
0.0
 10
-45.0776
 20
-5.5234
 30
0.0
 10
-45.0776
 20
-5.5234
 30
0.0
 10
-45.521
 20
-4.2506
 30
0.0
 10
-45.521
 20
-4.2506
 30
0.0
 10
-45.521
 20
-4.2506
 30
0.0
 10
-45.521
 20
-4.2506
 30
0.0
 10
-45.9644
 20
-5.5234
 30
0.0
 10
-45.9644
 20
-5.5234
 30
0.0
 10
-45.9644
 20
-5.5234
 30
0.0
 10
-45.9644
 20
-5.5234
 30
0.0
 10
-45.9644
 20
-5.5234
 30
0.0
 10
-45.9644
 20
-5.5234
 30
0.0
 10
-45.9644
 20
-5.5234
 30
0.0
 10
-45.9644
 20
-5.5234
 30
0.0
 10
-45.9644
 20
-5.5234
 30
0.0
 10
-45.9644
 20
-5.5234
 30
0.0
 10
-45.9644
 20
-5.5234
 30
0.0
 10
-45.9644
 20
-5.5234
 30
0.0
 10
-45.0776
 20
-5.5234
 30
0.0
 10
-45.0776
 20
-5.5234
 30
0.0
  0
SPLINE
  5
A1
330
1F
100
AcDbEntity
  8
Vrstva 1
 62
   250
370
     9
100
AcDbSpline
210
0.0
220
0.0
230
1.0
 70
    11
 71
     3
 72
    32
 73
    28
 74
     0
 42
0.000000001
 43
0.0000000001
 40
0.0
 40
0.0
 40
0.0
 40
0.0
 40
0.125
 40
0.125
 40
0.125
 40
0.125
 40
0.25
 40
0.25
 40
0.25
 40
0.25
 40
0.375
 40
0.375
 40
0.375
 40
0.375
 40
0.5
 40
0.5
 40
0.5
 40
0.5
 40
0.625
 40
0.625
 40
0.625
 40
0.625
 40
0.75
 40
0.75
 40
0.75
 40
0.75
 40
1.0
 40
1.0
 40
1.0
 40
1.0
 10
45.928
 20
-5.5013
 30
0.0
 10
45.928
 20
-5.5013
 30
0.0
 10
45.928
 20
-5.5013
 30
0.0
 10
45.928
 20
-5.5013
 30
0.0
 10
45.928
 20
-5.5013
 30
0.0
 10
45.928
 20
-5.5013
 30
0.0
 10
45.928
 20
-5.5013
 30
0.0
 10
45.928
 20
-5.5013
 30
0.0
 10
45.928
 20
-5.5013
 30
0.0
 10
45.928
 20
-5.5013
 30
0.0
 10
45.4846
 20
-4.2285
 30
0.0
 10
45.4846
 20
-4.2285
 30
0.0
 10
45.4846
 20
-4.2285
 30
0.0
 10
45.4846
 20
-4.2285
 30
0.0
 10
45.0412
 20
-5.5013
 30
0.0
 10
45.0412
 20
-5.5013
 30
0.0
 10
45.0412
 20
-5.5013
 30
0.0
 10
45.0412
 20
-5.5013
 30
0.0
 10
45.0412
 20
-5.5013
 30
0.0
 10
45.0412
 20
-5.5013
 30
0.0
 10
45.0412
 20
-5.5013
 30
0.0
 10
45.0412
 20
-5.5013
 30
0.0
 10
45.0412
 20
-5.5013
 30
0.0
 10
45.0412
 20
-5.5013
 30
0.0
 10
45.0412
 20
-5.5013
 30
0.0
 10
45.0412
 20
-5.5013
 30
0.0
 10
45.928
 20
-5.5013
 30
0.0
 10
45.928
 20
-5.5013
 30
0.0
  0
SPLINE
  5
A2
330
1F
100
AcDbEntity
  8
Vrstva 1
 62
   250
370
     9
100
AcDbSpline
210
0.0
220
0.0
230
1.0
 70
    11
 71
     3
 72
    32
 73
    28
 74
     0
 42
0.000000001
 43
0.0000000001
 40
0.0
 40
0.0
 40
0.0
 40
0.0
 40
0.125
 40
0.125
 40
0.125
 40
0.125
 40
0.25
 40
0.25
 40
0.25
 40
0.25
 40
0.375
 40
0.375
 40
0.375
 40
0.375
 40
0.5
 40
0.5
 40
0.5
 40
0.5
 40
0.625
 40
0.625
 40
0.625
 40
0.625
 40
0.75
 40
0.75
 40
0.75
 40
0.75
 40
1.0
 40
1.0
 40
1.0
 40
1.0
 10
30.6428
 20
-3.8533
 30
0.0
 10
30.6428
 20
-3.8533
 30
0.0
 10
30.6428
 20
-3.8533
 30
0.0
 10
30.6428
 20
-3.8533
 30
0.0
 10
30.6428
 20
-3.8533
 30
0.0
 10
30.6428
 20
-3.8533
 30
0.0
 10
30.6428
 20
-3.8533
 30
0.0
 10
30.6428
 20
-3.8533
 30
0.0
 10
30.6428
 20
-3.8533
 30
0.0
 10
30.6428
 20
-3.8533
 30
0.0
 10
30.1994
 20
-2.5805
 30
0.0
 10
30.1994
 20
-2.5805
 30
0.0
 10
30.1994
 20
-2.5805
 30
0.0
 10
30.1994
 20
-2.5805
 30
0.0
 10
29.756
 20
-3.8533
 30
0.0
 10
29.756
 20
-3.8533
 30
0.0
 10
29.756
 20
-3.8533
 30
0.0
 10
29.756
 20
-3.8533
 30
0.0
 10
29.756
 20
-3.8533
 30
0.0
 10
29.756
 20
-3.8533
 30
0.0
 10
29.756
 20
-3.8533
 30
0.0
 10
29.756
 20
-3.8533
 30
0.0
 10
29.756
 20
-3.8533
 30
0.0
 10
29.756
 20
-3.8533
 30
0.0
 10
29.756
 20
-3.8533
 30
0.0
 10
29.756
 20
-3.8533
 30
0.0
 10
30.6428
 20
-3.8533
 30
0.0
 10
30.6428
 20
-3.8533
 30
0.0
  0
SPLINE
  5
A3
330
1F
100
AcDbEntity
  8
Vrstva 1
 62
   250
370
     9
100
AcDbSpline
210
0.0
220
0.0
230
1.0
 70
    11
 71
     3
 72
    32
 73
    28
 74
     0
 42
0.000000001
 43
0.0000000001
 40
0.0
 40
0.0
 40
0.0
 40
0.0
 40
0.125
 40
0.125
 40
0.125
 40
0.125
 40
0.25
 40
0.25
 40
0.25
 40
0.25
 40
0.375
 40
0.375
 40
0.375
 40
0.375
 40
0.5
 40
0.5
 40
0.5
 40
0.5
 40
0.625
 40
0.625
 40
0.625
 40
0.625
 40
0.75
 40
0.75
 40
0.75
 40
0.75
 40
1.0
 40
1.0
 40
1.0
 40
1.0
 10
-29.5502
 20
-3.8202
 30
0.0
 10
-29.5502
 20
-3.8202
 30
0.0
 10
-29.5502
 20
-3.8202
 30
0.0
 10
-29.5502
 20
-3.8202
 30
0.0
 10
-29.5502
 20
-3.8202
 30
0.0
 10
-29.5502
 20
-3.8202
 30
0.0
 10
-29.5502
 20
-3.8202
 30
0.0
 10
-29.5502
 20
-3.8202
 30
0.0
 10
-29.5502
 20
-3.8202
 30
0.0
 10
-29.5502
 20
-3.8202
 30
0.0
 10
-29.9936
 20
-2.5474
 30
0.0
 10
-29.9936
 20
-2.5474
 30
0.0
 10
-29.9936
 20
-2.5474
 30
0.0
 10
-29.9936
 20
-2.5474
 30
0.0
 10
-30.437
 20
-3.8202
 30
0.0
 10
-30.437
 20
-3.8202
 30
0.0
 10
-30.437
 20
-3.8202
 30
0.0
 10
-30.437
 20
-3.8202
 30
0.0
 10
-30.437
 20
-3.8202
 30
0.0
 10
-30.437
 20
-3.8202
 30
0.0
 10
-30.437
 20
-3.8202
 30
0.0
 10
-30.437
 20
-3.8202
 30
0.0
 10
-30.437
 20
-3.8202
 30
0.0
 10
-30.437
 20
-3.8202
 30
0.0
 10
-30.437
 20
-3.8202
 30
0.0
 10
-30.437
 20
-3.8202
 30
0.0
 10
-29.5502
 20
-3.8202
 30
0.0
 10
-29.5502
 20
-3.8202
 30
0.0
  0
SPLINE
  5
A4
330
1F
100
AcDbEntity
  8
Vrstva 1
 62
   250
370
     9
100
AcDbSpline
210
0.0
220
0.0
230
1.0
 70
    11
 71
     3
 72
    32
 73
    28
 74
     0
 42
0.000000001
 43
0.0000000001
 40
0.0
 40
0.0
 40
0.0
 40
0.0
 40
0.125
 40
0.125
 40
0.125
 40
0.125
 40
0.25
 40
0.25
 40
0.25
 40
0.25
 40
0.375
 40
0.375
 40
0.375
 40
0.375
 40
0.5
 40
0.5
 40
0.5
 40
0.5
 40
0.625
 40
0.625
 40
0.625
 40
0.625
 40
0.75
 40
0.75
 40
0.75
 40
0.75
 40
1.0
 40
1.0
 40
1.0
 40
1.0
 10
-45.9838
 20
13.9356
 30
0.0
 10
-45.9838
 20
13.9356
 30
0.0
 10
-45.9838
 20
13.9356
 30
0.0
 10
-45.9838
 20
13.9356
 30
0.0
 10
-45.9838
 20
13.9356
 30
0.0
 10
-45.9838
 20
13.9356
 30
0.0
 10
-45.9838
 20
13.9356
 30
0.0
 10
-45.9838
 20
13.9356
 30
0.0
 10
-45.9838
 20
13.9356
 30
0.0
 10
-45.9838
 20
13.9356
 30
0.0
 10
-45.5404
 20
12.6628
 30
0.0
 10
-45.5404
 20
12.6628
 30
0.0
 10
-45.5404
 20
12.6628
 30
0.0
 10
-45.5404
 20
12.6628
 30
0.0
 10
-45.097
 20
13.9356
 30
0.0
 10
-45.097
 20
13.9356
 30
0.0
 10
-45.097
 20
13.9356
 30
0.0
 10
-45.097
 20
13.9356
 30
0.0
 10
-45.097
 20
13.9356
 30
0.0
 10
-45.097
 20
13.9356
 30
0.0
 10
-45.097
 20
13.9356
 30
0.0
 10
-45.097
 20
13.9356
 30
0.0
 10
-45.097
 20
13.9356
 30
0.0
 10
-45.097
 20
13.9356
 30
0.0
 10
-45.097
 20
13.9356
 30
0.0
 10
-45.097
 20
13.9356
 30
0.0
 10
-45.9838
 20
13.9356
 30
0.0
 10
-45.9838
 20
13.9356
 30
0.0
  0
SPLINE
  5
A5
330
1F
100
AcDbEntity
  8
Vrstva 1
 62
   250
370
     9
100
AcDbSpline
210
0.0
220
0.0
230
1.0
 70
    11
 71
     3
 72
    32
 73
    28
 74
     0
 42
0.000000001
 43
0.0000000001
 40
0.0
 40
0.0
 40
0.0
 40
0.0
 40
0.125
 40
0.125
 40
0.125
 40
0.125
 40
0.25
 40
0.25
 40
0.25
 40
0.25
 40
0.375
 40
0.375
 40
0.375
 40
0.375
 40
0.5
 40
0.5
 40
0.5
 40
0.5
 40
0.625
 40
0.625
 40
0.625
 40
0.625
 40
0.75
 40
0.75
 40
0.75
 40
0.75
 40
1.0
 40
1.0
 40
1.0
 40
1.0
 10
45.0218
 20
13.9577
 30
0.0
 10
45.0218
 20
13.9577
 30
0.0
 10
45.0218
 20
13.9577
 30
0.0
 10
45.0218
 20
13.9577
 30
0.0
 10
45.0218
 20
13.9577
 30
0.0
 10
45.0218
 20
13.9577
 30
0.0
 10
45.0218
 20
13.9577
 30
0.0
 10
45.0218
 20
13.9577
 30
0.0
 10
45.0218
 20
13.9577
 30
0.0
 10
45.0218
 20
13.9577
 30
0.0
 10
45.4652
 20
12.6849
 30
0.0
 10
45.4652
 20
12.6849
 30
0.0
 10
45.4652
 20
12.6849
 30
0.0
 10
45.4652
 20
12.6849
 30
0.0
 10
45.9086
 20
13.9577
 30
0.0
 10
45.9086
 20
13.9577
 30
0.0
 10
45.9086
 20
13.9577
 30
0.0
 10
45.9086
 20
13.9577
 30
0.0
 10
45.9086
 20
13.9577
 30
0.0
 10
45.9086
 20
13.9577
 30
0.0
 10
45.9086
 20
13.9577
 30
0.0
 10
45.9086
 20
13.9577
 30
0.0
 10
45.9086
 20
13.9577
 30
0.0
 10
45.9086
 20
13.9577
 30
0.0
 10
45.9086
 20
13.9577
 30
0.0
 10
45.9086
 20
13.9577
 30
0.0
 10
45.0218
 20
13.9577
 30
0.0
 10
45.0218
 20
13.9577
 30
0.0
  0
SPLINE
  5
A6
330
1F
100
AcDbEntity
  8
Vrstva 1
 62
   250
370
     9
100
AcDbSpline
210
0.0
220
0.0
230
1.0
 70
    11
 71
     3
 72
    32
 73
    28
 74
     0
 42
0.000000001
 43
0.0000000001
 40
0.0
 40
0.0
 40
0.0
 40
0.0
 40
0.125
 40
0.125
 40
0.125
 40
0.125
 40
0.25
 40
0.25
 40
0.25
 40
0.25
 40
0.375
 40
0.375
 40
0.375
 40
0.375
 40
0.5
 40
0.5
 40
0.5
 40
0.5
 40
0.625
 40
0.625
 40
0.625
 40
0.625
 40
0.75
 40
0.75
 40
0.75
 40
0.75
 40
1.0
 40
1.0
 40
1.0
 40
1.0
 10
29.7586
 20
12.2543
 30
0.0
 10
29.7586
 20
12.2543
 30
0.0
 10
29.7586
 20
12.2543
 30
0.0
 10
29.7586
 20
12.2543
 30
0.0
 10
29.7586
 20
12.2543
 30
0.0
 10
29.7586
 20
12.2543
 30
0.0
 10
29.7586
 20
12.2543
 30
0.0
 10
29.7586
 20
12.2543
 30
0.0
 10
29.7586
 20
12.2543
 30
0.0
 10
29.7586
 20
12.2543
 30
0.0
 10
30.202
 20
10.9815
 30
0.0
 10
30.202
 20
10.9815
 30
0.0
 10
30.202
 20
10.9815
 30
0.0
 10
30.202
 20
10.9815
 30
0.0
 10
30.6454
 20
12.2543
 30
0.0
 10
30.6454
 20
12.2543
 30
0.0
 10
30.6454
 20
12.2543
 30
0.0
 10
30.6454
 20
12.2543
 30
0.0
 10
30.6454
 20
12.2543
 30
0.0
 10
30.6454
 20
12.2543
 30
0.0
 10
30.6454
 20
12.2543
 30
0.0
 10
30.6454
 20
12.2543
 30
0.0
 10
30.6454
 20
12.2543
 30
0.0
 10
30.6454
 20
12.2543
 30
0.0
 10
30.6454
 20
12.2543
 30
0.0
 10
30.6454
 20
12.2543
 30
0.0
 10
29.7586
 20
12.2543
 30
0.0
 10
29.7586
 20
12.2543
 30
0.0
  0
SPLINE
  5
A7
330
1F
100
AcDbEntity
  8
Vrstva 1
 62
   250
370
     9
100
AcDbSpline
210
0.0
220
0.0
230
1.0
 70
    11
 71
     3
 72
    32
 73
    28
 74
     0
 42
0.000000001
 43
0.0000000001
 40
0.0
 40
0.0
 40
0.0
 40
0.0
 40
0.125
 40
0.125
 40
0.125
 40
0.125
 40
0.25
 40
0.25
 40
0.25
 40
0.25
 40
0.375
 40
0.375
 40
0.375
 40
0.375
 40
0.5
 40
0.5
 40
0.5
 40
0.5
 40
0.625
 40
0.625
 40
0.625
 40
0.625
 40
0.75
 40
0.75
 40
0.75
 40
0.75
 40
1.0
 40
1.0
 40
1.0
 40
1.0
 10
-30.4344
 20
12.2874
 30
0.0
 10
-30.4344
 20
12.2874
 30
0.0
 10
-30.4344
 20
12.2874
 30
0.0
 10
-30.4344
 20
12.2874
 30
0.0
 10
-30.4344
 20
12.2874
 30
0.0
 10
-30.4344
 20
12.2874
 30
0.0
 10
-30.4344
 20
12.2874
 30
0.0
 10
-30.4344
 20
12.2874
 30
0.0
 10
-30.4344
 20
12.2874
 30
0.0
 10
-30.4344
 20
12.2874
 30
0.0
 10
-29.991
 20
11.0146
 30
0.0
 10
-29.991
 20
11.0146
 30
0.0
 10
-29.991
 20
11.0146
 30
0.0
 10
-29.991
 20
11.0146
 30
0.0
 10
-29.5476
 20
12.2874
 30
0.0
 10
-29.5476
 20
12.2874
 30
0.0
 10
-29.5476
 20
12.2874
 30
0.0
 10
-29.5476
 20
12.2874
 30
0.0
 10
-29.5476
 20
12.2874
 30
0.0
 10
-29.5476
 20
12.2874
 30
0.0
 10
-29.5476
 20
12.2874
 30
0.0
 10
-29.5476
 20
12.2874
 30
0.0
 10
-29.5476
 20
12.2874
 30
0.0
 10
-29.5476
 20
12.2874
 30
0.0
 10
-29.5476
 20
12.2874
 30
0.0
 10
-29.5476
 20
12.2874
 30
0.0
 10
-30.4344
 20
12.2874
 30
0.0
 10
-30.4344
 20
12.2874
 30
0.0
  0
SPLINE
  5
A8
330
1F
100
AcDbEntity
  8
Vrstva 1
 62
   250
370
     9
100
AcDbSpline
210
0.0
220
0.0
230
1.0
 70
    11
 71
     3
 72
    32
 73
    28
 74
     0
 42
0.000000001
 43
0.0000000001
 40
0.0
 40
0.0
 40
0.0
 40
0.0
 40
0.125
 40
0.125
 40
0.125
 40
0.125
 40
0.25
 40
0.25
 40
0.25
 40
0.25
 40
0.375
 40
0.375
 40
0.375
 40
0.375
 40
0.5
 40
0.5
 40
0.5
 40
0.5
 40
0.625
 40
0.625
 40
0.625
 40
0.625
 40
0.75
 40
0.75
 40
0.75
 40
0.75
 40
1.0
 40
1.0
 40
1.0
 40
1.0
 10
-53.2798
 20
-15.0194
 30
0.0
 10
-53.2798
 20
-15.0194
 30
0.0
 10
-53.2798
 20
-15.0194
 30
0.0
 10
-53.2798
 20
-15.0194
 30
0.0
 10
-53.2798
 20
-15.0194
 30
0.0
 10
-53.2798
 20
-15.0194
 30
0.0
 10
-53.2798
 20
-15.0194
 30
0.0
 10
-53.2798
 20
-15.0194
 30
0.0
 10
-53.2798
 20
-15.0194
 30
0.0
 10
-53.2798
 20
-15.0194
 30
0.0
 10
-54.5526
 20
-14.576
 30
0.0
 10
-54.5526
 20
-14.576
 30
0.0
 10
-54.5526
 20
-14.576
 30
0.0
 10
-54.5526
 20
-14.576
 30
0.0
 10
-53.2798
 20
-14.1326
 30
0.0
 10
-53.2798
 20
-14.1326
 30
0.0
 10
-53.2798
 20
-14.1326
 30
0.0
 10
-53.2798
 20
-14.1326
 30
0.0
 10
-53.2798
 20
-14.1326
 30
0.0
 10
-53.2798
 20
-14.1326
 30
0.0
 10
-53.2798
 20
-14.1326
 30
0.0
 10
-53.2798
 20
-14.1326
 30
0.0
 10
-53.2798
 20
-14.1326
 30
0.0
 10
-53.2798
 20
-14.1326
 30
0.0
 10
-53.2798
 20
-14.1326
 30
0.0
 10
-53.2798
 20
-14.1326
 30
0.0
 10
-53.2798
 20
-15.0194
 30
0.0
 10
-53.2798
 20
-15.0194
 30
0.0
  0
SPLINE
  5
A9
330
1F
100
AcDbEntity
  8
Vrstva 1
 62
   250
370
    30
100
AcDbSpline
210
0.0
220
0.0
230
1.0
 70
    24
 71
     3
 72
     8
 73
     4
 74
     0
 42
0.000000001
 43
0.0000000001
 40
0.0
 40
0.0
 40
0.0
 40
0.0
 40
1.0
 40
1.0
 40
1.0
 40
1.0
 10
-54.4148
 20
-3.8356
 30
0.0
 10
-54.4148
 20
-3.8356
 30
0.0
 10
-54.4148
 20
12.1699
 30
0.0
 10
-54.4148
 20
12.1699
 30
0.0
  0
SPLINE
  5
AA
330
1F
100
AcDbEntity
  8
Vrstva 1
 62
   250
370
    30
100
AcDbSpline
210
0.0
220
0.0
230
1.0
 70
    24
 71
     3
 72
     8
 73
     4
 74
     0
 42
0.000000001
 43
0.0000000001
 40
0.0
 40
0.0
 40
0.0
 40
0.0
 40
1.0
 40
1.0
 40
1.0
 40
1.0
 10
-53.7435
 20
-4.2232
 30
0.0
 10
-53.7435
 20
-4.2232
 30
0.0
 10
-53.7435
 20
12.5576
 30
0.0
 10
-53.7435
 20
12.5576
 30
0.0
  0
SPLINE
  5
AB
330
1F
100
AcDbEntity
  8
Vrstva 1
 62
   250
370
    30
100
AcDbSpline
210
0.0
220
0.0
230
1.0
 70
    24
 71
     3
 72
     8
 73
     4
 74
     0
 42
0.000000001
 43
0.0000000001
 40
0.0
 40
0.0
 40
0.0
 40
0.0
 40
1.0
 40
1.0
 40
1.0
 40
1.0
 10
-54.4148
 20
12.1699
 30
0.0
 10
-54.4148
 20
12.1699
 30
0.0
 10
-53.7435
 20
12.5576
 30
0.0
 10
-53.7435
 20
12.5576
 30
0.0
  0
SPLINE
  5
AC
330
1F
100
AcDbEntity
  8
Vrstva 1
 62
   250
370
    30
100
AcDbSpline
210
0.0
220
0.0
230
1.0
 70
    24
 71
     3
 72
     8
 73
     4
 74
     0
 42
0.000000001
 43
0.0000000001
 40
0.0
 40
0.0
 40
0.0
 40
0.0
 40
1.0
 40
1.0
 40
1.0
 40
1.0
 10
-54.4148
 20
-3.8356
 30
0.0
 10
-54.4148
 20
-3.8356
 30
0.0
 10
-53.7435
 20
-4.2232
 30
0.0
 10
-53.7435
 20
-4.2232
 30
0.0
  0
SPLINE
  5
AD
330
1F
100
AcDbEntity
  8
Vrstva 1
 62
   250
370
    30
100
AcDbSpline
210
0.0
220
0.0
230
1.0
 70
    24
 71
     3
 72
     8
 73
     4
 74
     0
 42
0.000000001
 43
0.0000000001
 40
0.0
 40
0.0
 40
0.0
 40
0.0
 40
1.0
 40
1.0
 40
1.0
 40
1.0
 10
-37.631
 20
12.3926
 30
0.0
 10
-37.631
 20
12.3926
 30
0.0
 10
-37.6077
 20
11.0443
 30
0.0
 10
-37.6077
 20
11.0443
 30
0.0
  0
SPLINE
  5
AE
330
1F
100
AcDbEntity
  8
Vrstva 1
 62
   250
370
    30
100
AcDbSpline
210
0.0
220
0.0
230
1.0
 70
    24
 71
     3
 72
     8
 73
     4
 74
     0
 42
0.000000001
 43
0.0000000001
 40
0.0
 40
0.0
 40
0.0
 40
0.0
 40
1.0
 40
1.0
 40
1.0
 40
1.0
 10
-37.631
 20
-4.0583
 30
0.0
 10
-37.631
 20
-4.0583
 30
0.0
 10
-37.6077
 20
-2.71
 30
0.0
 10
-37.6077
 20
-2.71
 30
0.0
  0
SPLINE
  5
AF
330
1F
100
AcDbEntity
  8
Vrstva 1
 62
   250
370
    30
100
AcDbSpline
210
0.0
220
0.0
230
1.0
 70
    24
 71
     3
 72
     8
 73
     4
 74
     0
 42
0.000000001
 43
0.0000000001
 40
0.0
 40
0.0
 40
0.0
 40
0.0
 40
1.0
 40
1.0
 40
1.0
 40
1.0
 10
-53.7435
 20
-4.2232
 30
0.0
 10
-53.7435
 20
-4.2232
 30
0.0
 10
-37.799
 20
-4.2232
 30
0.0
 10
-37.799
 20
-4.2232
 30
0.0
  0
SPLINE
  5
B0
330
1F
100
AcDbEntity
  8
Vrstva 1
 62
   250
370
    30
100
AcDbSpline
210
0.0
220
0.0
230
1.0
 70
    24
 71
     3
 72
     8
 73
     4
 74
     0
 42
0.000000001
 43
0.0000000001
 40
0.0
 40
0.0
 40
0.0
 40
0.0
 40
1.0
 40
1.0
 40
1.0
 40
1.0
 10
-37.4397
 20
-2.5452
 30
0.0
 10
-37.4397
 20
-2.5452
 30
0.0
 10
-22.8318
 20
-2.5452
 30
0.0
 10
-22.8318
 20
-2.5452
 30
0.0
  0
SPLINE
  5
B1
330
1F
100
AcDbEntity
  8
Vrstva 1
 62
   250
370
    30
100
AcDbSpline
210
0.0
220
0.0
230
1.0
 70
    24
 71
     3
 72
     8
 73
     4
 74
     0
 42
0.000000001
 43
0.0000000001
 40
0.0
 40
0.0
 40
0.0
 40
0.0
 40
1.0
 40
1.0
 40
1.0
 40
1.0
 10
-22.3262
 20
-1.9244
 30
0.0
 10
-22.3262
 20
-1.9244
 30
0.0
 10
-19.8463
 20
-1.9244
 30
0.0
 10
-19.8463
 20
-1.9244
 30
0.0
  0
SPLINE
  5
B2
330
1F
100
AcDbEntity
  8
Vrstva 1
 62
   250
370
    30
100
AcDbSpline
210
0.0
220
0.0
230
1.0
 70
    24
 71
     3
 72
     8
 73
     4
 74
     0
 42
0.000000001
 43
0.0000000001
 40
0.0
 40
0.0
 40
0.0
 40
0.0
 40
1.0
 40
1.0
 40
1.0
 40
1.0
 10
-18.3025
 20
-1.1525
 30
0.0
 10
-18.3025
 20
-1.1525
 30
0.0
 10
-19.3724
 20
-1.1525
 30
0.0
 10
-19.3724
 20
-1.1525
 30
0.0
  0
SPLINE
  5
B3
330
1F
100
AcDbEntity
  8
Vrstva 1
 62
   250
370
    30
100
AcDbSpline
210
0.0
220
0.0
230
1.0
 70
    24
 71
     3
 72
     8
 73
     4
 74
     0
 42
0.000000001
 43
0.0000000001
 40
0.0
 40
0.0
 40
0.0
 40
0.0
 40
1.0
 40
1.0
 40
1.0
 40
1.0
 10
-16.4266
 20
10.9578
 30
0.0
 10
-16.4266
 20
10.9578
 30
0.0
 10
-17.7229
 20
9.719
 30
0.0
 10
-17.7229
 20
9.719
 30
0.0
  0
SPLINE
  5
B4
330
1F
100
AcDbEntity
  8
Vrstva 1
 62
   250
370
    30
100
AcDbSpline
210
0.0
220
0.0
230
1.0
 70
    24
 71
     3
 72
     8
 73
     4
 74
     0
 42
0.000000001
 43
0.0000000001
 40
0.0
 40
0.0
 40
0.0
 40
0.0
 40
1.0
 40
1.0
 40
1.0
 40
1.0
 10
-17.7229
 20
-1.3849
 30
0.0
 10
-17.7229
 20
-1.3849
 30
0.0
 10
-16.4266
 20
-2.6236
 30
0.0
 10
-16.4266
 20
-2.6236
 30
0.0
  0
SPLINE
  5
B5
330
1F
100
AcDbEntity
  8
Vrstva 1
 62
   250
370
    30
100
AcDbSpline
210
0.0
220
0.0
230
1.0
 70
    24
 71
     3
 72
     8
 73
     4
 74
     0
 42
0.000000001
 43
0.0000000001
 40
0.0
 40
0.0
 40
0.0
 40
0.0
 40
1.0
 40
1.0
 40
1.0
 40
1.0
 10
-22.4962
 20
10.5496
 30
0.0
 10
-22.4962
 20
10.5496
 30
0.0
 10
-22.494
 20
10.4234
 30
0.0
 10
-22.494
 20
10.4234
 30
0.0
  0
SPLINE
  5
B6
330
1F
100
AcDbEntity
  8
Vrstva 1
 62
   250
370
    30
100
AcDbSpline
210
0.0
220
0.0
230
1.0
 70
    24
 71
     3
 72
     8
 73
     4
 74
     0
 42
0.000000001
 43
0.0000000001
 40
0.0
 40
0.0
 40
0.0
 40
0.0
 40
1.0
 40
1.0
 40
1.0
 40
1.0
 10
-22.4962
 20
-2.2153
 30
0.0
 10
-22.4962
 20
-2.2153
 30
0.0
 10
-22.494
 20
-2.0891
 30
0.0
 10
-22.494
 20
-2.0891
 30
0.0
  0
SPLINE
  5
B7
330
1F
100
AcDbEntity
  8
Vrstva 1
 62
   250
370
    30
100
AcDbSpline
210
0.0
220
0.0
230
1.0
 70
    24
 71
     3
 72
     8
 73
     4
 74
     0
 42
0.000000001
 43
0.0000000001
 40
0.0
 40
0.0
 40
0.0
 40
0.0
 40
1.0
 40
1.0
 40
1.0
 40
1.0
 10
-18.3025
 20
9.4866
 30
0.0
 10
-18.3025
 20
9.4866
 30
0.0
 10
-19.3724
 20
9.4866
 30
0.0
 10
-19.3724
 20
9.4866
 30
0.0
  0
SPLINE
  5
B8
330
1F
100
AcDbEntity
  8
Vrstva 1
 62
   250
370
    30
100
AcDbSpline
210
0.0
220
0.0
230
1.0
 70
    24
 71
     3
 72
     8
 73
     4
 74
     0
 42
0.000000001
 43
0.0000000001
 40
0.0
 40
0.0
 40
0.0
 40
0.0
 40
1.0
 40
1.0
 40
1.0
 40
1.0
 10
-13.35
 20
10.7698
 30
0.0
 10
-13.35
 20
10.7698
 30
0.0
 10
-14.355
 20
9.4518
 30
0.0
 10
-14.355
 20
9.4518
 30
0.0
  0
SPLINE
  5
B9
330
1F
100
AcDbEntity
  8
Vrstva 1
 62
   250
370
    30
100
AcDbSpline
210
0.0
220
0.0
230
1.0
 70
    24
 71
     3
 72
     8
 73
     4
 74
     0
 42
0.000000001
 43
0.0000000001
 40
0.0
 40
0.0
 40
0.0
 40
0.0
 40
1.0
 40
1.0
 40
1.0
 40
1.0
 10
-22.3262
 20
10.2585
 30
0.0
 10
-22.3262
 20
10.2585
 30
0.0
 10
-19.8463
 20
10.2585
 30
0.0
 10
-19.8463
 20
10.2585
 30
0.0
  0
SPLINE
  5
BA
330
1F
100
AcDbEntity
  8
Vrstva 1
 62
   250
370
    30
100
AcDbSpline
210
0.0
220
0.0
230
1.0
 70
    24
 71
     3
 72
     8
 73
     4
 74
     0
 42
0.000000001
 43
0.0000000001
 40
0.0
 40
0.0
 40
0.0
 40
0.0
 40
1.0
 40
1.0
 40
1.0
 40
1.0
 10
-37.4397
 20
10.8794
 30
0.0
 10
-37.4397
 20
10.8794
 30
0.0
 10
-22.8318
 20
10.8794
 30
0.0
 10
-22.8318
 20
10.8794
 30
0.0
  0
SPLINE
  5
BB
330
1F
100
AcDbEntity
  8
Vrstva 1
 62
   250
370
    30
100
AcDbSpline
210
0.0
220
0.0
230
1.0
 70
    24
 71
     3
 72
     8
 73
     4
 74
     0
 42
0.000000001
 43
0.0000000001
 40
0.0
 40
0.0
 40
0.0
 40
0.0
 40
1.0
 40
1.0
 40
1.0
 40
1.0
 10
-14.355
 20
-1.1177
 30
0.0
 10
-14.355
 20
-1.1177
 30
0.0
 10
-13.35
 20
-2.4353
 30
0.0
 10
-13.35
 20
-2.4353
 30
0.0
  0
SPLINE
  5
BC
330
1F
100
AcDbEntity
  8
Vrstva 1
 62
   250
370
    30
100
AcDbSpline
210
0.0
220
0.0
230
1.0
 70
    24
 71
     3
 72
     8
 73
     4
 74
     0
 42
0.000000001
 43
0.0000000001
 40
0.0
 40
0.0
 40
0.0
 40
0.0
 40
1.0
 40
1.0
 40
1.0
 40
1.0
 10
-19.3724
 20
9.4866
 30
0.0
 10
-19.3724
 20
9.4866
 30
0.0
 10
-19.3724
 20
-1.1525
 30
0.0
 10
-19.3724
 20
-1.1525
 30
0.0
  0
SPLINE
  5
BD
330
1F
100
AcDbEntity
  8
Vrstva 1
 62
   250
370
    30
100
AcDbSpline
210
0.0
220
0.0
230
1.0
 70
    24
 71
     3
 72
     8
 73
     4
 74
     0
 42
0.000000001
 43
0.0000000001
 40
0.0
 40
0.0
 40
0.0
 40
0.0
 40
1.0
 40
1.0
 40
1.0
 40
1.0
 10
-18.3025
 20
9.4866
 30
0.0
 10
-18.3025
 20
9.4866
 30
0.0
 10
-18.3025
 20
-1.1525
 30
0.0
 10
-18.3025
 20
-1.1525
 30
0.0
  0
SPLINE
  5
BE
330
1F
100
AcDbEntity
  8
Vrstva 1
 62
   250
370
    30
100
AcDbSpline
210
0.0
220
0.0
230
1.0
 70
    24
 71
     3
 72
     8
 73
     4
 74
     0
 42
0.000000001
 43
0.0000000001
 40
0.0
 40
0.0
 40
0.0
 40
0.0
 40
1.0
 40
1.0
 40
1.0
 40
1.0
 10
-19.4332
 20
-1.1912
 30
0.0
 10
-19.4332
 20
-1.1912
 30
0.0
 10
-19.5265
 20
-1.391
 30
0.0
 10
-19.5265
 20
-1.391
 30
0.0
  0
SPLINE
  5
BF
330
1F
100
AcDbEntity
  8
Vrstva 1
 62
   250
370
    30
100
AcDbSpline
210
0.0
220
0.0
230
1.0
 70
    24
 71
     3
 72
     8
 73
     4
 74
     0
 42
0.000000001
 43
0.0000000001
 40
0.0
 40
0.0
 40
0.0
 40
0.0
 40
1.0
 40
1.0
 40
1.0
 40
1.0
 10
-10.3798
 20
10.7698
 30
0.0
 10
-10.3798
 20
10.7698
 30
0.0
 10
-11.3848
 20
9.4518
 30
0.0
 10
-11.3848
 20
9.4518
 30
0.0
  0
SPLINE
  5
C0
330
1F
100
AcDbEntity
  8
Vrstva 1
 62
   250
370
    30
100
AcDbSpline
210
0.0
220
0.0
230
1.0
 70
    24
 71
     3
 72
     8
 73
     4
 74
     0
 42
0.000000001
 43
0.0000000001
 40
0.0
 40
0.0
 40
0.0
 40
0.0
 40
1.0
 40
1.0
 40
1.0
 40
1.0
 10
-53.7435
 20
12.5576
 30
0.0
 10
-53.7435
 20
12.5576
 30
0.0
 10
-37.799
 20
12.5576
 30
0.0
 10
-37.799
 20
12.5576
 30
0.0
  0
SPLINE
  5
C1
330
1F
100
AcDbEntity
  8
Vrstva 1
 62
   250
370
    30
100
AcDbSpline
210
0.0
220
0.0
230
1.0
 70
    24
 71
     3
 72
     8
 73
     4
 74
     0
 42
0.000000001
 43
0.0000000001
 40
0.0
 40
0.0
 40
0.0
 40
0.0
 40
1.0
 40
1.0
 40
1.0
 40
1.0
 10
-11.3848
 20
-1.1177
 30
0.0
 10
-11.3848
 20
-1.1177
 30
0.0
 10
-10.3798
 20
-2.4353
 30
0.0
 10
-10.3798
 20
-2.4353
 30
0.0
  0
SPLINE
  5
C2
330
1F
100
AcDbEntity
  8
Vrstva 1
 62
   250
370
    30
100
AcDbSpline
210
0.0
220
0.0
230
1.0
 70
    24
 71
     3
 72
     8
 73
     4
 74
     0
 42
0.000000001
 43
0.0000000001
 40
0.0
 40
0.0
 40
0.0
 40
0.0
 40
1.0
 40
1.0
 40
1.0
 40
1.0
 10
-19.4332
 20
9.5253
 30
0.0
 10
-19.4332
 20
9.5253
 30
0.0
 10
-19.5265
 20
9.7253
 30
0.0
 10
-19.5265
 20
9.7253
 30
0.0
  0
SPLINE
  5
C3
330
1F
100
AcDbEntity
  8
Vrstva 1
 62
   250
370
    30
100
AcDbSpline
210
0.0
220
0.0
230
1.0
 70
    24
 71
     3
 72
     8
 73
     4
 74
     0
 42
0.000000001
 43
0.0000000001
 40
0.0
 40
0.0
 40
0.0
 40
0.0
 40
1.0
 40
1.0
 40
1.0
 40
1.0
 10
-17.7229
 20
9.719
 30
0.0
 10
-17.7229
 20
9.719
 30
0.0
 10
-17.7229
 20
-1.3849
 30
0.0
 10
-17.7229
 20
-1.3849
 30
0.0
  0
SPLINE
  5
C4
330
1F
100
AcDbEntity
  8
Vrstva 1
 62
   250
370
    30
100
AcDbSpline
210
0.0
220
0.0
230
1.0
 70
    24
 71
     3
 72
     8
 73
     4
 74
     0
 42
0.000000001
 43
0.0000000001
 40
0.0
 40
0.0
 40
0.0
 40
0.0
 40
1.0
 40
1.0
 40
1.0
 40
1.0
 10
-16.4266
 20
10.9578
 30
0.0
 10
-16.4266
 20
10.9578
 30
0.0
 10
-16.4266
 20
-2.6236
 30
0.0
 10
-16.4266
 20
-2.6236
 30
0.0
  0
SPLINE
  5
C5
330
1F
100
AcDbEntity
  8
Vrstva 1
 62
   250
370
    30
100
AcDbSpline
210
0.0
220
0.0
230
1.0
 70
    24
 71
     3
 72
     8
 73
     4
 74
     0
 42
0.000000001
 43
0.0000000001
 40
0.0
 40
0.0
 40
0.0
 40
0.0
 40
1.0
 40
1.0
 40
1.0
 40
1.0
 10
-16.1579
 20
10.9665
 30
0.0
 10
-16.1579
 20
10.9665
 30
0.0
 10
-16.1579
 20
-2.6321
 30
0.0
 10
-16.1579
 20
-2.6321
 30
0.0
  0
SPLINE
  5
C6
330
1F
100
AcDbEntity
  8
Vrstva 1
 62
   250
370
    30
100
AcDbSpline
210
0.0
220
0.0
230
1.0
 70
    24
 71
     3
 72
     8
 73
     4
 74
     0
 42
0.000000001
 43
0.0000000001
 40
0.0
 40
0.0
 40
0.0
 40
0.0
 40
1.0
 40
1.0
 40
1.0
 40
1.0
 10
-14.355
 20
9.4518
 30
0.0
 10
-14.355
 20
9.4518
 30
0.0
 10
-14.355
 20
-1.1177
 30
0.0
 10
-14.355
 20
-1.1177
 30
0.0
  0
SPLINE
  5
C7
330
1F
100
AcDbEntity
  8
Vrstva 1
 62
   250
370
    30
100
AcDbSpline
210
0.0
220
0.0
230
1.0
 70
    24
 71
     3
 72
     8
 73
     4
 74
     0
 42
0.000000001
 43
0.0000000001
 40
0.0
 40
0.0
 40
0.0
 40
0.0
 40
1.0
 40
1.0
 40
1.0
 40
1.0
 10
-7.4096
 20
10.7698
 30
0.0
 10
-7.4096
 20
10.7698
 30
0.0
 10
-8.4146
 20
9.4518
 30
0.0
 10
-8.4146
 20
9.4518
 30
0.0
  0
SPLINE
  5
C8
330
1F
100
AcDbEntity
  8
Vrstva 1
 62
   250
370
    30
100
AcDbSpline
210
0.0
220
0.0
230
1.0
 70
    24
 71
     3
 72
     8
 73
     4
 74
     0
 42
0.000000001
 43
0.0000000001
 40
0.0
 40
0.0
 40
0.0
 40
0.0
 40
1.0
 40
1.0
 40
1.0
 40
1.0
 10
-14.355
 20
-1.1177
 30
0.0
 10
-14.355
 20
-1.1177
 30
0.0
 10
-16.1579
 20
-2.6321
 30
0.0
 10
-16.1579
 20
-2.6321
 30
0.0
  0
SPLINE
  5
C9
330
1F
100
AcDbEntity
  8
Vrstva 1
 62
   250
370
    30
100
AcDbSpline
210
0.0
220
0.0
230
1.0
 70
    24
 71
     3
 72
     8
 73
     4
 74
     0
 42
0.000000001
 43
0.0000000001
 40
0.0
 40
0.0
 40
0.0
 40
0.0
 40
1.0
 40
1.0
 40
1.0
 40
1.0
 10
-16.1579
 20
10.9665
 30
0.0
 10
-16.1579
 20
10.9665
 30
0.0
 10
-14.355
 20
9.4518
 30
0.0
 10
-14.355
 20
9.4518
 30
0.0
  0
SPLINE
  5
CA
330
1F
100
AcDbEntity
  8
Vrstva 1
 62
   250
370
    30
100
AcDbSpline
210
0.0
220
0.0
230
1.0
 70
    24
 71
     3
 72
     8
 73
     4
 74
     0
 42
0.000000001
 43
0.0000000001
 40
0.0
 40
0.0
 40
0.0
 40
0.0
 40
1.0
 40
1.0
 40
1.0
 40
1.0
 10
-8.4146
 20
-1.1177
 30
0.0
 10
-8.4146
 20
-1.1177
 30
0.0
 10
-7.4096
 20
-2.4353
 30
0.0
 10
-7.4096
 20
-2.4353
 30
0.0
  0
SPLINE
  5
CB
330
1F
100
AcDbEntity
  8
Vrstva 1
 62
   250
370
    30
100
AcDbSpline
210
0.0
220
0.0
230
1.0
 70
    24
 71
     3
 72
     8
 73
     4
 74
     0
 42
0.000000001
 43
0.0000000001
 40
0.0
 40
0.0
 40
0.0
 40
0.0
 40
1.0
 40
1.0
 40
1.0
 40
1.0
 10
-13.35
 20
10.8122
 30
0.0
 10
-13.35
 20
10.8122
 30
0.0
 10
-13.35
 20
-2.478
 30
0.0
 10
-13.35
 20
-2.478
 30
0.0
  0
SPLINE
  5
CC
330
1F
100
AcDbEntity
  8
Vrstva 1
 62
   250
370
    30
100
AcDbSpline
210
0.0
220
0.0
230
1.0
 70
    24
 71
     3
 72
     8
 73
     4
 74
     0
 42
0.000000001
 43
0.0000000001
 40
0.0
 40
0.0
 40
0.0
 40
0.0
 40
1.0
 40
1.0
 40
1.0
 40
1.0
 10
-13.0117
 20
10.9599
 30
0.0
 10
-13.0117
 20
10.9599
 30
0.0
 10
-13.0117
 20
-2.6257
 30
0.0
 10
-13.0117
 20
-2.6257
 30
0.0
  0
SPLINE
  5
CD
330
1F
100
AcDbEntity
  8
Vrstva 1
 62
   250
370
    30
100
AcDbSpline
210
0.0
220
0.0
230
1.0
 70
    24
 71
     3
 72
     8
 73
     4
 74
     0
 42
0.000000001
 43
0.0000000001
 40
0.0
 40
0.0
 40
0.0
 40
0.0
 40
1.0
 40
1.0
 40
1.0
 40
1.0
 10
-4.4394
 20
10.7698
 30
0.0
 10
-4.4394
 20
10.7698
 30
0.0
 10
-5.4444
 20
9.4518
 30
0.0
 10
-5.4444
 20
9.4518
 30
0.0
  0
SPLINE
  5
CE
330
1F
100
AcDbEntity
  8
Vrstva 1
 62
   250
370
    30
100
AcDbSpline
210
0.0
220
0.0
230
1.0
 70
    24
 71
     3
 72
     8
 73
     4
 74
     0
 42
0.000000001
 43
0.0000000001
 40
0.0
 40
0.0
 40
0.0
 40
0.0
 40
1.0
 40
1.0
 40
1.0
 40
1.0
 10
-11.3848
 20
-1.1177
 30
0.0
 10
-11.3848
 20
-1.1177
 30
0.0
 10
-13.0117
 20
-2.6257
 30
0.0
 10
-13.0117
 20
-2.6257
 30
0.0
  0
SPLINE
  5
CF
330
1F
100
AcDbEntity
  8
Vrstva 1
 62
   250
370
    30
100
AcDbSpline
210
0.0
220
0.0
230
1.0
 70
    24
 71
     3
 72
     8
 73
     4
 74
     0
 42
0.000000001
 43
0.0000000001
 40
0.0
 40
0.0
 40
0.0
 40
0.0
 40
1.0
 40
1.0
 40
1.0
 40
1.0
 10
-13.0117
 20
10.9599
 30
0.0
 10
-13.0117
 20
10.9599
 30
0.0
 10
-11.3848
 20
9.4518
 30
0.0
 10
-11.3848
 20
9.4518
 30
0.0
  0
SPLINE
  5
D0
330
1F
100
AcDbEntity
  8
Vrstva 1
 62
   250
370
    30
100
AcDbSpline
210
0.0
220
0.0
230
1.0
 70
    24
 71
     3
 72
     8
 73
     4
 74
     0
 42
0.000000001
 43
0.0000000001
 40
0.0
 40
0.0
 40
0.0
 40
0.0
 40
1.0
 40
1.0
 40
1.0
 40
1.0
 10
-5.4444
 20
-1.1177
 30
0.0
 10
-5.4444
 20
-1.1177
 30
0.0
 10
-4.4394
 20
-2.4353
 30
0.0
 10
-4.4394
 20
-2.4353
 30
0.0
  0
SPLINE
  5
D1
330
1F
100
AcDbEntity
  8
Vrstva 1
 62
   250
370
    30
100
AcDbSpline
210
0.0
220
0.0
230
1.0
 70
    24
 71
     3
 72
     8
 73
     4
 74
     0
 42
0.000000001
 43
0.0000000001
 40
0.0
 40
0.0
 40
0.0
 40
0.0
 40
1.0
 40
1.0
 40
1.0
 40
1.0
 10
-11.3848
 20
9.4518
 30
0.0
 10
-11.3848
 20
9.4518
 30
0.0
 10
-11.3848
 20
-1.1177
 30
0.0
 10
-11.3848
 20
-1.1177
 30
0.0
  0
SPLINE
  5
D2
330
1F
100
AcDbEntity
  8
Vrstva 1
 62
   250
370
    30
100
AcDbSpline
210
0.0
220
0.0
230
1.0
 70
    24
 71
     3
 72
     8
 73
     4
 74
     0
 42
0.000000001
 43
0.0000000001
 40
0.0
 40
0.0
 40
0.0
 40
0.0
 40
1.0
 40
1.0
 40
1.0
 40
1.0
 10
-10.3798
 20
10.8122
 30
0.0
 10
-10.3798
 20
10.8122
 30
0.0
 10
-10.3798
 20
-2.478
 30
0.0
 10
-10.3798
 20
-2.478
 30
0.0
  0
SPLINE
  5
D3
330
1F
100
AcDbEntity
  8
Vrstva 1
 62
   250
370
    30
100
AcDbSpline
210
0.0
220
0.0
230
1.0
 70
    24
 71
     3
 72
     8
 73
     4
 74
     0
 42
0.000000001
 43
0.0000000001
 40
0.0
 40
0.0
 40
0.0
 40
0.0
 40
1.0
 40
1.0
 40
1.0
 40
1.0
 10
-1.4692
 20
10.7698
 30
0.0
 10
-1.4692
 20
10.7698
 30
0.0
 10
-2.4742
 20
9.4518
 30
0.0
 10
-2.4742
 20
9.4518
 30
0.0
  0
SPLINE
  5
D4
330
1F
100
AcDbEntity
  8
Vrstva 1
 62
   250
370
    30
100
AcDbSpline
210
0.0
220
0.0
230
1.0
 70
    24
 71
     3
 72
     8
 73
     4
 74
     0
 42
0.000000001
 43
0.0000000001
 40
0.0
 40
0.0
 40
0.0
 40
0.0
 40
1.0
 40
1.0
 40
1.0
 40
1.0
 10
-8.4146
 20
-1.1177
 30
0.0
 10
-8.4146
 20
-1.1177
 30
0.0
 10
-10.0414
 20
-2.6257
 30
0.0
 10
-10.0414
 20
-2.6257
 30
0.0
  0
SPLINE
  5
D5
330
1F
100
AcDbEntity
  8
Vrstva 1
 62
   250
370
    30
100
AcDbSpline
210
0.0
220
0.0
230
1.0
 70
    24
 71
     3
 72
     8
 73
     4
 74
     0
 42
0.000000001
 43
0.0000000001
 40
0.0
 40
0.0
 40
0.0
 40
0.0
 40
1.0
 40
1.0
 40
1.0
 40
1.0
 10
-10.0414
 20
10.9599
 30
0.0
 10
-10.0414
 20
10.9599
 30
0.0
 10
-8.4146
 20
9.4518
 30
0.0
 10
-8.4146
 20
9.4518
 30
0.0
  0
SPLINE
  5
D6
330
1F
100
AcDbEntity
  8
Vrstva 1
 62
   250
370
    30
100
AcDbSpline
210
0.0
220
0.0
230
1.0
 70
    24
 71
     3
 72
     8
 73
     4
 74
     0
 42
0.000000001
 43
0.0000000001
 40
0.0
 40
0.0
 40
0.0
 40
0.0
 40
1.0
 40
1.0
 40
1.0
 40
1.0
 10
-2.4742
 20
-1.1177
 30
0.0
 10
-2.4742
 20
-1.1177
 30
0.0
 10
-1.4692
 20
-2.4353
 30
0.0
 10
-1.4692
 20
-2.4353
 30
0.0
  0
SPLINE
  5
D7
330
1F
100
AcDbEntity
  8
Vrstva 1
 62
   250
370
    30
100
AcDbSpline
210
0.0
220
0.0
230
1.0
 70
    24
 71
     3
 72
     8
 73
     4
 74
     0
 42
0.000000001
 43
0.0000000001
 40
0.0
 40
0.0
 40
0.0
 40
0.0
 40
1.0
 40
1.0
 40
1.0
 40
1.0
 10
-10.0414
 20
10.9599
 30
0.0
 10
-10.0414
 20
10.9599
 30
0.0
 10
-10.0414
 20
-2.6257
 30
0.0
 10
-10.0414
 20
-2.6257
 30
0.0
  0
SPLINE
  5
D8
330
1F
100
AcDbEntity
  8
Vrstva 1
 62
   250
370
    30
100
AcDbSpline
210
0.0
220
0.0
230
1.0
 70
    24
 71
     3
 72
     8
 73
     4
 74
     0
 42
0.000000001
 43
0.0000000001
 40
0.0
 40
0.0
 40
0.0
 40
0.0
 40
1.0
 40
1.0
 40
1.0
 40
1.0
 10
-5.4444
 20
-1.1177
 30
0.0
 10
-5.4444
 20
-1.1177
 30
0.0
 10
-7.0712
 20
-2.6257
 30
0.0
 10
-7.0712
 20
-2.6257
 30
0.0
  0
SPLINE
  5
D9
330
1F
100
AcDbEntity
  8
Vrstva 1
 62
   250
370
    30
100
AcDbSpline
210
0.0
220
0.0
230
1.0
 70
    24
 71
     3
 72
     8
 73
     4
 74
     0
 42
0.000000001
 43
0.0000000001
 40
0.0
 40
0.0
 40
0.0
 40
0.0
 40
1.0
 40
1.0
 40
1.0
 40
1.0
 10
-7.0712
 20
10.9599
 30
0.0
 10
-7.0712
 20
10.9599
 30
0.0
 10
-5.4444
 20
9.4518
 30
0.0
 10
-5.4444
 20
9.4518
 30
0.0
  0
SPLINE
  5
DA
330
1F
100
AcDbEntity
  8
Vrstva 1
 62
   250
370
    30
100
AcDbSpline
210
0.0
220
0.0
230
1.0
 70
    24
 71
     3
 72
     8
 73
     4
 74
     0
 42
0.000000001
 43
0.0000000001
 40
0.0
 40
0.0
 40
0.0
 40
0.0
 40
1.0
 40
1.0
 40
1.0
 40
1.0
 10
-8.4146
 20
9.4518
 30
0.0
 10
-8.4146
 20
9.4518
 30
0.0
 10
-8.4146
 20
-1.1177
 30
0.0
 10
-8.4146
 20
-1.1177
 30
0.0
  0
SPLINE
  5
DB
330
1F
100
AcDbEntity
  8
Vrstva 1
 62
   250
370
    30
100
AcDbSpline
210
0.0
220
0.0
230
1.0
 70
    24
 71
     3
 72
     8
 73
     4
 74
     0
 42
0.000000001
 43
0.0000000001
 40
0.0
 40
0.0
 40
0.0
 40
0.0
 40
1.0
 40
1.0
 40
1.0
 40
1.0
 10
-7.4096
 20
10.8122
 30
0.0
 10
-7.4096
 20
10.8122
 30
0.0
 10
-7.4096
 20
-2.478
 30
0.0
 10
-7.4096
 20
-2.478
 30
0.0
  0
SPLINE
  5
DC
330
1F
100
AcDbEntity
  8
Vrstva 1
 62
   250
370
    30
100
AcDbSpline
210
0.0
220
0.0
230
1.0
 70
    24
 71
     3
 72
     8
 73
     4
 74
     0
 42
0.000000001
 43
0.0000000001
 40
0.0
 40
0.0
 40
0.0
 40
0.0
 40
1.0
 40
1.0
 40
1.0
 40
1.0
 10
-7.0712
 20
10.9599
 30
0.0
 10
-7.0712
 20
10.9599
 30
0.0
 10
-7.0712
 20
-2.6257
 30
0.0
 10
-7.0712
 20
-2.6257
 30
0.0
  0
SPLINE
  5
DD
330
1F
100
AcDbEntity
  8
Vrstva 1
 62
   250
370
    30
100
AcDbSpline
210
0.0
220
0.0
230
1.0
 70
    24
 71
     3
 72
     8
 73
     4
 74
     0
 42
0.000000001
 43
0.0000000001
 40
0.0
 40
0.0
 40
0.0
 40
0.0
 40
1.0
 40
1.0
 40
1.0
 40
1.0
 10
-5.4444
 20
9.4518
 30
0.0
 10
-5.4444
 20
9.4518
 30
0.0
 10
-5.4444
 20
-1.1177
 30
0.0
 10
-5.4444
 20
-1.1177
 30
0.0
  0
SPLINE
  5
DE
330
1F
100
AcDbEntity
  8
Vrstva 1
 62
   250
370
    30
100
AcDbSpline
210
0.0
220
0.0
230
1.0
 70
    24
 71
     3
 72
     8
 73
     4
 74
     0
 42
0.000000001
 43
0.0000000001
 40
0.0
 40
0.0
 40
0.0
 40
0.0
 40
1.0
 40
1.0
 40
1.0
 40
1.0
 10
-2.4742
 20
-1.1177
 30
0.0
 10
-2.4742
 20
-1.1177
 30
0.0
 10
-4.101
 20
-2.6257
 30
0.0
 10
-4.101
 20
-2.6257
 30
0.0
  0
SPLINE
  5
DF
330
1F
100
AcDbEntity
  8
Vrstva 1
 62
   250
370
    30
100
AcDbSpline
210
0.0
220
0.0
230
1.0
 70
    24
 71
     3
 72
     8
 73
     4
 74
     0
 42
0.000000001
 43
0.0000000001
 40
0.0
 40
0.0
 40
0.0
 40
0.0
 40
1.0
 40
1.0
 40
1.0
 40
1.0
 10
-4.101
 20
10.9599
 30
0.0
 10
-4.101
 20
10.9599
 30
0.0
 10
-2.4742
 20
9.4518
 30
0.0
 10
-2.4742
 20
9.4518
 30
0.0
  0
SPLINE
  5
E0
330
1F
100
AcDbEntity
  8
Vrstva 1
 62
   250
370
    30
100
AcDbSpline
210
0.0
220
0.0
230
1.0
 70
    24
 71
     3
 72
     8
 73
     4
 74
     0
 42
0.000000001
 43
0.0000000001
 40
0.0
 40
0.0
 40
0.0
 40
0.0
 40
1.0
 40
1.0
 40
1.0
 40
1.0
 10
-4.4394
 20
10.8122
 30
0.0
 10
-4.4394
 20
10.8122
 30
0.0
 10
-4.4394
 20
-2.478
 30
0.0
 10
-4.4394
 20
-2.478
 30
0.0
  0
SPLINE
  5
E1
330
1F
100
AcDbEntity
  8
Vrstva 1
 62
   250
370
    30
100
AcDbSpline
210
0.0
220
0.0
230
1.0
 70
    24
 71
     3
 72
     8
 73
     4
 74
     0
 42
0.000000001
 43
0.0000000001
 40
0.0
 40
0.0
 40
0.0
 40
0.0
 40
1.0
 40
1.0
 40
1.0
 40
1.0
 10
-4.101
 20
10.9599
 30
0.0
 10
-4.101
 20
10.9599
 30
0.0
 10
-4.101
 20
-2.6257
 30
0.0
 10
-4.101
 20
-2.6257
 30
0.0
  0
SPLINE
  5
E2
330
1F
100
AcDbEntity
  8
Vrstva 1
 62
   250
370
    30
100
AcDbSpline
210
0.0
220
0.0
230
1.0
 70
    24
 71
     3
 72
     8
 73
     4
 74
     0
 42
0.000000001
 43
0.0000000001
 40
0.0
 40
0.0
 40
0.0
 40
0.0
 40
1.0
 40
1.0
 40
1.0
 40
1.0
 10
-0.6434
 20
-2.1737
 30
0.0
 10
-0.6434
 20
-2.1737
 30
0.0
 10
-1.1309
 20
-2.6257
 30
0.0
 10
-1.1309
 20
-2.6257
 30
0.0
  0
SPLINE
  5
E3
330
1F
100
AcDbEntity
  8
Vrstva 1
 62
   250
370
    30
100
AcDbSpline
210
0.0
220
0.0
230
1.0
 70
    24
 71
     3
 72
     8
 73
     4
 74
     0
 42
0.000000001
 43
0.0000000001
 40
0.0
 40
0.0
 40
0.0
 40
0.0
 40
1.0
 40
1.0
 40
1.0
 40
1.0
 10
-1.1309
 20
10.9599
 30
0.0
 10
-1.1309
 20
10.9599
 30
0.0
 10
-0.6434
 20
10.508
 30
0.0
 10
-0.6434
 20
10.508
 30
0.0
  0
SPLINE
  5
E4
330
1F
100
AcDbEntity
  8
Vrstva 1
 62
   250
370
    30
100
AcDbSpline
210
0.0
220
0.0
230
1.0
 70
    24
 71
     3
 72
     8
 73
     4
 74
     0
 42
0.000000001
 43
0.0000000001
 40
0.0
 40
0.0
 40
0.0
 40
0.0
 40
1.0
 40
1.0
 40
1.0
 40
1.0
 10
-2.4742
 20
9.4518
 30
0.0
 10
-2.4742
 20
9.4518
 30
0.0
 10
-2.4742
 20
-1.1177
 30
0.0
 10
-2.4742
 20
-1.1177
 30
0.0
  0
SPLINE
  5
E5
330
1F
100
AcDbEntity
  8
Vrstva 1
 62
   250
370
    30
100
AcDbSpline
210
0.0
220
0.0
230
1.0
 70
    24
 71
     3
 72
     8
 73
     4
 74
     0
 42
0.000000001
 43
0.0000000001
 40
0.0
 40
0.0
 40
0.0
 40
0.0
 40
1.0
 40
1.0
 40
1.0
 40
1.0
 10
-1.4692
 20
10.8122
 30
0.0
 10
-1.4692
 20
10.8122
 30
0.0
 10
-1.4692
 20
-2.478
 30
0.0
 10
-1.4692
 20
-2.478
 30
0.0
  0
SPLINE
  5
E6
330
1F
100
AcDbEntity
  8
Vrstva 1
 62
   250
370
    30
100
AcDbSpline
210
0.0
220
0.0
230
1.0
 70
    24
 71
     3
 72
     8
 73
     4
 74
     0
 42
0.000000001
 43
0.0000000001
 40
0.0
 40
0.0
 40
0.0
 40
0.0
 40
1.0
 40
1.0
 40
1.0
 40
1.0
 10
-1.1309
 20
10.9599
 30
0.0
 10
-1.1309
 20
10.9599
 30
0.0
 10
-1.1309
 20
-2.6257
 30
0.0
 10
-1.1309
 20
-2.6257
 30
0.0
  0
SPLINE
  5
E7
330
1F
100
AcDbEntity
  8
Vrstva 1
 62
   250
370
    30
100
AcDbSpline
210
0.0
220
0.0
230
1.0
 70
    24
 71
     3
 72
     8
 73
     4
 74
     0
 42
0.000000001
 43
0.0000000001
 40
0.0
 40
0.0
 40
0.0
 40
0.0
 40
1.0
 40
1.0
 40
1.0
 40
1.0
 10
2.2199
 20
9.4518
 30
0.0
 10
2.2199
 20
9.4518
 30
0.0
 10
2.2199
 20
-1.1177
 30
0.0
 10
2.2199
 20
-1.1177
 30
0.0
  0
SPLINE
  5
E8
330
1F
100
AcDbEntity
  8
Vrstva 1
 62
   250
370
    30
100
AcDbSpline
210
0.0
220
0.0
230
1.0
 70
    24
 71
     3
 72
     8
 73
     4
 74
     0
 42
0.000000001
 43
0.0000000001
 40
0.0
 40
0.0
 40
0.0
 40
0.0
 40
1.0
 40
1.0
 40
1.0
 40
1.0
 10
3.2249
 20
10.8122
 30
0.0
 10
3.2249
 20
10.8122
 30
0.0
 10
3.2249
 20
-2.478
 30
0.0
 10
3.2249
 20
-2.478
 30
0.0
  0
SPLINE
  5
E9
330
1F
100
AcDbEntity
  8
Vrstva 1
 62
   250
370
    30
100
AcDbSpline
210
0.0
220
0.0
230
1.0
 70
    24
 71
     3
 72
     8
 73
     4
 74
     0
 42
0.000000001
 43
0.0000000001
 40
0.0
 40
0.0
 40
0.0
 40
0.0
 40
1.0
 40
1.0
 40
1.0
 40
1.0
 10
3.5632
 20
10.9599
 30
0.0
 10
3.5632
 20
10.9599
 30
0.0
 10
3.5632
 20
-2.6257
 30
0.0
 10
3.5632
 20
-2.6257
 30
0.0
  0
SPLINE
  5
EA
330
1F
100
AcDbEntity
  8
Vrstva 1
 62
   250
370
    30
100
AcDbSpline
210
0.0
220
0.0
230
1.0
 70
    24
 71
     3
 72
     8
 73
     4
 74
     0
 42
0.000000001
 43
0.0000000001
 40
0.0
 40
0.0
 40
0.0
 40
0.0
 40
1.0
 40
1.0
 40
1.0
 40
1.0
 10
5.1901
 20
9.4518
 30
0.0
 10
5.1901
 20
9.4518
 30
0.0
 10
5.1901
 20
-1.1177
 30
0.0
 10
5.1901
 20
-1.1177
 30
0.0
  0
SPLINE
  5
EB
330
1F
100
AcDbEntity
  8
Vrstva 1
 62
   250
370
    30
100
AcDbSpline
210
0.0
220
0.0
230
1.0
 70
    24
 71
     3
 72
     8
 73
     4
 74
     0
 42
0.000000001
 43
0.0000000001
 40
0.0
 40
0.0
 40
0.0
 40
0.0
 40
1.0
 40
1.0
 40
1.0
 40
1.0
 10
3.2249
 20
10.7698
 30
0.0
 10
3.2249
 20
10.7698
 30
0.0
 10
2.2199
 20
9.4518
 30
0.0
 10
2.2199
 20
9.4518
 30
0.0
  0
SPLINE
  5
EC
330
1F
100
AcDbEntity
  8
Vrstva 1
 62
   250
370
    30
100
AcDbSpline
210
0.0
220
0.0
230
1.0
 70
    24
 71
     3
 72
     8
 73
     4
 74
     0
 42
0.000000001
 43
0.0000000001
 40
0.0
 40
0.0
 40
0.0
 40
0.0
 40
1.0
 40
1.0
 40
1.0
 40
1.0
 10
2.2199
 20
-1.1177
 30
0.0
 10
2.2199
 20
-1.1177
 30
0.0
 10
3.2249
 20
-2.4353
 30
0.0
 10
3.2249
 20
-2.4353
 30
0.0
  0
SPLINE
  5
ED
330
1F
100
AcDbEntity
  8
Vrstva 1
 62
   250
370
    30
100
AcDbSpline
210
0.0
220
0.0
230
1.0
 70
    24
 71
     3
 72
     8
 73
     4
 74
     0
 42
0.000000001
 43
0.0000000001
 40
0.0
 40
0.0
 40
0.0
 40
0.0
 40
1.0
 40
1.0
 40
1.0
 40
1.0
 10
6.1951
 20
10.8122
 30
0.0
 10
6.1951
 20
10.8122
 30
0.0
 10
6.1951
 20
-2.478
 30
0.0
 10
6.1951
 20
-2.478
 30
0.0
  0
SPLINE
  5
EE
330
1F
100
AcDbEntity
  8
Vrstva 1
 62
   250
370
    30
100
AcDbSpline
210
0.0
220
0.0
230
1.0
 70
    24
 71
     3
 72
     8
 73
     4
 74
     0
 42
0.000000001
 43
0.0000000001
 40
0.0
 40
0.0
 40
0.0
 40
0.0
 40
1.0
 40
1.0
 40
1.0
 40
1.0
 10
6.5334
 20
10.9599
 30
0.0
 10
6.5334
 20
10.9599
 30
0.0
 10
6.5334
 20
-2.6257
 30
0.0
 10
6.5334
 20
-2.6257
 30
0.0
  0
SPLINE
  5
EF
330
1F
100
AcDbEntity
  8
Vrstva 1
 62
   250
370
    30
100
AcDbSpline
210
0.0
220
0.0
230
1.0
 70
    24
 71
     3
 72
     8
 73
     4
 74
     0
 42
0.000000001
 43
0.0000000001
 40
0.0
 40
0.0
 40
0.0
 40
0.0
 40
1.0
 40
1.0
 40
1.0
 40
1.0
 10
6.1951
 20
10.7698
 30
0.0
 10
6.1951
 20
10.7698
 30
0.0
 10
5.1901
 20
9.4518
 30
0.0
 10
5.1901
 20
9.4518
 30
0.0
  0
SPLINE
  5
F0
330
1F
100
AcDbEntity
  8
Vrstva 1
 62
   250
370
    30
100
AcDbSpline
210
0.0
220
0.0
230
1.0
 70
    24
 71
     3
 72
     8
 73
     4
 74
     0
 42
0.000000001
 43
0.0000000001
 40
0.0
 40
0.0
 40
0.0
 40
0.0
 40
1.0
 40
1.0
 40
1.0
 40
1.0
 10
5.1901
 20
-1.1177
 30
0.0
 10
5.1901
 20
-1.1177
 30
0.0
 10
6.1951
 20
-2.4353
 30
0.0
 10
6.1951
 20
-2.4353
 30
0.0
  0
SPLINE
  5
F1
330
1F
100
AcDbEntity
  8
Vrstva 1
 62
   250
370
    30
100
AcDbSpline
210
0.0
220
0.0
230
1.0
 70
    24
 71
     3
 72
     8
 73
     4
 74
     0
 42
0.000000001
 43
0.0000000001
 40
0.0
 40
0.0
 40
0.0
 40
0.0
 40
1.0
 40
1.0
 40
1.0
 40
1.0
 10
8.1603
 20
9.4518
 30
0.0
 10
8.1603
 20
9.4518
 30
0.0
 10
8.1603
 20
-1.1177
 30
0.0
 10
8.1603
 20
-1.1177
 30
0.0
  0
SPLINE
  5
F2
330
1F
100
AcDbEntity
  8
Vrstva 1
 62
   250
370
    30
100
AcDbSpline
210
0.0
220
0.0
230
1.0
 70
    24
 71
     3
 72
     8
 73
     4
 74
     0
 42
0.000000001
 43
0.0000000001
 40
0.0
 40
0.0
 40
0.0
 40
0.0
 40
1.0
 40
1.0
 40
1.0
 40
1.0
 10
9.1653
 20
10.8122
 30
0.0
 10
9.1653
 20
10.8122
 30
0.0
 10
9.1653
 20
-2.478
 30
0.0
 10
9.1653
 20
-2.478
 30
0.0
  0
SPLINE
  5
F3
330
1F
100
AcDbEntity
  8
Vrstva 1
 62
   250
370
    30
100
AcDbSpline
210
0.0
220
0.0
230
1.0
 70
    24
 71
     3
 72
     8
 73
     4
 74
     0
 42
0.000000001
 43
0.0000000001
 40
0.0
 40
0.0
 40
0.0
 40
0.0
 40
1.0
 40
1.0
 40
1.0
 40
1.0
 10
9.5035
 20
10.9599
 30
0.0
 10
9.5035
 20
10.9599
 30
0.0
 10
9.5035
 20
-2.6257
 30
0.0
 10
9.5035
 20
-2.6257
 30
0.0
  0
SPLINE
  5
F4
330
1F
100
AcDbEntity
  8
Vrstva 1
 62
   250
370
    30
100
AcDbSpline
210
0.0
220
0.0
230
1.0
 70
    24
 71
     3
 72
     8
 73
     4
 74
     0
 42
0.000000001
 43
0.0000000001
 40
0.0
 40
0.0
 40
0.0
 40
0.0
 40
1.0
 40
1.0
 40
1.0
 40
1.0
 10
9.1653
 20
10.7698
 30
0.0
 10
9.1653
 20
10.7698
 30
0.0
 10
8.1603
 20
9.4518
 30
0.0
 10
8.1603
 20
9.4518
 30
0.0
  0
SPLINE
  5
F5
330
1F
100
AcDbEntity
  8
Vrstva 1
 62
   250
370
    30
100
AcDbSpline
210
0.0
220
0.0
230
1.0
 70
    24
 71
     3
 72
     8
 73
     4
 74
     0
 42
0.000000001
 43
0.0000000001
 40
0.0
 40
0.0
 40
0.0
 40
0.0
 40
1.0
 40
1.0
 40
1.0
 40
1.0
 10
8.1603
 20
-1.1177
 30
0.0
 10
8.1603
 20
-1.1177
 30
0.0
 10
9.1653
 20
-2.4353
 30
0.0
 10
9.1653
 20
-2.4353
 30
0.0
  0
SPLINE
  5
F6
330
1F
100
AcDbEntity
  8
Vrstva 1
 62
   250
370
    30
100
AcDbSpline
210
0.0
220
0.0
230
1.0
 70
    24
 71
     3
 72
     8
 73
     4
 74
     0
 42
0.000000001
 43
0.0000000001
 40
0.0
 40
0.0
 40
0.0
 40
0.0
 40
1.0
 40
1.0
 40
1.0
 40
1.0
 10
11.1305
 20
9.4518
 30
0.0
 10
11.1305
 20
9.4518
 30
0.0
 10
11.1305
 20
-1.1177
 30
0.0
 10
11.1305
 20
-1.1177
 30
0.0
  0
SPLINE
  5
F7
330
1F
100
AcDbEntity
  8
Vrstva 1
 62
   250
370
    30
100
AcDbSpline
210
0.0
220
0.0
230
1.0
 70
    24
 71
     3
 72
     8
 73
     4
 74
     0
 42
0.000000001
 43
0.0000000001
 40
0.0
 40
0.0
 40
0.0
 40
0.0
 40
1.0
 40
1.0
 40
1.0
 40
1.0
 10
12.1355
 20
10.7698
 30
0.0
 10
12.1355
 20
10.7698
 30
0.0
 10
11.1305
 20
9.4518
 30
0.0
 10
11.1305
 20
9.4518
 30
0.0
  0
SPLINE
  5
F8
330
1F
100
AcDbEntity
  8
Vrstva 1
 62
   250
370
    30
100
AcDbSpline
210
0.0
220
0.0
230
1.0
 70
    24
 71
     3
 72
     8
 73
     4
 74
     0
 42
0.000000001
 43
0.0000000001
 40
0.0
 40
0.0
 40
0.0
 40
0.0
 40
1.0
 40
1.0
 40
1.0
 40
1.0
 10
11.1305
 20
-1.1177
 30
0.0
 10
11.1305
 20
-1.1177
 30
0.0
 10
12.1355
 20
-2.4353
 30
0.0
 10
12.1355
 20
-2.4353
 30
0.0
  0
SPLINE
  5
F9
330
1F
100
AcDbEntity
  8
Vrstva 1
 62
   250
370
    30
100
AcDbSpline
210
0.0
220
0.0
230
1.0
 70
    24
 71
     3
 72
     8
 73
     4
 74
     0
 42
0.000000001
 43
0.0000000001
 40
0.0
 40
0.0
 40
0.0
 40
0.0
 40
1.0
 40
1.0
 40
1.0
 40
1.0
 10
12.1355
 20
10.8122
 30
0.0
 10
12.1355
 20
10.8122
 30
0.0
 10
12.1355
 20
-2.478
 30
0.0
 10
12.1355
 20
-2.478
 30
0.0
  0
SPLINE
  5
FA
330
1F
100
AcDbEntity
  8
Vrstva 1
 62
   250
370
    30
100
AcDbSpline
210
0.0
220
0.0
230
1.0
 70
    24
 71
     3
 72
     8
 73
     4
 74
     0
 42
0.000000001
 43
0.0000000001
 40
0.0
 40
0.0
 40
0.0
 40
0.0
 40
1.0
 40
1.0
 40
1.0
 40
1.0
 10
12.4737
 20
10.9599
 30
0.0
 10
12.4737
 20
10.9599
 30
0.0
 10
12.4737
 20
-2.6257
 30
0.0
 10
12.4737
 20
-2.6257
 30
0.0
  0
SPLINE
  5
FB
330
1F
100
AcDbEntity
  8
Vrstva 1
 62
   250
370
    30
100
AcDbSpline
210
0.0
220
0.0
230
1.0
 70
    24
 71
     3
 72
     8
 73
     4
 74
     0
 42
0.000000001
 43
0.0000000001
 40
0.0
 40
0.0
 40
0.0
 40
0.0
 40
1.0
 40
1.0
 40
1.0
 40
1.0
 10
14.1007
 20
9.4518
 30
0.0
 10
14.1007
 20
9.4518
 30
0.0
 10
14.1007
 20
-1.1177
 30
0.0
 10
14.1007
 20
-1.1177
 30
0.0
  0
SPLINE
  5
FC
330
1F
100
AcDbEntity
  8
Vrstva 1
 62
   250
370
    30
100
AcDbSpline
210
0.0
220
0.0
230
1.0
 70
    24
 71
     3
 72
     8
 73
     4
 74
     0
 42
0.000000001
 43
0.0000000001
 40
0.0
 40
0.0
 40
0.0
 40
0.0
 40
1.0
 40
1.0
 40
1.0
 40
1.0
 10
15.106
 20
10.8103
 30
0.0
 10
15.106
 20
10.8103
 30
0.0
 10
15.106
 20
-2.4761
 30
0.0
 10
15.106
 20
-2.4761
 30
0.0
  0
SPLINE
  5
FD
330
1F
100
AcDbEntity
  8
Vrstva 1
 62
   250
370
    30
100
AcDbSpline
210
0.0
220
0.0
230
1.0
 70
    24
 71
     3
 72
     8
 73
     4
 74
     0
 42
0.000000001
 43
0.0000000001
 40
0.0
 40
0.0
 40
0.0
 40
0.0
 40
1.0
 40
1.0
 40
1.0
 40
1.0
 10
15.106
 20
10.7701
 30
0.0
 10
15.106
 20
10.7701
 30
0.0
 10
14.1007
 20
9.4518
 30
0.0
 10
14.1007
 20
9.4518
 30
0.0
  0
SPLINE
  5
FE
330
1F
100
AcDbEntity
  8
Vrstva 1
 62
   250
370
    30
100
AcDbSpline
210
0.0
220
0.0
230
1.0
 70
    24
 71
     3
 72
     8
 73
     4
 74
     0
 42
0.000000001
 43
0.0000000001
 40
0.0
 40
0.0
 40
0.0
 40
0.0
 40
1.0
 40
1.0
 40
1.0
 40
1.0
 10
2.2199
 20
-1.1177
 30
0.0
 10
2.2199
 20
-1.1177
 30
0.0
 10
1.3704
 20
-1.9052
 30
0.0
 10
1.3704
 20
-1.9052
 30
0.0
  0
SPLINE
  5
FF
330
1F
100
AcDbEntity
  8
Vrstva 1
 62
   250
370
    30
100
AcDbSpline
210
0.0
220
0.0
230
1.0
 70
    24
 71
     3
 72
     8
 73
     4
 74
     0
 42
0.000000001
 43
0.0000000001
 40
0.0
 40
0.0
 40
0.0
 40
0.0
 40
1.0
 40
1.0
 40
1.0
 40
1.0
 10
1.3704
 20
10.2394
 30
0.0
 10
1.3704
 20
10.2394
 30
0.0
 10
2.2199
 20
9.4518
 30
0.0
 10
2.2199
 20
9.4518
 30
0.0
  0
SPLINE
  5
100
330
1F
100
AcDbEntity
  8
Vrstva 1
 62
   250
370
    30
100
AcDbSpline
210
0.0
220
0.0
230
1.0
 70
    24
 71
     3
 72
     8
 73
     4
 74
     0
 42
0.000000001
 43
0.0000000001
 40
0.0
 40
0.0
 40
0.0
 40
0.0
 40
1.0
 40
1.0
 40
1.0
 40
1.0
 10
14.1007
 20
-1.1177
 30
0.0
 10
14.1007
 20
-1.1177
 30
0.0
 10
15.106
 20
-2.4359
 30
0.0
 10
15.106
 20
-2.4359
 30
0.0
  0
SPLINE
  5
101
330
1F
100
AcDbEntity
  8
Vrstva 1
 62
   250
370
    30
100
AcDbSpline
210
0.0
220
0.0
230
1.0
 70
    24
 71
     3
 72
     8
 73
     4
 74
     0
 42
0.000000001
 43
0.0000000001
 40
0.0
 40
0.0
 40
0.0
 40
0.0
 40
1.0
 40
1.0
 40
1.0
 40
1.0
 10
15.4085
 20
10.9846
 30
0.0
 10
15.4085
 20
10.9846
 30
0.0
 10
15.4085
 20
-2.6502
 30
0.0
 10
15.4085
 20
-2.6502
 30
0.0
  0
SPLINE
  5
102
330
1F
100
AcDbEntity
  8
Vrstva 1
 62
   250
370
    30
100
AcDbSpline
210
0.0
220
0.0
230
1.0
 70
    24
 71
     3
 72
     8
 73
     4
 74
     0
 42
0.000000001
 43
0.0000000001
 40
0.0
 40
0.0
 40
0.0
 40
0.0
 40
1.0
 40
1.0
 40
1.0
 40
1.0
 10
5.1901
 20
-1.1177
 30
0.0
 10
5.1901
 20
-1.1177
 30
0.0
 10
3.5632
 20
-2.6257
 30
0.0
 10
3.5632
 20
-2.6257
 30
0.0
  0
SPLINE
  5
103
330
1F
100
AcDbEntity
  8
Vrstva 1
 62
   250
370
    30
100
AcDbSpline
210
0.0
220
0.0
230
1.0
 70
    24
 71
     3
 72
     8
 73
     4
 74
     0
 42
0.000000001
 43
0.0000000001
 40
0.0
 40
0.0
 40
0.0
 40
0.0
 40
1.0
 40
1.0
 40
1.0
 40
1.0
 10
3.5632
 20
10.9599
 30
0.0
 10
3.5632
 20
10.9599
 30
0.0
 10
5.1901
 20
9.4518
 30
0.0
 10
5.1901
 20
9.4518
 30
0.0
  0
SPLINE
  5
104
330
1F
100
AcDbEntity
  8
Vrstva 1
 62
   250
370
    30
100
AcDbSpline
210
0.0
220
0.0
230
1.0
 70
    24
 71
     3
 72
     8
 73
     4
 74
     0
 42
0.000000001
 43
0.0000000001
 40
0.0
 40
0.0
 40
0.0
 40
0.0
 40
1.0
 40
1.0
 40
1.0
 40
1.0
 10
17.7973
 20
9.5997
 30
0.0
 10
17.7973
 20
9.5997
 30
0.0
 10
17.7973
 20
-1.2656
 30
0.0
 10
17.7973
 20
-1.2656
 30
0.0
  0
SPLINE
  5
105
330
1F
100
AcDbEntity
  8
Vrstva 1
 62
   250
370
    30
100
AcDbSpline
210
0.0
220
0.0
230
1.0
 70
    24
 71
     3
 72
     8
 73
     4
 74
     0
 42
0.000000001
 43
0.0000000001
 40
0.0
 40
0.0
 40
0.0
 40
0.0
 40
1.0
 40
1.0
 40
1.0
 40
1.0
 10
18.2183
 20
9.4866
 30
0.0
 10
18.2183
 20
9.4866
 30
0.0
 10
18.2183
 20
-1.1525
 30
0.0
 10
18.2183
 20
-1.1525
 30
0.0
  0
SPLINE
  5
106
330
1F
100
AcDbEntity
  8
Vrstva 1
 62
   250
370
    30
100
AcDbSpline
210
0.0
220
0.0
230
1.0
 70
    24
 71
     3
 72
     8
 73
     4
 74
     0
 42
0.000000001
 43
0.0000000001
 40
0.0
 40
0.0
 40
0.0
 40
0.0
 40
1.0
 40
1.0
 40
1.0
 40
1.0
 10
19.5261
 20
9.7253
 30
0.0
 10
19.5261
 20
9.7253
 30
0.0
 10
19.4328
 20
9.5253
 30
0.0
 10
19.4328
 20
9.5253
 30
0.0
  0
SPLINE
  5
107
330
1F
100
AcDbEntity
  8
Vrstva 1
 62
   250
370
    30
100
AcDbSpline
210
0.0
220
0.0
230
1.0
 70
    24
 71
     3
 72
     8
 73
     4
 74
     0
 42
0.000000001
 43
0.0000000001
 40
0.0
 40
0.0
 40
0.0
 40
0.0
 40
1.0
 40
1.0
 40
1.0
 40
1.0
 10
8.1603
 20
-1.1177
 30
0.0
 10
8.1603
 20
-1.1177
 30
0.0
 10
6.5334
 20
-2.6257
 30
0.0
 10
6.5334
 20
-2.6257
 30
0.0
  0
SPLINE
  5
108
330
1F
100
AcDbEntity
  8
Vrstva 1
 62
   250
370
    30
100
AcDbSpline
210
0.0
220
0.0
230
1.0
 70
    24
 71
     3
 72
     8
 73
     4
 74
     0
 42
0.000000001
 43
0.0000000001
 40
0.0
 40
0.0
 40
0.0
 40
0.0
 40
1.0
 40
1.0
 40
1.0
 40
1.0
 10
6.5334
 20
10.9599
 30
0.0
 10
6.5334
 20
10.9599
 30
0.0
 10
8.1603
 20
9.4518
 30
0.0
 10
8.1603
 20
9.4518
 30
0.0
  0
SPLINE
  5
109
330
1F
100
AcDbEntity
  8
Vrstva 1
 62
   250
370
    30
100
AcDbSpline
210
0.0
220
0.0
230
1.0
 70
    24
 71
     3
 72
     8
 73
     4
 74
     0
 42
0.000000001
 43
0.0000000001
 40
0.0
 40
0.0
 40
0.0
 40
0.0
 40
1.0
 40
1.0
 40
1.0
 40
1.0
 10
19.5261
 20
-1.391
 30
0.0
 10
19.5261
 20
-1.391
 30
0.0
 10
19.4328
 20
-1.1912
 30
0.0
 10
19.4328
 20
-1.1912
 30
0.0
  0
SPLINE
  5
10A
330
1F
100
AcDbEntity
  8
Vrstva 1
 62
   250
370
    30
100
AcDbSpline
210
0.0
220
0.0
230
1.0
 70
    24
 71
     3
 72
     8
 73
     4
 74
     0
 42
0.000000001
 43
0.0000000001
 40
0.0
 40
0.0
 40
0.0
 40
0.0
 40
1.0
 40
1.0
 40
1.0
 40
1.0
 10
19.372
 20
9.4866
 30
0.0
 10
19.372
 20
9.4866
 30
0.0
 10
19.372
 20
-1.1525
 30
0.0
 10
19.372
 20
-1.1525
 30
0.0
  0
SPLINE
  5
10B
330
1F
100
AcDbEntity
  8
Vrstva 1
 62
   250
370
    30
100
AcDbSpline
210
0.0
220
0.0
230
1.0
 70
    24
 71
     3
 72
     8
 73
     4
 74
     0
 42
0.000000001
 43
0.0000000001
 40
0.0
 40
0.0
 40
0.0
 40
0.0
 40
1.0
 40
1.0
 40
1.0
 40
1.0
 10
11.1305
 20
-1.1177
 30
0.0
 10
11.1305
 20
-1.1177
 30
0.0
 10
9.5035
 20
-2.6257
 30
0.0
 10
9.5035
 20
-2.6257
 30
0.0
  0
SPLINE
  5
10C
330
1F
100
AcDbEntity
  8
Vrstva 1
 62
   250
370
    30
100
AcDbSpline
210
0.0
220
0.0
230
1.0
 70
    24
 71
     3
 72
     8
 73
     4
 74
     0
 42
0.000000001
 43
0.0000000001
 40
0.0
 40
0.0
 40
0.0
 40
0.0
 40
1.0
 40
1.0
 40
1.0
 40
1.0
 10
53.7435
 20
-4.2232
 30
0.0
 10
53.7435
 20
-4.2232
 30
0.0
 10
37.7988
 20
-4.2232
 30
0.0
 10
37.7988
 20
-4.2232
 30
0.0
  0
SPLINE
  5
10D
330
1F
100
AcDbEntity
  8
Vrstva 1
 62
   250
370
    30
100
AcDbSpline
210
0.0
220
0.0
230
1.0
 70
    24
 71
     3
 72
     8
 73
     4
 74
     0
 42
0.000000001
 43
0.0000000001
 40
0.0
 40
0.0
 40
0.0
 40
0.0
 40
1.0
 40
1.0
 40
1.0
 40
1.0
 10
9.5035
 20
10.9599
 30
0.0
 10
9.5035
 20
10.9599
 30
0.0
 10
11.1305
 20
9.4518
 30
0.0
 10
11.1305
 20
9.4518
 30
0.0
  0
SPLINE
  5
10E
330
1F
100
AcDbEntity
  8
Vrstva 1
 62
   250
370
    30
100
AcDbSpline
210
0.0
220
0.0
230
1.0
 70
    24
 71
     3
 72
     8
 73
     4
 74
     0
 42
0.000000001
 43
0.0000000001
 40
0.0
 40
0.0
 40
0.0
 40
0.0
 40
1.0
 40
1.0
 40
1.0
 40
1.0
 10
22.4962
 20
-2.2153
 30
0.0
 10
22.4962
 20
-2.2153
 30
0.0
 10
22.494
 20
-2.0891
 30
0.0
 10
22.494
 20
-2.0891
 30
0.0
  0
SPLINE
  5
10F
330
1F
100
AcDbEntity
  8
Vrstva 1
 62
   250
370
    30
100
AcDbSpline
210
0.0
220
0.0
230
1.0
 70
    24
 71
     3
 72
     8
 73
     4
 74
     0
 42
0.000000001
 43
0.0000000001
 40
0.0
 40
0.0
 40
0.0
 40
0.0
 40
1.0
 40
1.0
 40
1.0
 40
1.0
 10
22.4962
 20
10.5496
 30
0.0
 10
22.4962
 20
10.5496
 30
0.0
 10
22.494
 20
10.4234
 30
0.0
 10
22.494
 20
10.4234
 30
0.0
  0
SPLINE
  5
110
330
1F
100
AcDbEntity
  8
Vrstva 1
 62
   250
370
    30
100
AcDbSpline
210
0.0
220
0.0
230
1.0
 70
    24
 71
     3
 72
     8
 73
     4
 74
     0
 42
0.000000001
 43
0.0000000001
 40
0.0
 40
0.0
 40
0.0
 40
0.0
 40
1.0
 40
1.0
 40
1.0
 40
1.0
 10
14.1007
 20
-1.1177
 30
0.0
 10
14.1007
 20
-1.1177
 30
0.0
 10
12.4737
 20
-2.6257
 30
0.0
 10
12.4737
 20
-2.6257
 30
0.0
  0
SPLINE
  5
111
330
1F
100
AcDbEntity
  8
Vrstva 1
 62
   250
370
    30
100
AcDbSpline
210
0.0
220
0.0
230
1.0
 70
    24
 71
     3
 72
     8
 73
     4
 74
     0
 42
0.000000001
 43
0.0000000001
 40
0.0
 40
0.0
 40
0.0
 40
0.0
 40
1.0
 40
1.0
 40
1.0
 40
1.0
 10
37.4397
 20
-2.5452
 30
0.0
 10
37.4397
 20
-2.5452
 30
0.0
 10
22.8318
 20
-2.5452
 30
0.0
 10
22.8318
 20
-2.5452
 30
0.0
  0
SPLINE
  5
112
330
1F
100
AcDbEntity
  8
Vrstva 1
 62
   250
370
    30
100
AcDbSpline
210
0.0
220
0.0
230
1.0
 70
    24
 71
     3
 72
     8
 73
     4
 74
     0
 42
0.000000001
 43
0.0000000001
 40
0.0
 40
0.0
 40
0.0
 40
0.0
 40
1.0
 40
1.0
 40
1.0
 40
1.0
 10
22.3261
 20
-1.9244
 30
0.0
 10
22.3261
 20
-1.9244
 30
0.0
 10
19.8463
 20
-1.9244
 30
0.0
 10
19.8463
 20
-1.9244
 30
0.0
  0
SPLINE
  5
113
330
1F
100
AcDbEntity
  8
Vrstva 1
 62
   250
370
    30
100
AcDbSpline
210
0.0
220
0.0
230
1.0
 70
    24
 71
     3
 72
     8
 73
     4
 74
     0
 42
0.000000001
 43
0.0000000001
 40
0.0
 40
0.0
 40
0.0
 40
0.0
 40
1.0
 40
1.0
 40
1.0
 40
1.0
 10
19.372
 20
-1.1525
 30
0.0
 10
19.372
 20
-1.1525
 30
0.0
 10
18.2183
 20
-1.1525
 30
0.0
 10
18.2183
 20
-1.1525
 30
0.0
  0
SPLINE
  5
114
330
1F
100
AcDbEntity
  8
Vrstva 1
 62
   250
370
    30
100
AcDbSpline
210
0.0
220
0.0
230
1.0
 70
    24
 71
     3
 72
     8
 73
     4
 74
     0
 42
0.000000001
 43
0.0000000001
 40
0.0
 40
0.0
 40
0.0
 40
0.0
 40
1.0
 40
1.0
 40
1.0
 40
1.0
 10
12.4737
 20
10.9599
 30
0.0
 10
12.4737
 20
10.9599
 30
0.0
 10
14.1007
 20
9.4518
 30
0.0
 10
14.1007
 20
9.4518
 30
0.0
  0
SPLINE
  5
115
330
1F
100
AcDbEntity
  8
Vrstva 1
 62
   250
370
    30
100
AcDbSpline
210
0.0
220
0.0
230
1.0
 70
    24
 71
     3
 72
     8
 73
     4
 74
     0
 42
0.000000001
 43
0.0000000001
 40
0.0
 40
0.0
 40
0.0
 40
0.0
 40
1.0
 40
1.0
 40
1.0
 40
1.0
 10
17.7973
 20
-1.2656
 30
0.0
 10
17.7973
 20
-1.2656
 30
0.0
 10
15.4085
 20
-2.6502
 30
0.0
 10
15.4085
 20
-2.6502
 30
0.0
  0
SPLINE
  5
116
330
1F
100
AcDbEntity
  8
Vrstva 1
 62
   250
370
    30
100
AcDbSpline
210
0.0
220
0.0
230
1.0
 70
    24
 71
     3
 72
     8
 73
     4
 74
     0
 42
0.000000001
 43
0.0000000001
 40
0.0
 40
0.0
 40
0.0
 40
0.0
 40
1.0
 40
1.0
 40
1.0
 40
1.0
 10
17.7973
 20
9.5997
 30
0.0
 10
17.7973
 20
9.5997
 30
0.0
 10
15.4085
 20
10.9846
 30
0.0
 10
15.4085
 20
10.9846
 30
0.0
  0
SPLINE
  5
117
330
1F
100
AcDbEntity
  8
Vrstva 1
 62
   250
370
    30
100
AcDbSpline
210
0.0
220
0.0
230
1.0
 70
    24
 71
     3
 72
     8
 73
     4
 74
     0
 42
0.000000001
 43
0.0000000001
 40
0.0
 40
0.0
 40
0.0
 40
0.0
 40
1.0
 40
1.0
 40
1.0
 40
1.0
 10
19.372
 20
9.4866
 30
0.0
 10
19.372
 20
9.4866
 30
0.0
 10
18.2183
 20
9.4866
 30
0.0
 10
18.2183
 20
9.4866
 30
0.0
  0
SPLINE
  5
118
330
1F
100
AcDbEntity
  8
Vrstva 1
 62
   250
370
    30
100
AcDbSpline
210
0.0
220
0.0
230
1.0
 70
    24
 71
     3
 72
     8
 73
     4
 74
     0
 42
0.000000001
 43
0.0000000001
 40
0.0
 40
0.0
 40
0.0
 40
0.0
 40
1.0
 40
1.0
 40
1.0
 40
1.0
 10
22.3261
 20
10.2585
 30
0.0
 10
22.3261
 20
10.2585
 30
0.0
 10
19.8463
 20
10.2585
 30
0.0
 10
19.8463
 20
10.2585
 30
0.0
  0
SPLINE
  5
119
330
1F
100
AcDbEntity
  8
Vrstva 1
 62
   250
370
    30
100
AcDbSpline
210
0.0
220
0.0
230
1.0
 70
    24
 71
     3
 72
     8
 73
     4
 74
     0
 42
0.000000001
 43
0.0000000001
 40
0.0
 40
0.0
 40
0.0
 40
0.0
 40
1.0
 40
1.0
 40
1.0
 40
1.0
 10
37.4397
 20
10.8794
 30
0.0
 10
37.4397
 20
10.8794
 30
0.0
 10
22.8318
 20
10.8794
 30
0.0
 10
22.8318
 20
10.8794
 30
0.0
  0
SPLINE
  5
11A
330
1F
100
AcDbEntity
  8
Vrstva 1
 62
   250
370
    30
100
AcDbSpline
210
0.0
220
0.0
230
1.0
 70
    24
 71
     3
 72
     8
 73
     4
 74
     0
 42
0.000000001
 43
0.0000000001
 40
0.0
 40
0.0
 40
0.0
 40
0.0
 40
1.0
 40
1.0
 40
1.0
 40
1.0
 10
53.7435
 20
12.5576
 30
0.0
 10
53.7435
 20
12.5576
 30
0.0
 10
37.7988
 20
12.5576
 30
0.0
 10
37.7988
 20
12.5576
 30
0.0
  0
SPLINE
  5
11B
330
1F
100
AcDbEntity
  8
Vrstva 1
 62
   250
370
    30
100
AcDbSpline
210
0.0
220
0.0
230
1.0
 70
    24
 71
     3
 72
     8
 73
     4
 74
     0
 42
0.000000001
 43
0.0000000001
 40
0.0
 40
0.0
 40
0.0
 40
0.0
 40
1.0
 40
1.0
 40
1.0
 40
1.0
 10
37.631
 20
-4.0583
 30
0.0
 10
37.631
 20
-4.0583
 30
0.0
 10
37.6075
 20
-2.71
 30
0.0
 10
37.6075
 20
-2.71
 30
0.0
  0
SPLINE
  5
11C
330
1F
100
AcDbEntity
  8
Vrstva 1
 62
   250
370
    30
100
AcDbSpline
210
0.0
220
0.0
230
1.0
 70
    24
 71
     3
 72
     8
 73
     4
 74
     0
 42
0.000000001
 43
0.0000000001
 40
0.0
 40
0.0
 40
0.0
 40
0.0
 40
1.0
 40
1.0
 40
1.0
 40
1.0
 10
37.631
 20
12.3926
 30
0.0
 10
37.631
 20
12.3926
 30
0.0
 10
37.6075
 20
11.0443
 30
0.0
 10
37.6075
 20
11.0443
 30
0.0
  0
SPLINE
  5
11D
330
1F
100
AcDbEntity
  8
Vrstva 1
 62
   250
370
    30
100
AcDbSpline
210
0.0
220
0.0
230
1.0
 70
    24
 71
     3
 72
     8
 73
     4
 74
     0
 42
0.000000001
 43
0.0000000001
 40
0.0
 40
0.0
 40
0.0
 40
0.0
 40
1.0
 40
1.0
 40
1.0
 40
1.0
 10
54.4148
 20
-3.8356
 30
0.0
 10
54.4148
 20
-3.8356
 30
0.0
 10
53.7435
 20
-4.2232
 30
0.0
 10
53.7435
 20
-4.2232
 30
0.0
  0
SPLINE
  5
11E
330
1F
100
AcDbEntity
  8
Vrstva 1
 62
   250
370
    30
100
AcDbSpline
210
0.0
220
0.0
230
1.0
 70
    24
 71
     3
 72
     8
 73
     4
 74
     0
 42
0.000000001
 43
0.0000000001
 40
0.0
 40
0.0
 40
0.0
 40
0.0
 40
1.0
 40
1.0
 40
1.0
 40
1.0
 10
54.4148
 20
12.1699
 30
0.0
 10
54.4148
 20
12.1699
 30
0.0
 10
53.7435
 20
12.5576
 30
0.0
 10
53.7435
 20
12.5576
 30
0.0
  0
SPLINE
  5
11F
330
1F
100
AcDbEntity
  8
Vrstva 1
 62
   250
370
    30
100
AcDbSpline
210
0.0
220
0.0
230
1.0
 70
    24
 71
     3
 72
     8
 73
     4
 74
     0
 42
0.000000001
 43
0.0000000001
 40
0.0
 40
0.0
 40
0.0
 40
0.0
 40
1.0
 40
1.0
 40
1.0
 40
1.0
 10
53.7435
 20
12.5576
 30
0.0
 10
53.7435
 20
12.5576
 30
0.0
 10
53.7435
 20
-4.2232
 30
0.0
 10
53.7435
 20
-4.2232
 30
0.0
  0
SPLINE
  5
120
330
1F
100
AcDbEntity
  8
Vrstva 1
 62
   250
370
    30
100
AcDbSpline
210
0.0
220
0.0
230
1.0
 70
    24
 71
     3
 72
     8
 73
     4
 74
     0
 42
0.000000001
 43
0.0000000001
 40
0.0
 40
0.0
 40
0.0
 40
0.0
 40
1.0
 40
1.0
 40
1.0
 40
1.0
 10
54.4148
 20
12.1699
 30
0.0
 10
54.4148
 20
12.1699
 30
0.0
 10
54.4148
 20
-3.8356
 30
0.0
 10
54.4148
 20
-3.8356
 30
0.0
  0
SPLINE
  5
121
330
1F
100
AcDbEntity
  8
Vrstva 1
 62
   250
370
    30
100
AcDbSpline
210
0.0
220
0.0
230
1.0
 70
     8
 71
     3
 72
     8
 73
     4
 74
     0
 42
0.000000001
 43
0.0000000001
 40
0.0
 40
0.0
 40
0.0
 40
0.0
 40
1.0
 40
1.0
 40
1.0
 40
1.0
 10
-19.6786
 20
-1.4879
 30
0.0
 10
-19.6133
 20
-1.4879
 30
0.0
 10
-19.554
 20
-1.4503
 30
0.0
 10
-19.5265
 20
-1.391
 30
0.0
  0
SPLINE
  5
122
330
1F
100
AcDbEntity
  8
Vrstva 1
 62
   250
370
    30
100
AcDbSpline
210
0.0
220
0.0
230
1.0
 70
     8
 71
     3
 72
     8
 73
     4
 74
     0
 42
0.000000001
 43
0.0000000001
 40
0.0
 40
0.0
 40
0.0
 40
0.0
 40
1.0
 40
1.0
 40
1.0
 40
1.0
 10
-19.5265
 20
9.7253
 30
0.0
 10
-19.554
 20
9.7844
 30
0.0
 10
-19.6133
 20
9.8222
 30
0.0
 10
-19.6786
 20
9.8222
 30
0.0
  0
SPLINE
  5
123
330
1F
100
AcDbEntity
  8
Vrstva 1
 62
   250
370
    30
100
AcDbSpline
210
0.0
220
0.0
230
1.0
 70
     8
 71
     3
 72
     8
 73
     4
 74
     0
 42
0.000000001
 43
0.0000000001
 40
0.0
 40
0.0
 40
0.0
 40
0.0
 40
1.0
 40
1.0
 40
1.0
 40
1.0
 10
-17.7229
 20
-1.3849
 30
0.0
 10
-17.879
 20
-1.2356
 30
0.0
 10
-18.0866
 20
-1.1525
 30
0.0
 10
-18.3025
 20
-1.1525
 30
0.0
  0
SPLINE
  5
124
330
1F
100
AcDbEntity
  8
Vrstva 1
 62
   250
370
    30
100
AcDbSpline
210
0.0
220
0.0
230
1.0
 70
     8
 71
     3
 72
     8
 73
     4
 74
     0
 42
0.000000001
 43
0.0000000001
 40
0.0
 40
0.0
 40
0.0
 40
0.0
 40
1.0
 40
1.0
 40
1.0
 40
1.0
 10
-13.35
 20
-2.478
 30
0.0
 10
-13.35
 20
-2.5581
 30
0.0
 10
-13.3026
 20
-2.6305
 30
0.0
 10
-13.2292
 20
-2.6625
 30
0.0
  0
SPLINE
  5
125
330
1F
100
AcDbEntity
  8
Vrstva 1
 62
   250
370
    30
100
AcDbSpline
210
0.0
220
0.0
230
1.0
 70
     8
 71
     3
 72
     8
 73
     4
 74
     0
 42
0.000000001
 43
0.0000000001
 40
0.0
 40
0.0
 40
0.0
 40
0.0
 40
1.0
 40
1.0
 40
1.0
 40
1.0
 10
-13.2292
 20
-2.6625
 30
0.0
 10
-13.1558
 20
-2.6945
 30
0.0
 10
-13.0704
 20
-2.6802
 30
0.0
 10
-13.0117
 20
-2.6257
 30
0.0
  0
SPLINE
  5
126
330
1F
100
AcDbEntity
  8
Vrstva 1
 62
   250
370
    30
100
AcDbSpline
210
0.0
220
0.0
230
1.0
 70
     8
 71
     3
 72
     8
 73
     4
 74
     0
 42
0.000000001
 43
0.0000000001
 40
0.0
 40
0.0
 40
0.0
 40
0.0
 40
1.0
 40
1.0
 40
1.0
 40
1.0
 10
-16.4266
 20
-2.6236
 30
0.0
 10
-16.3523
 20
-2.6945
 30
0.0
 10
-16.2366
 20
-2.6983
 30
0.0
 10
-16.1579
 20
-2.6321
 30
0.0
  0
SPLINE
  5
127
330
1F
100
AcDbEntity
  8
Vrstva 1
 62
   250
370
    30
100
AcDbSpline
210
0.0
220
0.0
230
1.0
 70
     8
 71
     3
 72
     8
 73
     4
 74
     0
 42
0.000000001
 43
0.0000000001
 40
0.0
 40
0.0
 40
0.0
 40
0.0
 40
1.0
 40
1.0
 40
1.0
 40
1.0
 10
-19.3724
 20
-1.1525
 30
0.0
 10
-19.3984
 20
-1.1525
 30
0.0
 10
-19.4223
 20
-1.1676
 30
0.0
 10
-19.4332
 20
-1.1912
 30
0.0
  0
SPLINE
  5
128
330
1F
100
AcDbEntity
  8
Vrstva 1
 62
   250
370
    30
100
AcDbSpline
210
0.0
220
0.0
230
1.0
 70
     8
 71
     3
 72
     8
 73
     4
 74
     0
 42
0.000000001
 43
0.0000000001
 40
0.0
 40
0.0
 40
0.0
 40
0.0
 40
1.0
 40
1.0
 40
1.0
 40
1.0
 10
-7.4096
 20
-2.478
 30
0.0
 10
-7.4096
 20
-2.5581
 30
0.0
 10
-7.3622
 20
-2.6305
 30
0.0
 10
-7.2888
 20
-2.6625
 30
0.0
  0
SPLINE
  5
129
330
1F
100
AcDbEntity
  8
Vrstva 1
 62
   250
370
    30
100
AcDbSpline
210
0.0
220
0.0
230
1.0
 70
     8
 71
     3
 72
     8
 73
     4
 74
     0
 42
0.000000001
 43
0.0000000001
 40
0.0
 40
0.0
 40
0.0
 40
0.0
 40
1.0
 40
1.0
 40
1.0
 40
1.0
 10
-7.2888
 20
-2.6625
 30
0.0
 10
-7.2155
 20
-2.6945
 30
0.0
 10
-7.13
 20
-2.6802
 30
0.0
 10
-7.0712
 20
-2.6257
 30
0.0
  0
SPLINE
  5
12A
330
1F
100
AcDbEntity
  8
Vrstva 1
 62
   250
370
    30
100
AcDbSpline
210
0.0
220
0.0
230
1.0
 70
     8
 71
     3
 72
     8
 73
     4
 74
     0
 42
0.000000001
 43
0.0000000001
 40
0.0
 40
0.0
 40
0.0
 40
0.0
 40
1.0
 40
1.0
 40
1.0
 40
1.0
 10
-10.3798
 20
-2.478
 30
0.0
 10
-10.3798
 20
-2.5581
 30
0.0
 10
-10.3324
 20
-2.6305
 30
0.0
 10
-10.259
 20
-2.6625
 30
0.0
  0
SPLINE
  5
12B
330
1F
100
AcDbEntity
  8
Vrstva 1
 62
   250
370
    30
100
AcDbSpline
210
0.0
220
0.0
230
1.0
 70
     8
 71
     3
 72
     8
 73
     4
 74
     0
 42
0.000000001
 43
0.0000000001
 40
0.0
 40
0.0
 40
0.0
 40
0.0
 40
1.0
 40
1.0
 40
1.0
 40
1.0
 10
-10.259
 20
-2.6625
 30
0.0
 10
-10.1856
 20
-2.6945
 30
0.0
 10
-10.1002
 20
-2.6802
 30
0.0
 10
-10.0414
 20
-2.6257
 30
0.0
  0
SPLINE
  5
12C
330
1F
100
AcDbEntity
  8
Vrstva 1
 62
   250
370
    30
100
AcDbSpline
210
0.0
220
0.0
230
1.0
 70
     8
 71
     3
 72
     8
 73
     4
 74
     0
 42
0.000000001
 43
0.0000000001
 40
0.0
 40
0.0
 40
0.0
 40
0.0
 40
1.0
 40
1.0
 40
1.0
 40
1.0
 10
-4.4394
 20
-2.478
 30
0.0
 10
-4.4394
 20
-2.5581
 30
0.0
 10
-4.3919
 20
-2.6305
 30
0.0
 10
-4.3186
 20
-2.6625
 30
0.0
  0
SPLINE
  5
12D
330
1F
100
AcDbEntity
  8
Vrstva 1
 62
   250
370
    30
100
AcDbSpline
210
0.0
220
0.0
230
1.0
 70
     8
 71
     3
 72
     8
 73
     4
 74
     0
 42
0.000000001
 43
0.0000000001
 40
0.0
 40
0.0
 40
0.0
 40
0.0
 40
1.0
 40
1.0
 40
1.0
 40
1.0
 10
-4.3186
 20
-2.6625
 30
0.0
 10
-4.2453
 20
-2.6945
 30
0.0
 10
-4.1599
 20
-2.6802
 30
0.0
 10
-4.101
 20
-2.6257
 30
0.0
  0
SPLINE
  5
12E
330
1F
100
AcDbEntity
  8
Vrstva 1
 62
   250
370
    30
100
AcDbSpline
210
0.0
220
0.0
230
1.0
 70
     8
 71
     3
 72
     8
 73
     4
 74
     0
 42
0.000000001
 43
0.0000000001
 40
0.0
 40
0.0
 40
0.0
 40
0.0
 40
1.0
 40
1.0
 40
1.0
 40
1.0
 10
-1.4692
 20
-2.478
 30
0.0
 10
-1.4692
 20
-2.5581
 30
0.0
 10
-1.4217
 20
-2.6305
 30
0.0
 10
-1.3484
 20
-2.6625
 30
0.0
  0
SPLINE
  5
12F
330
1F
100
AcDbEntity
  8
Vrstva 1
 62
   250
370
    30
100
AcDbSpline
210
0.0
220
0.0
230
1.0
 70
     8
 71
     3
 72
     8
 73
     4
 74
     0
 42
0.000000001
 43
0.0000000001
 40
0.0
 40
0.0
 40
0.0
 40
0.0
 40
1.0
 40
1.0
 40
1.0
 40
1.0
 10
-1.3484
 20
-2.6625
 30
0.0
 10
-1.2751
 20
-2.6945
 30
0.0
 10
-1.1897
 20
-2.6802
 30
0.0
 10
-1.1309
 20
-2.6257
 30
0.0
  0
SPLINE
  5
130
330
1F
100
AcDbEntity
  8
Vrstva 1
 62
   250
370
    30
100
AcDbSpline
210
0.0
220
0.0
230
1.0
 70
     8
 71
     3
 72
     8
 73
     4
 74
     0
 42
0.000000001
 43
0.0000000001
 40
0.0
 40
0.0
 40
0.0
 40
0.0
 40
1.0
 40
1.0
 40
1.0
 40
1.0
 10
-19.4332
 20
9.5253
 30
0.0
 10
-19.4223
 20
9.5017
 30
0.0
 10
-19.3984
 20
9.4866
 30
0.0
 10
-19.3724
 20
9.4866
 30
0.0
  0
SPLINE
  5
131
330
1F
100
AcDbEntity
  8
Vrstva 1
 62
   250
370
    30
100
AcDbSpline
210
0.0
220
0.0
230
1.0
 70
     8
 71
     3
 72
     8
 73
     4
 74
     0
 42
0.000000001
 43
0.0000000001
 40
0.0
 40
0.0
 40
0.0
 40
0.0
 40
1.0
 40
1.0
 40
1.0
 40
1.0
 10
-18.3025
 20
9.4866
 30
0.0
 10
-18.0866
 20
9.4866
 30
0.0
 10
-17.879
 20
9.5698
 30
0.0
 10
-17.7229
 20
9.719
 30
0.0
  0
SPLINE
  5
132
330
1F
100
AcDbEntity
  8
Vrstva 1
 62
   250
370
    30
100
AcDbSpline
210
0.0
220
0.0
230
1.0
 70
     8
 71
     3
 72
     8
 73
     4
 74
     0
 42
0.000000001
 43
0.0000000001
 40
0.0
 40
0.0
 40
0.0
 40
0.0
 40
1.0
 40
1.0
 40
1.0
 40
1.0
 10
-16.1579
 20
10.9665
 30
0.0
 10
-16.2366
 20
11.0326
 30
0.0
 10
-16.3523
 20
11.0289
 30
0.0
 10
-16.4266
 20
10.9578
 30
0.0
  0
SPLINE
  5
133
330
1F
100
AcDbEntity
  8
Vrstva 1
 62
   250
370
    30
100
AcDbSpline
210
0.0
220
0.0
230
1.0
 70
     8
 71
     3
 72
     8
 73
     4
 74
     0
 42
0.000000001
 43
0.0000000001
 40
0.0
 40
0.0
 40
0.0
 40
0.0
 40
1.0
 40
1.0
 40
1.0
 40
1.0
 10
-13.0117
 20
10.9599
 30
0.0
 10
-13.0704
 20
11.0144
 30
0.0
 10
-13.1558
 20
11.0289
 30
0.0
 10
-13.2292
 20
10.9968
 30
0.0
  0
SPLINE
  5
134
330
1F
100
AcDbEntity
  8
Vrstva 1
 62
   250
370
    30
100
AcDbSpline
210
0.0
220
0.0
230
1.0
 70
     8
 71
     3
 72
     8
 73
     4
 74
     0
 42
0.000000001
 43
0.0000000001
 40
0.0
 40
0.0
 40
0.0
 40
0.0
 40
1.0
 40
1.0
 40
1.0
 40
1.0
 10
-13.2292
 20
10.9968
 30
0.0
 10
-13.3026
 20
10.9648
 30
0.0
 10
-13.35
 20
10.8923
 30
0.0
 10
-13.35
 20
10.8122
 30
0.0
  0
SPLINE
  5
135
330
1F
100
AcDbEntity
  8
Vrstva 1
 62
   250
370
    30
100
AcDbSpline
210
0.0
220
0.0
230
1.0
 70
     8
 71
     3
 72
     8
 73
     4
 74
     0
 42
0.000000001
 43
0.0000000001
 40
0.0
 40
0.0
 40
0.0
 40
0.0
 40
1.0
 40
1.0
 40
1.0
 40
1.0
 10
-7.0712
 20
10.9599
 30
0.0
 10
-7.13
 20
11.0144
 30
0.0
 10
-7.2155
 20
11.0289
 30
0.0
 10
-7.2888
 20
10.9968
 30
0.0
  0
SPLINE
  5
136
330
1F
100
AcDbEntity
  8
Vrstva 1
 62
   250
370
    30
100
AcDbSpline
210
0.0
220
0.0
230
1.0
 70
     8
 71
     3
 72
     8
 73
     4
 74
     0
 42
0.000000001
 43
0.0000000001
 40
0.0
 40
0.0
 40
0.0
 40
0.0
 40
1.0
 40
1.0
 40
1.0
 40
1.0
 10
-7.2888
 20
10.9968
 30
0.0
 10
-7.3622
 20
10.9648
 30
0.0
 10
-7.4096
 20
10.8923
 30
0.0
 10
-7.4096
 20
10.8122
 30
0.0
  0
SPLINE
  5
137
330
1F
100
AcDbEntity
  8
Vrstva 1
 62
   250
370
    30
100
AcDbSpline
210
0.0
220
0.0
230
1.0
 70
     8
 71
     3
 72
     8
 73
     4
 74
     0
 42
0.000000001
 43
0.0000000001
 40
0.0
 40
0.0
 40
0.0
 40
0.0
 40
1.0
 40
1.0
 40
1.0
 40
1.0
 10
-10.0414
 20
10.9599
 30
0.0
 10
-10.1002
 20
11.0144
 30
0.0
 10
-10.1856
 20
11.0289
 30
0.0
 10
-10.259
 20
10.9968
 30
0.0
  0
SPLINE
  5
138
330
1F
100
AcDbEntity
  8
Vrstva 1
 62
   250
370
    30
100
AcDbSpline
210
0.0
220
0.0
230
1.0
 70
     8
 71
     3
 72
     8
 73
     4
 74
     0
 42
0.000000001
 43
0.0000000001
 40
0.0
 40
0.0
 40
0.0
 40
0.0
 40
1.0
 40
1.0
 40
1.0
 40
1.0
 10
-10.259
 20
10.9968
 30
0.0
 10
-10.3324
 20
10.9648
 30
0.0
 10
-10.3798
 20
10.8923
 30
0.0
 10
-10.3798
 20
10.8122
 30
0.0
  0
SPLINE
  5
139
330
1F
100
AcDbEntity
  8
Vrstva 1
 62
   250
370
    30
100
AcDbSpline
210
0.0
220
0.0
230
1.0
 70
     8
 71
     3
 72
     8
 73
     4
 74
     0
 42
0.000000001
 43
0.0000000001
 40
0.0
 40
0.0
 40
0.0
 40
0.0
 40
1.0
 40
1.0
 40
1.0
 40
1.0
 10
-4.101
 20
10.9599
 30
0.0
 10
-4.1599
 20
11.0144
 30
0.0
 10
-4.2453
 20
11.0289
 30
0.0
 10
-4.3186
 20
10.9968
 30
0.0
  0
SPLINE
  5
13A
330
1F
100
AcDbEntity
  8
Vrstva 1
 62
   250
370
    30
100
AcDbSpline
210
0.0
220
0.0
230
1.0
 70
     8
 71
     3
 72
     8
 73
     4
 74
     0
 42
0.000000001
 43
0.0000000001
 40
0.0
 40
0.0
 40
0.0
 40
0.0
 40
1.0
 40
1.0
 40
1.0
 40
1.0
 10
-4.3186
 20
10.9968
 30
0.0
 10
-4.3919
 20
10.9648
 30
0.0
 10
-4.4394
 20
10.8923
 30
0.0
 10
-4.4394
 20
10.8122
 30
0.0
  0
SPLINE
  5
13B
330
1F
100
AcDbEntity
  8
Vrstva 1
 62
   250
370
    30
100
AcDbSpline
210
0.0
220
0.0
230
1.0
 70
     8
 71
     3
 72
     8
 73
     4
 74
     0
 42
0.000000001
 43
0.0000000001
 40
0.0
 40
0.0
 40
0.0
 40
0.0
 40
1.0
 40
1.0
 40
1.0
 40
1.0
 10
-1.1309
 20
10.9599
 30
0.0
 10
-1.1897
 20
11.0144
 30
0.0
 10
-1.2751
 20
11.0289
 30
0.0
 10
-1.3484
 20
10.9968
 30
0.0
  0
SPLINE
  5
13C
330
1F
100
AcDbEntity
  8
Vrstva 1
 62
   250
370
    30
100
AcDbSpline
210
0.0
220
0.0
230
1.0
 70
     8
 71
     3
 72
     8
 73
     4
 74
     0
 42
0.000000001
 43
0.0000000001
 40
0.0
 40
0.0
 40
0.0
 40
0.0
 40
1.0
 40
1.0
 40
1.0
 40
1.0
 10
-1.3484
 20
10.9968
 30
0.0
 10
-1.4217
 20
10.9648
 30
0.0
 10
-1.4692
 20
10.8923
 30
0.0
 10
-1.4692
 20
10.8122
 30
0.0
  0
SPLINE
  5
13D
330
1F
100
AcDbEntity
  8
Vrstva 1
 62
   250
370
    30
100
AcDbSpline
210
0.0
220
0.0
230
1.0
 70
     8
 71
     3
 72
     8
 73
     4
 74
     0
 42
0.000000001
 43
0.0000000001
 40
0.0
 40
0.0
 40
0.0
 40
0.0
 40
1.0
 40
1.0
 40
1.0
 40
1.0
 10
9.1653
 20
-2.478
 30
0.0
 10
9.1653
 20
-2.5581
 30
0.0
 10
9.2127
 20
-2.6305
 30
0.0
 10
9.2861
 20
-2.6625
 30
0.0
  0
SPLINE
  5
13E
330
1F
100
AcDbEntity
  8
Vrstva 1
 62
   250
370
    30
100
AcDbSpline
210
0.0
220
0.0
230
1.0
 70
     8
 71
     3
 72
     8
 73
     4
 74
     0
 42
0.000000001
 43
0.0000000001
 40
0.0
 40
0.0
 40
0.0
 40
0.0
 40
1.0
 40
1.0
 40
1.0
 40
1.0
 10
9.2861
 20
-2.6625
 30
0.0
 10
9.3595
 20
-2.6945
 30
0.0
 10
9.4449
 20
-2.6802
 30
0.0
 10
9.5035
 20
-2.6257
 30
0.0
  0
SPLINE
  5
13F
330
1F
100
AcDbEntity
  8
Vrstva 1
 62
   250
370
    30
100
AcDbSpline
210
0.0
220
0.0
230
1.0
 70
     8
 71
     3
 72
     8
 73
     4
 74
     0
 42
0.000000001
 43
0.0000000001
 40
0.0
 40
0.0
 40
0.0
 40
0.0
 40
1.0
 40
1.0
 40
1.0
 40
1.0
 10
6.1951
 20
-2.478
 30
0.0
 10
6.1951
 20
-2.5581
 30
0.0
 10
6.2425
 20
-2.6305
 30
0.0
 10
6.3159
 20
-2.6625
 30
0.0
  0
SPLINE
  5
140
330
1F
100
AcDbEntity
  8
Vrstva 1
 62
   250
370
    30
100
AcDbSpline
210
0.0
220
0.0
230
1.0
 70
     8
 71
     3
 72
     8
 73
     4
 74
     0
 42
0.000000001
 43
0.0000000001
 40
0.0
 40
0.0
 40
0.0
 40
0.0
 40
1.0
 40
1.0
 40
1.0
 40
1.0
 10
6.3159
 20
-2.6625
 30
0.0
 10
6.3893
 20
-2.6945
 30
0.0
 10
6.4747
 20
-2.6802
 30
0.0
 10
6.5334
 20
-2.6257
 30
0.0
  0
SPLINE
  5
141
330
1F
100
AcDbEntity
  8
Vrstva 1
 62
   250
370
    30
100
AcDbSpline
210
0.0
220
0.0
230
1.0
 70
     8
 71
     3
 72
     8
 73
     4
 74
     0
 42
0.000000001
 43
0.0000000001
 40
0.0
 40
0.0
 40
0.0
 40
0.0
 40
1.0
 40
1.0
 40
1.0
 40
1.0
 10
3.2249
 20
-2.478
 30
0.0
 10
3.2249
 20
-2.5581
 30
0.0
 10
3.2723
 20
-2.6305
 30
0.0
 10
3.3458
 20
-2.6625
 30
0.0
  0
SPLINE
  5
142
330
1F
100
AcDbEntity
  8
Vrstva 1
 62
   250
370
    30
100
AcDbSpline
210
0.0
220
0.0
230
1.0
 70
     8
 71
     3
 72
     8
 73
     4
 74
     0
 42
0.000000001
 43
0.0000000001
 40
0.0
 40
0.0
 40
0.0
 40
0.0
 40
1.0
 40
1.0
 40
1.0
 40
1.0
 10
3.3458
 20
-2.6625
 30
0.0
 10
3.4191
 20
-2.6945
 30
0.0
 10
3.5045
 20
-2.6802
 30
0.0
 10
3.5632
 20
-2.6257
 30
0.0
  0
SPLINE
  5
143
330
1F
100
AcDbEntity
  8
Vrstva 1
 62
   250
370
    30
100
AcDbSpline
210
0.0
220
0.0
230
1.0
 70
     8
 71
     3
 72
     8
 73
     4
 74
     0
 42
0.000000001
 43
0.0000000001
 40
0.0
 40
0.0
 40
0.0
 40
0.0
 40
1.0
 40
1.0
 40
1.0
 40
1.0
 10
18.2183
 20
-1.1525
 30
0.0
 10
18.0705
 20
-1.1525
 30
0.0
 10
17.9254
 20
-1.1915
 30
0.0
 10
17.7973
 20
-1.2656
 30
0.0
  0
SPLINE
  5
144
330
1F
100
AcDbEntity
  8
Vrstva 1
 62
   250
370
    30
100
AcDbSpline
210
0.0
220
0.0
230
1.0
 70
     8
 71
     3
 72
     8
 73
     4
 74
     0
 42
0.000000001
 43
0.0000000001
 40
0.0
 40
0.0
 40
0.0
 40
0.0
 40
1.0
 40
1.0
 40
1.0
 40
1.0
 10
12.1355
 20
-2.478
 30
0.0
 10
12.1355
 20
-2.5581
 30
0.0
 10
12.1829
 20
-2.6305
 30
0.0
 10
12.2563
 20
-2.6625
 30
0.0
  0
SPLINE
  5
145
330
1F
100
AcDbEntity
  8
Vrstva 1
 62
   250
370
    30
100
AcDbSpline
210
0.0
220
0.0
230
1.0
 70
     8
 71
     3
 72
     8
 73
     4
 74
     0
 42
0.000000001
 43
0.0000000001
 40
0.0
 40
0.0
 40
0.0
 40
0.0
 40
1.0
 40
1.0
 40
1.0
 40
1.0
 10
12.2563
 20
-2.6625
 30
0.0
 10
12.3296
 20
-2.6945
 30
0.0
 10
12.415
 20
-2.6802
 30
0.0
 10
12.4737
 20
-2.6257
 30
0.0
  0
SPLINE
  5
146
330
1F
100
AcDbEntity
  8
Vrstva 1
 62
   250
370
    30
100
AcDbSpline
210
0.0
220
0.0
230
1.0
 70
     8
 71
     3
 72
     8
 73
     4
 74
     0
 42
0.000000001
 43
0.0000000001
 40
0.0
 40
0.0
 40
0.0
 40
0.0
 40
1.0
 40
1.0
 40
1.0
 40
1.0
 10
15.106
 20
-2.4761
 30
0.0
 10
15.106
 20
-2.5481
 30
0.0
 10
15.1446
 20
-2.6147
 30
0.0
 10
15.2069
 20
-2.6506
 30
0.0
  0
SPLINE
  5
147
330
1F
100
AcDbEntity
  8
Vrstva 1
 62
   250
370
    30
100
AcDbSpline
210
0.0
220
0.0
230
1.0
 70
     8
 71
     3
 72
     8
 73
     4
 74
     0
 42
0.000000001
 43
0.0000000001
 40
0.0
 40
0.0
 40
0.0
 40
0.0
 40
1.0
 40
1.0
 40
1.0
 40
1.0
 10
15.2069
 20
-2.6506
 30
0.0
 10
15.2693
 20
-2.6866
 30
0.0
 10
15.3462
 20
-2.6865
 30
0.0
 10
15.4085
 20
-2.6502
 30
0.0
  0
SPLINE
  5
148
330
1F
100
AcDbEntity
  8
Vrstva 1
 62
   250
370
    30
100
AcDbSpline
210
0.0
220
0.0
230
1.0
 70
     8
 71
     3
 72
     8
 73
     4
 74
     0
 42
0.000000001
 43
0.0000000001
 40
0.0
 40
0.0
 40
0.0
 40
0.0
 40
1.0
 40
1.0
 40
1.0
 40
1.0
 10
19.5261
 20
-1.391
 30
0.0
 10
19.5537
 20
-1.4504
 30
0.0
 10
19.613
 20
-1.4881
 30
0.0
 10
19.6784
 20
-1.4879
 30
0.0
  0
SPLINE
  5
149
330
1F
100
AcDbEntity
  8
Vrstva 1
 62
   250
370
    30
100
AcDbSpline
210
0.0
220
0.0
230
1.0
 70
     8
 71
     3
 72
     8
 73
     4
 74
     0
 42
0.000000001
 43
0.0000000001
 40
0.0
 40
0.0
 40
0.0
 40
0.0
 40
1.0
 40
1.0
 40
1.0
 40
1.0
 10
19.4328
 20
-1.1912
 30
0.0
 10
19.4217
 20
-1.1676
 30
0.0
 10
19.398
 20
-1.1525
 30
0.0
 10
19.372
 20
-1.1525
 30
0.0
  0
SPLINE
  5
14A
330
1F
100
AcDbEntity
  8
Vrstva 1
 62
   250
370
    30
100
AcDbSpline
210
0.0
220
0.0
230
1.0
 70
     8
 71
     3
 72
     8
 73
     4
 74
     0
 42
0.000000001
 43
0.0000000001
 40
0.0
 40
0.0
 40
0.0
 40
0.0
 40
1.0
 40
1.0
 40
1.0
 40
1.0
 10
9.5035
 20
10.9599
 30
0.0
 10
9.4449
 20
11.0144
 30
0.0
 10
9.3595
 20
11.0289
 30
0.0
 10
9.2861
 20
10.9968
 30
0.0
  0
SPLINE
  5
14B
330
1F
100
AcDbEntity
  8
Vrstva 1
 62
   250
370
    30
100
AcDbSpline
210
0.0
220
0.0
230
1.0
 70
     8
 71
     3
 72
     8
 73
     4
 74
     0
 42
0.000000001
 43
0.0000000001
 40
0.0
 40
0.0
 40
0.0
 40
0.0
 40
1.0
 40
1.0
 40
1.0
 40
1.0
 10
9.2861
 20
10.9968
 30
0.0
 10
9.2127
 20
10.9648
 30
0.0
 10
9.1653
 20
10.8923
 30
0.0
 10
9.1653
 20
10.8122
 30
0.0
  0
SPLINE
  5
14C
330
1F
100
AcDbEntity
  8
Vrstva 1
 62
   250
370
    30
100
AcDbSpline
210
0.0
220
0.0
230
1.0
 70
     8
 71
     3
 72
     8
 73
     4
 74
     0
 42
0.000000001
 43
0.0000000001
 40
0.0
 40
0.0
 40
0.0
 40
0.0
 40
1.0
 40
1.0
 40
1.0
 40
1.0
 10
6.5334
 20
10.9599
 30
0.0
 10
6.4747
 20
11.0144
 30
0.0
 10
6.3893
 20
11.0289
 30
0.0
 10
6.3159
 20
10.9968
 30
0.0
  0
SPLINE
  5
14D
330
1F
100
AcDbEntity
  8
Vrstva 1
 62
   250
370
    30
100
AcDbSpline
210
0.0
220
0.0
230
1.0
 70
     8
 71
     3
 72
     8
 73
     4
 74
     0
 42
0.000000001
 43
0.0000000001
 40
0.0
 40
0.0
 40
0.0
 40
0.0
 40
1.0
 40
1.0
 40
1.0
 40
1.0
 10
6.3159
 20
10.9968
 30
0.0
 10
6.2425
 20
10.9648
 30
0.0
 10
6.1951
 20
10.8923
 30
0.0
 10
6.1951
 20
10.8122
 30
0.0
  0
SPLINE
  5
14E
330
1F
100
AcDbEntity
  8
Vrstva 1
 62
   250
370
    30
100
AcDbSpline
210
0.0
220
0.0
230
1.0
 70
     8
 71
     3
 72
     8
 73
     4
 74
     0
 42
0.000000001
 43
0.0000000001
 40
0.0
 40
0.0
 40
0.0
 40
0.0
 40
1.0
 40
1.0
 40
1.0
 40
1.0
 10
3.5632
 20
10.9599
 30
0.0
 10
3.5045
 20
11.0144
 30
0.0
 10
3.4191
 20
11.0289
 30
0.0
 10
3.3458
 20
10.9968
 30
0.0
  0
SPLINE
  5
14F
330
1F
100
AcDbEntity
  8
Vrstva 1
 62
   250
370
    30
100
AcDbSpline
210
0.0
220
0.0
230
1.0
 70
     8
 71
     3
 72
     8
 73
     4
 74
     0
 42
0.000000001
 43
0.0000000001
 40
0.0
 40
0.0
 40
0.0
 40
0.0
 40
1.0
 40
1.0
 40
1.0
 40
1.0
 10
3.3458
 20
10.9968
 30
0.0
 10
3.2723
 20
10.9648
 30
0.0
 10
3.2249
 20
10.8923
 30
0.0
 10
3.2249
 20
10.8122
 30
0.0
  0
SPLINE
  5
150
330
1F
100
AcDbEntity
  8
Vrstva 1
 62
   250
370
    30
100
AcDbSpline
210
0.0
220
0.0
230
1.0
 70
     8
 71
     3
 72
     8
 73
     4
 74
     0
 42
0.000000001
 43
0.0000000001
 40
0.0
 40
0.0
 40
0.0
 40
0.0
 40
1.0
 40
1.0
 40
1.0
 40
1.0
 10
19.6784
 20
9.8222
 30
0.0
 10
19.613
 20
9.8223
 30
0.0
 10
19.5537
 20
9.7845
 30
0.0
 10
19.5261
 20
9.7253
 30
0.0
  0
SPLINE
  5
151
330
1F
100
AcDbEntity
  8
Vrstva 1
 62
   250
370
    30
100
AcDbSpline
210
0.0
220
0.0
230
1.0
 70
     8
 71
     3
 72
     8
 73
     4
 74
     0
 42
0.000000001
 43
0.0000000001
 40
0.0
 40
0.0
 40
0.0
 40
0.0
 40
1.0
 40
1.0
 40
1.0
 40
1.0
 10
19.372
 20
9.4866
 30
0.0
 10
19.398
 20
9.4866
 30
0.0
 10
19.4217
 20
9.5017
 30
0.0
 10
19.4328
 20
9.5253
 30
0.0
  0
SPLINE
  5
152
330
1F
100
AcDbEntity
  8
Vrstva 1
 62
   250
370
    30
100
AcDbSpline
210
0.0
220
0.0
230
1.0
 70
     8
 71
     3
 72
     8
 73
     4
 74
     0
 42
0.000000001
 43
0.0000000001
 40
0.0
 40
0.0
 40
0.0
 40
0.0
 40
1.0
 40
1.0
 40
1.0
 40
1.0
 10
17.7973
 20
9.5997
 30
0.0
 10
17.9254
 20
9.5256
 30
0.0
 10
18.0705
 20
9.4866
 30
0.0
 10
18.2183
 20
9.4866
 30
0.0
  0
SPLINE
  5
153
330
1F
100
AcDbEntity
  8
Vrstva 1
 62
   250
370
    30
100
AcDbSpline
210
0.0
220
0.0
230
1.0
 70
     8
 71
     3
 72
     8
 73
     4
 74
     0
 42
0.000000001
 43
0.0000000001
 40
0.0
 40
0.0
 40
0.0
 40
0.0
 40
1.0
 40
1.0
 40
1.0
 40
1.0
 10
12.4737
 20
10.9599
 30
0.0
 10
12.415
 20
11.0144
 30
0.0
 10
12.3296
 20
11.0289
 30
0.0
 10
12.2563
 20
10.9968
 30
0.0
  0
SPLINE
  5
154
330
1F
100
AcDbEntity
  8
Vrstva 1
 62
   250
370
    30
100
AcDbSpline
210
0.0
220
0.0
230
1.0
 70
     8
 71
     3
 72
     8
 73
     4
 74
     0
 42
0.000000001
 43
0.0000000001
 40
0.0
 40
0.0
 40
0.0
 40
0.0
 40
1.0
 40
1.0
 40
1.0
 40
1.0
 10
12.2563
 20
10.9968
 30
0.0
 10
12.1829
 20
10.9648
 30
0.0
 10
12.1355
 20
10.8923
 30
0.0
 10
12.1355
 20
10.8122
 30
0.0
  0
SPLINE
  5
155
330
1F
100
AcDbEntity
  8
Vrstva 1
 62
   250
370
    30
100
AcDbSpline
210
0.0
220
0.0
230
1.0
 70
     8
 71
     3
 72
     8
 73
     4
 74
     0
 42
0.000000001
 43
0.0000000001
 40
0.0
 40
0.0
 40
0.0
 40
0.0
 40
1.0
 40
1.0
 40
1.0
 40
1.0
 10
15.4085
 20
10.9846
 30
0.0
 10
15.3462
 20
11.0208
 30
0.0
 10
15.2693
 20
11.0208
 30
0.0
 10
15.2069
 20
10.9849
 30
0.0
  0
SPLINE
  5
156
330
1F
100
AcDbEntity
  8
Vrstva 1
 62
   250
370
    30
100
AcDbSpline
210
0.0
220
0.0
230
1.0
 70
     8
 71
     3
 72
     8
 73
     4
 74
     0
 42
0.000000001
 43
0.0000000001
 40
0.0
 40
0.0
 40
0.0
 40
0.0
 40
1.0
 40
1.0
 40
1.0
 40
1.0
 10
15.2069
 20
10.9849
 30
0.0
 10
15.1446
 20
10.949
 30
0.0
 10
15.106
 20
10.8824
 30
0.0
 10
15.106
 20
10.8103
 30
0.0
  0
SPLINE
  5
157
330
1F
100
AcDbEntity
  8
Vrstva 1
 62
   250
370
    30
100
AcDbSpline
210
0.0
220
0.0
230
1.0
 70
    24
 71
     3
 72
     8
 73
     4
 74
     0
 42
0.000000001
 43
0.0000000001
 40
0.0
 40
0.0
 40
0.0
 40
0.0
 40
1.0
 40
1.0
 40
1.0
 40
1.0
 10
1.3704
 20
5.9909
 30
0.0
 10
1.3704
 20
5.9909
 30
0.0
 10
1.3704
 20
-1.9052
 30
0.0
 10
1.3704
 20
-1.9052
 30
0.0
  0
SPLINE
  5
158
330
1F
100
AcDbEntity
  8
Vrstva 1
 62
   250
370
    30
100
AcDbSpline
210
0.0
220
0.0
230
1.0
 70
    24
 71
     3
 72
     8
 73
     4
 74
     0
 42
0.000000001
 43
0.0000000001
 40
0.0
 40
0.0
 40
0.0
 40
0.0
 40
1.0
 40
1.0
 40
1.0
 40
1.0
 10
-37.6077
 20
11.0443
 30
0.0
 10
-37.6077
 20
11.0443
 30
0.0
 10
-37.631
 20
12.3926
 30
0.0
 10
-37.631
 20
12.3926
 30
0.0
  0
SPLINE
  5
159
330
1F
100
AcDbEntity
  8
Vrstva 1
 62
   250
370
    30
100
AcDbSpline
210
0.0
220
0.0
230
1.0
 70
    24
 71
     3
 72
     8
 73
     4
 74
     0
 42
0.000000001
 43
0.0000000001
 40
0.0
 40
0.0
 40
0.0
 40
0.0
 40
1.0
 40
1.0
 40
1.0
 40
1.0
 10
-37.631
 20
-4.0583
 30
0.0
 10
-37.631
 20
-4.0583
 30
0.0
 10
-37.631
 20
12.3926
 30
0.0
 10
-37.631
 20
12.3926
 30
0.0
  0
SPLINE
  5
15A
330
1F
100
AcDbEntity
  8
Vrstva 1
 62
   250
370
    30
100
AcDbSpline
210
0.0
220
0.0
230
1.0
 70
    24
 71
     3
 72
     8
 73
     4
 74
     0
 42
0.000000001
 43
0.0000000001
 40
0.0
 40
0.0
 40
0.0
 40
0.0
 40
1.0
 40
1.0
 40
1.0
 40
1.0
 10
-37.6077
 20
11.0443
 30
0.0
 10
-37.6077
 20
11.0443
 30
0.0
 10
-37.6077
 20
-2.71
 30
0.0
 10
-37.6077
 20
-2.71
 30
0.0
  0
SPLINE
  5
15B
330
1F
100
AcDbEntity
  8
Vrstva 1
 62
   250
370
    30
100
AcDbSpline
210
0.0
220
0.0
230
1.0
 70
    24
 71
     3
 72
     8
 73
     4
 74
     0
 42
0.000000001
 43
0.0000000001
 40
0.0
 40
0.0
 40
0.0
 40
0.0
 40
1.0
 40
1.0
 40
1.0
 40
1.0
 10
-22.494
 20
10.4234
 30
0.0
 10
-22.494
 20
10.4234
 30
0.0
 10
-22.4962
 20
10.5496
 30
0.0
 10
-22.4962
 20
10.5496
 30
0.0
  0
SPLINE
  5
15C
330
1F
100
AcDbEntity
  8
Vrstva 1
 62
   250
370
    30
100
AcDbSpline
210
0.0
220
0.0
230
1.0
 70
    24
 71
     3
 72
     8
 73
     4
 74
     0
 42
0.000000001
 43
0.0000000001
 40
0.0
 40
0.0
 40
0.0
 40
0.0
 40
1.0
 40
1.0
 40
1.0
 40
1.0
 10
-22.4962
 20
-2.2153
 30
0.0
 10
-22.4962
 20
-2.2153
 30
0.0
 10
-22.4962
 20
10.5496
 30
0.0
 10
-22.4962
 20
10.5496
 30
0.0
  0
SPLINE
  5
15D
330
1F
100
AcDbEntity
  8
Vrstva 1
 62
   250
370
    30
100
AcDbSpline
210
0.0
220
0.0
230
1.0
 70
    24
 71
     3
 72
     8
 73
     4
 74
     0
 42
0.000000001
 43
0.0000000001
 40
0.0
 40
0.0
 40
0.0
 40
0.0
 40
1.0
 40
1.0
 40
1.0
 40
1.0
 10
-22.494
 20
10.4234
 30
0.0
 10
-22.494
 20
10.4234
 30
0.0
 10
-22.494
 20
-2.0891
 30
0.0
 10
-22.494
 20
-2.0891
 30
0.0
  0
SPLINE
  5
15E
330
1F
100
AcDbEntity
  8
Vrstva 1
 62
   250
370
    30
100
AcDbSpline
210
0.0
220
0.0
230
1.0
 70
    24
 71
     3
 72
     8
 73
     4
 74
     0
 42
0.000000001
 43
0.0000000001
 40
0.0
 40
0.0
 40
0.0
 40
0.0
 40
1.0
 40
1.0
 40
1.0
 40
1.0
 10
-19.8463
 20
10.2585
 30
0.0
 10
-19.8463
 20
10.2585
 30
0.0
 10
-22.3262
 20
10.2585
 30
0.0
 10
-22.3262
 20
10.2585
 30
0.0
  0
SPLINE
  5
15F
330
1F
100
AcDbEntity
  8
Vrstva 1
 62
   250
370
    30
100
AcDbSpline
210
0.0
220
0.0
230
1.0
 70
    24
 71
     3
 72
     8
 73
     4
 74
     0
 42
0.000000001
 43
0.0000000001
 40
0.0
 40
0.0
 40
0.0
 40
0.0
 40
1.0
 40
1.0
 40
1.0
 40
1.0
 10
-22.8318
 20
10.8794
 30
0.0
 10
-22.8318
 20
10.8794
 30
0.0
 10
-37.4397
 20
10.8794
 30
0.0
 10
-37.4397
 20
10.8794
 30
0.0
  0
SPLINE
  5
160
330
1F
100
AcDbEntity
  8
Vrstva 1
 62
   250
370
    30
100
AcDbSpline
210
0.0
220
0.0
230
1.0
 70
    24
 71
     3
 72
     8
 73
     4
 74
     0
 42
0.000000001
 43
0.0000000001
 40
0.0
 40
0.0
 40
0.0
 40
0.0
 40
1.0
 40
1.0
 40
1.0
 40
1.0
 10
-19.6786
 20
-1.7565
 30
0.0
 10
-19.6786
 20
-1.7565
 30
0.0
 10
-19.6786
 20
10.0906
 30
0.0
 10
-19.6786
 20
10.0906
 30
0.0
  0
SPLINE
  5
161
330
1F
100
AcDbEntity
  8
Vrstva 1
 62
   250
370
    30
100
AcDbSpline
210
0.0
220
0.0
230
1.0
 70
    24
 71
     3
 72
     8
 73
     4
 74
     0
 42
0.000000001
 43
0.0000000001
 40
0.0
 40
0.0
 40
0.0
 40
0.0
 40
1.0
 40
1.0
 40
1.0
 40
1.0
 10
-37.799
 20
12.5576
 30
0.0
 10
-37.799
 20
12.5576
 30
0.0
 10
-53.7435
 20
12.5576
 30
0.0
 10
-53.7435
 20
12.5576
 30
0.0
  0
SPLINE
  5
162
330
1F
100
AcDbEntity
  8
Vrstva 1
 62
   250
370
    30
100
AcDbSpline
210
0.0
220
0.0
230
1.0
 70
    24
 71
     3
 72
     8
 73
     4
 74
     0
 42
0.000000001
 43
0.0000000001
 40
0.0
 40
0.0
 40
0.0
 40
0.0
 40
1.0
 40
1.0
 40
1.0
 40
1.0
 10
19.6784
 20
10.0906
 30
0.0
 10
19.6784
 20
10.0906
 30
0.0
 10
19.6784
 20
-1.7565
 30
0.0
 10
19.6784
 20
-1.7565
 30
0.0
  0
SPLINE
  5
163
330
1F
100
AcDbEntity
  8
Vrstva 1
 62
   250
370
    30
100
AcDbSpline
210
0.0
220
0.0
230
1.0
 70
    24
 71
     3
 72
     8
 73
     4
 74
     0
 42
0.000000001
 43
0.0000000001
 40
0.0
 40
0.0
 40
0.0
 40
0.0
 40
1.0
 40
1.0
 40
1.0
 40
1.0
 10
37.7988
 20
-4.2232
 30
0.0
 10
37.7988
 20
-4.2232
 30
0.0
 10
53.7435
 20
-4.2232
 30
0.0
 10
53.7435
 20
-4.2232
 30
0.0
  0
SPLINE
  5
164
330
1F
100
AcDbEntity
  8
Vrstva 1
 62
   250
370
    30
100
AcDbSpline
210
0.0
220
0.0
230
1.0
 70
    24
 71
     3
 72
     8
 73
     4
 74
     0
 42
0.000000001
 43
0.0000000001
 40
0.0
 40
0.0
 40
0.0
 40
0.0
 40
1.0
 40
1.0
 40
1.0
 40
1.0
 10
22.494
 20
-2.0891
 30
0.0
 10
22.494
 20
-2.0891
 30
0.0
 10
22.4962
 20
-2.2153
 30
0.0
 10
22.4962
 20
-2.2153
 30
0.0
  0
SPLINE
  5
165
330
1F
100
AcDbEntity
  8
Vrstva 1
 62
   250
370
    30
100
AcDbSpline
210
0.0
220
0.0
230
1.0
 70
    24
 71
     3
 72
     8
 73
     4
 74
     0
 42
0.000000001
 43
0.0000000001
 40
0.0
 40
0.0
 40
0.0
 40
0.0
 40
1.0
 40
1.0
 40
1.0
 40
1.0
 10
22.494
 20
-2.0891
 30
0.0
 10
22.494
 20
-2.0891
 30
0.0
 10
22.494
 20
10.4234
 30
0.0
 10
22.494
 20
10.4234
 30
0.0
  0
SPLINE
  5
166
330
1F
100
AcDbEntity
  8
Vrstva 1
 62
   250
370
    30
100
AcDbSpline
210
0.0
220
0.0
230
1.0
 70
    24
 71
     3
 72
     8
 73
     4
 74
     0
 42
0.000000001
 43
0.0000000001
 40
0.0
 40
0.0
 40
0.0
 40
0.0
 40
1.0
 40
1.0
 40
1.0
 40
1.0
 10
22.8318
 20
-2.5452
 30
0.0
 10
22.8318
 20
-2.5452
 30
0.0
 10
37.4397
 20
-2.5452
 30
0.0
 10
37.4397
 20
-2.5452
 30
0.0
  0
SPLINE
  5
167
330
1F
100
AcDbEntity
  8
Vrstva 1
 62
   250
370
    30
100
AcDbSpline
210
0.0
220
0.0
230
1.0
 70
    24
 71
     3
 72
     8
 73
     4
 74
     0
 42
0.000000001
 43
0.0000000001
 40
0.0
 40
0.0
 40
0.0
 40
0.0
 40
1.0
 40
1.0
 40
1.0
 40
1.0
 10
19.8463
 20
-1.9244
 30
0.0
 10
19.8463
 20
-1.9244
 30
0.0
 10
22.3261
 20
-1.9244
 30
0.0
 10
22.3261
 20
-1.9244
 30
0.0
  0
SPLINE
  5
168
330
1F
100
AcDbEntity
  8
Vrstva 1
 62
   250
370
    30
100
AcDbSpline
210
0.0
220
0.0
230
1.0
 70
    24
 71
     3
 72
     8
 73
     4
 74
     0
 42
0.000000001
 43
0.0000000001
 40
0.0
 40
0.0
 40
0.0
 40
0.0
 40
1.0
 40
1.0
 40
1.0
 40
1.0
 10
37.6075
 20
-2.71
 30
0.0
 10
37.6075
 20
-2.71
 30
0.0
 10
37.631
 20
-4.0583
 30
0.0
 10
37.631
 20
-4.0583
 30
0.0
  0
SPLINE
  5
169
330
1F
100
AcDbEntity
  8
Vrstva 1
 62
   250
370
    30
100
AcDbSpline
210
0.0
220
0.0
230
1.0
 70
    24
 71
     3
 72
     8
 73
     4
 74
     0
 42
0.000000001
 43
0.0000000001
 40
0.0
 40
0.0
 40
0.0
 40
0.0
 40
1.0
 40
1.0
 40
1.0
 40
1.0
 10
37.6075
 20
-2.71
 30
0.0
 10
37.6075
 20
-2.71
 30
0.0
 10
37.6075
 20
11.0443
 30
0.0
 10
37.6075
 20
11.0443
 30
0.0
  0
SPLINE
  5
16A
330
1F
100
AcDbEntity
  8
Vrstva 1
 62
   250
370
    30
100
AcDbSpline
210
0.0
220
0.0
230
1.0
 70
    24
 71
     3
 72
     8
 73
     4
 74
     0
 42
0.000000001
 43
0.0000000001
 40
0.0
 40
0.0
 40
0.0
 40
0.0
 40
1.0
 40
1.0
 40
1.0
 40
1.0
 10
37.631
 20
12.3926
 30
0.0
 10
37.631
 20
12.3926
 30
0.0
 10
37.631
 20
-4.0583
 30
0.0
 10
37.631
 20
-4.0583
 30
0.0
  0
SPLINE
  5
16B
330
1F
100
AcDbEntity
  8
Vrstva 1
 62
   250
370
    30
100
AcDbSpline
210
0.0
220
0.0
230
1.0
 70
     8
 71
     3
 72
     8
 73
     4
 74
     0
 42
0.000000001
 43
0.0000000001
 40
0.0
 40
0.0
 40
0.0
 40
0.0
 40
1.0
 40
1.0
 40
1.0
 40
1.0
 10
-22.8318
 20
-2.5452
 30
0.0
 10
-22.6488
 20
-2.5452
 30
0.0
 10
-22.4994
 20
-2.3983
 30
0.0
 10
-22.4962
 20
-2.2153
 30
0.0
  0
SPLINE
  5
16C
330
1F
100
AcDbEntity
  8
Vrstva 1
 62
   250
370
    30
100
AcDbSpline
210
0.0
220
0.0
230
1.0
 70
     8
 71
     3
 72
     8
 73
     4
 74
     0
 42
0.000000001
 43
0.0000000001
 40
0.0
 40
0.0
 40
0.0
 40
0.0
 40
1.0
 40
1.0
 40
1.0
 40
1.0
 10
-37.799
 20
-4.2232
 30
0.0
 10
-37.7073
 20
-4.2232
 30
0.0
 10
-37.6327
 20
-4.1499
 30
0.0
 10
-37.631
 20
-4.0583
 30
0.0
  0
SPLINE
  5
16D
330
1F
100
AcDbEntity
  8
Vrstva 1
 62
   250
370
    30
100
AcDbSpline
210
0.0
220
0.0
230
1.0
 70
     8
 71
     3
 72
     8
 73
     4
 74
     0
 42
0.000000001
 43
0.0000000001
 40
0.0
 40
0.0
 40
0.0
 40
0.0
 40
1.0
 40
1.0
 40
1.0
 40
1.0
 10
-19.8463
 20
-1.9244
 30
0.0
 10
-19.7537
 20
-1.9244
 30
0.0
 10
-19.6786
 20
-1.8492
 30
0.0
 10
-19.6786
 20
-1.7565
 30
0.0
  0
SPLINE
  5
16E
330
1F
100
AcDbEntity
  8
Vrstva 1
 62
   250
370
    30
100
AcDbSpline
210
0.0
220
0.0
230
1.0
 70
     8
 71
     3
 72
     8
 73
     4
 74
     0
 42
0.000000001
 43
0.0000000001
 40
0.0
 40
0.0
 40
0.0
 40
0.0
 40
1.0
 40
1.0
 40
1.0
 40
1.0
 10
-22.3262
 20
-1.9244
 30
0.0
 10
-22.4177
 20
-1.9244
 30
0.0
 10
-22.4925
 20
-1.9977
 30
0.0
 10
-22.494
 20
-2.0891
 30
0.0
  0
SPLINE
  5
16F
330
1F
100
AcDbEntity
  8
Vrstva 1
 62
   250
370
    30
100
AcDbSpline
210
0.0
220
0.0
230
1.0
 70
     8
 71
     3
 72
     8
 73
     4
 74
     0
 42
0.000000001
 43
0.0000000001
 40
0.0
 40
0.0
 40
0.0
 40
0.0
 40
1.0
 40
1.0
 40
1.0
 40
1.0
 10
-37.4397
 20
-2.5452
 30
0.0
 10
-37.5314
 20
-2.5452
 30
0.0
 10
-37.6061
 20
-2.6185
 30
0.0
 10
-37.6077
 20
-2.71
 30
0.0
  0
SPLINE
  5
170
330
1F
100
AcDbEntity
  8
Vrstva 1
 62
   250
370
    30
100
AcDbSpline
210
0.0
220
0.0
230
1.0
 70
     8
 71
     3
 72
     8
 73
     4
 74
     0
 42
0.000000001
 43
0.0000000001
 40
0.0
 40
0.0
 40
0.0
 40
0.0
 40
1.0
 40
1.0
 40
1.0
 40
1.0
 10
-22.4962
 20
10.5496
 30
0.0
 10
-22.4994
 20
10.7328
 30
0.0
 10
-22.6488
 20
10.8794
 30
0.0
 10
-22.8318
 20
10.8794
 30
0.0
  0
SPLINE
  5
171
330
1F
100
AcDbEntity
  8
Vrstva 1
 62
   250
370
    30
100
AcDbSpline
210
0.0
220
0.0
230
1.0
 70
     8
 71
     3
 72
     8
 73
     4
 74
     0
 42
0.000000001
 43
0.0000000001
 40
0.0
 40
0.0
 40
0.0
 40
0.0
 40
1.0
 40
1.0
 40
1.0
 40
1.0
 10
-37.631
 20
12.3926
 30
0.0
 10
-37.6327
 20
12.4841
 30
0.0
 10
-37.7073
 20
12.5576
 30
0.0
 10
-37.799
 20
12.5576
 30
0.0
  0
SPLINE
  5
172
330
1F
100
AcDbEntity
  8
Vrstva 1
 62
   250
370
    30
100
AcDbSpline
210
0.0
220
0.0
230
1.0
 70
     8
 71
     3
 72
     8
 73
     4
 74
     0
 42
0.000000001
 43
0.0000000001
 40
0.0
 40
0.0
 40
0.0
 40
0.0
 40
1.0
 40
1.0
 40
1.0
 40
1.0
 10
-19.6786
 20
10.0906
 30
0.0
 10
-19.6786
 20
10.1833
 30
0.0
 10
-19.7537
 20
10.2585
 30
0.0
 10
-19.8463
 20
10.2585
 30
0.0
  0
SPLINE
  5
173
330
1F
100
AcDbEntity
  8
Vrstva 1
 62
   250
370
    30
100
AcDbSpline
210
0.0
220
0.0
230
1.0
 70
     8
 71
     3
 72
     8
 73
     4
 74
     0
 42
0.000000001
 43
0.0000000001
 40
0.0
 40
0.0
 40
0.0
 40
0.0
 40
1.0
 40
1.0
 40
1.0
 40
1.0
 10
-37.6077
 20
11.0443
 30
0.0
 10
-37.6061
 20
10.9527
 30
0.0
 10
-37.5314
 20
10.8794
 30
0.0
 10
-37.4397
 20
10.8794
 30
0.0
  0
SPLINE
  5
174
330
1F
100
AcDbEntity
  8
Vrstva 1
 62
   250
370
    30
100
AcDbSpline
210
0.0
220
0.0
230
1.0
 70
     8
 71
     3
 72
     8
 73
     4
 74
     0
 42
0.000000001
 43
0.0000000001
 40
0.0
 40
0.0
 40
0.0
 40
0.0
 40
1.0
 40
1.0
 40
1.0
 40
1.0
 10
-22.494
 20
10.4234
 30
0.0
 10
-22.4925
 20
10.3318
 30
0.0
 10
-22.4177
 20
10.2585
 30
0.0
 10
-22.3262
 20
10.2585
 30
0.0
  0
SPLINE
  5
175
330
1F
100
AcDbEntity
  8
Vrstva 1
 62
   250
370
    30
100
AcDbSpline
210
0.0
220
0.0
230
1.0
 70
     8
 71
     3
 72
     8
 73
     4
 74
     0
 42
0.000000001
 43
0.0000000001
 40
0.0
 40
0.0
 40
0.0
 40
0.0
 40
1.0
 40
1.0
 40
1.0
 40
1.0
 10
19.6784
 20
-1.7565
 30
0.0
 10
19.6784
 20
-1.8492
 30
0.0
 10
19.7535
 20
-1.9244
 30
0.0
 10
19.8463
 20
-1.9244
 30
0.0
  0
SPLINE
  5
176
330
1F
100
AcDbEntity
  8
Vrstva 1
 62
   250
370
    30
100
AcDbSpline
210
0.0
220
0.0
230
1.0
 70
     8
 71
     3
 72
     8
 73
     4
 74
     0
 42
0.000000001
 43
0.0000000001
 40
0.0
 40
0.0
 40
0.0
 40
0.0
 40
1.0
 40
1.0
 40
1.0
 40
1.0
 10
19.8463
 20
10.2585
 30
0.0
 10
19.7535
 20
10.2585
 30
0.0
 10
19.6784
 20
10.1833
 30
0.0
 10
19.6784
 20
10.0906
 30
0.0
  0
SPLINE
  5
177
330
1F
100
AcDbEntity
  8
Vrstva 1
 62
   250
370
    30
100
AcDbSpline
210
0.0
220
0.0
230
1.0
 70
     8
 71
     3
 72
     8
 73
     4
 74
     0
 42
0.000000001
 43
0.0000000001
 40
0.0
 40
0.0
 40
0.0
 40
0.0
 40
1.0
 40
1.0
 40
1.0
 40
1.0
 10
22.4962
 20
-2.2153
 30
0.0
 10
22.4993
 20
-2.3983
 30
0.0
 10
22.6485
 20
-2.5452
 30
0.0
 10
22.8318
 20
-2.5452
 30
0.0
  0
SPLINE
  5
178
330
1F
100
AcDbEntity
  8
Vrstva 1
 62
   250
370
    30
100
AcDbSpline
210
0.0
220
0.0
230
1.0
 70
     8
 71
     3
 72
     8
 73
     4
 74
     0
 42
0.000000001
 43
0.0000000001
 40
0.0
 40
0.0
 40
0.0
 40
0.0
 40
1.0
 40
1.0
 40
1.0
 40
1.0
 10
37.631
 20
-4.0583
 30
0.0
 10
37.6325
 20
-4.1499
 30
0.0
 10
37.7073
 20
-4.2232
 30
0.0
 10
37.7988
 20
-4.2232
 30
0.0
  0
SPLINE
  5
179
330
1F
100
AcDbEntity
  8
Vrstva 1
 62
   250
370
    30
100
AcDbSpline
210
0.0
220
0.0
230
1.0
 70
     8
 71
     3
 72
     8
 73
     4
 74
     0
 42
0.000000001
 43
0.0000000001
 40
0.0
 40
0.0
 40
0.0
 40
0.0
 40
1.0
 40
1.0
 40
1.0
 40
1.0
 10
37.6075
 20
-2.71
 30
0.0
 10
37.6058
 20
-2.6185
 30
0.0
 10
37.5312
 20
-2.5452
 30
0.0
 10
37.4397
 20
-2.5452
 30
0.0
  0
SPLINE
  5
17A
330
1F
100
AcDbEntity
  8
Vrstva 1
 62
   250
370
    30
100
AcDbSpline
210
0.0
220
0.0
230
1.0
 70
     8
 71
     3
 72
     8
 73
     4
 74
     0
 42
0.000000001
 43
0.0000000001
 40
0.0
 40
0.0
 40
0.0
 40
0.0
 40
1.0
 40
1.0
 40
1.0
 40
1.0
 10
22.494
 20
-2.0891
 30
0.0
 10
22.4923
 20
-1.9977
 30
0.0
 10
22.4177
 20
-1.9244
 30
0.0
 10
22.3261
 20
-1.9244
 30
0.0
  0
SPLINE
  5
17B
330
1F
100
AcDbEntity
  8
Vrstva 1
 62
   250
370
    30
100
AcDbSpline
210
0.0
220
0.0
230
1.0
 70
     8
 71
     3
 72
     8
 73
     4
 74
     0
 42
0.000000001
 43
0.0000000001
 40
0.0
 40
0.0
 40
0.0
 40
0.0
 40
1.0
 40
1.0
 40
1.0
 40
1.0
 10
22.8318
 20
10.8794
 30
0.0
 10
22.6485
 20
10.8794
 30
0.0
 10
22.4993
 20
10.7328
 30
0.0
 10
22.4962
 20
10.5496
 30
0.0
  0
SPLINE
  5
17C
330
1F
100
AcDbEntity
  8
Vrstva 1
 62
   250
370
    30
100
AcDbSpline
210
0.0
220
0.0
230
1.0
 70
     8
 71
     3
 72
     8
 73
     4
 74
     0
 42
0.000000001
 43
0.0000000001
 40
0.0
 40
0.0
 40
0.0
 40
0.0
 40
1.0
 40
1.0
 40
1.0
 40
1.0
 10
37.7988
 20
12.5576
 30
0.0
 10
37.7073
 20
12.5576
 30
0.0
 10
37.6325
 20
12.4841
 30
0.0
 10
37.631
 20
12.3926
 30
0.0
  0
SPLINE
  5
17D
330
1F
100
AcDbEntity
  8
Vrstva 1
 62
   250
370
    30
100
AcDbSpline
210
0.0
220
0.0
230
1.0
 70
     8
 71
     3
 72
     8
 73
     4
 74
     0
 42
0.000000001
 43
0.0000000001
 40
0.0
 40
0.0
 40
0.0
 40
0.0
 40
1.0
 40
1.0
 40
1.0
 40
1.0
 10
22.3261
 20
10.2585
 30
0.0
 10
22.4177
 20
10.2585
 30
0.0
 10
22.4923
 20
10.3318
 30
0.0
 10
22.494
 20
10.4234
 30
0.0
  0
SPLINE
  5
17E
330
1F
100
AcDbEntity
  8
Vrstva 1
 62
   250
370
    30
100
AcDbSpline
210
0.0
220
0.0
230
1.0
 70
     8
 71
     3
 72
     8
 73
     4
 74
     0
 42
0.000000001
 43
0.0000000001
 40
0.0
 40
0.0
 40
0.0
 40
0.0
 40
1.0
 40
1.0
 40
1.0
 40
1.0
 10
37.4397
 20
10.8794
 30
0.0
 10
37.5312
 20
10.8794
 30
0.0
 10
37.6058
 20
10.9527
 30
0.0
 10
37.6075
 20
11.0443
 30
0.0
  0
SPLINE
  5
17F
330
1F
100
AcDbEntity
  8
Vrstva 1
 62
   250
370
    30
100
AcDbSpline
210
0.0
220
0.0
230
1.0
 70
     8
 71
     3
 72
    12
 73
     8
 74
     0
 42
0.000000001
 43
0.0000000001
 40
0.0
 40
0.0
 40
0.0
 40
0.0
 40
0.3333333333333333
 40
0.3333333333333333
 40
0.3333333333333333
 40
0.3333333333333333
 40
1.0
 40
1.0
 40
1.0
 40
1.0
 10
-0.5625
 20
10.4576
 30
0.0
 10
0.3862
 20
8.5634
 30
0.0
 10
-0.7922
 20
4.3378
 30
0.0
 10
-0.7922
 20
1.9687
 30
0.0
 10
-0.7922
 20
1.9687
 30
0.0
 10
-0.7922
 20
1.405
 30
0.0
 10
-0.8532
 20
-1.859
 30
0.0
 10
-0.6287
 20
-2.1905
 30
0.0
  0
SPLINE
  5
180
330
1F
100
AcDbEntity
  8
Vrstva 1
 62
   250
370
    30
100
AcDbSpline
210
0.0
220
0.0
230
1.0
 70
     8
 71
     3
 72
    12
 73
     8
 74
     0
 42
0.000000001
 43
0.0000000001
 40
0.0
 40
0.0
 40
0.0
 40
0.0
 40
0.3333333333333333
 40
0.3333333333333333
 40
0.3333333333333333
 40
0.3333333333333333
 40
1.0
 40
1.0
 40
1.0
 40
1.0
 10
1.2135
 20
10.2348
 30
0.0
 10
2.4395
 20
8.2454
 30
0.0
 10
0.3972
 20
4.0422
 30
0.0
 10
0.3972
 20
1.5541
 30
0.0
 10
0.3972
 20
1.5541
 30
0.0
 10
0.3972
 20
1.1381
 30
0.0
 10
0.4045
 20
-0.8884
 30
0.0
 10
1.3528
 20
-1.9798
 30
0.0
  0
ENDSEC
  0
SECTION
  2
OBJECTS
  0
DICTIONARY
  5
C
330
0
100
AcDbDictionary
281
     1
  3
ACAD_DETAILVIEWSTYLE
350
1BC
  3
ACAD_GROUP
350
D
  3
ACAD_LAYOUT
350
1A
  3
ACAD_MATERIAL
350
43
  3
ACAD_MLEADERSTYLE
350
6B
  3
ACAD_MLINESTYLE
350
17
  3
ACAD_PLOTSETTINGS
350
19
  3
ACAD_PLOTSTYLENAME
350
E
  3
ACAD_SCALELIST
350
47
  3
ACAD_SECTIONVIEWSTYLE
350
1BD
  3
ACAD_TABLESTYLE
350
69
  3
ACAD_VISUALSTYLE
350
2A
  3
ACDB_RECOMPOSE_DATA
350
1B9
  3
AcDbVariableDictionary
350
181
  0
SUN
  5
6D
330
29
100
AcDbSun
 90
        1
290
     0
 63
     7
421
 16777215
 40
1.0
291
     1
 91
  2455826
 92
 54000000
292
     0
 70
     2
 71
   256
280
     1
  0
DICTIONARY
  5
1BC
102
{ACAD_REACTORS
330
C
102
}
330
C
100
AcDbDictionary
281
     1
  0
DICTIONARY
  5
D
102
{ACAD_REACTORS
330
C
102
}
330
C
100
AcDbDictionary
281
     1
  0
DICTIONARY
  5
1A
102
{ACAD_REACTORS
330
C
102
}
330
C
100
AcDbDictionary
281
     1
  3
Layout1
350
1E
  3
Layout2
350
26
  3
Model
350
22
  0
DICTIONARY
  5
43
102
{ACAD_REACTORS
330
C
102
}
330
C
100
AcDbDictionary
281
     1
  3
ByBlock
350
45
  3
ByLayer
350
44
  3
Global
350
46
  0
DICTIONARY
  5
6B
102
{ACAD_REACTORS
330
C
102
}
330
C
100
AcDbDictionary
281
     1
  3
Standard
350
6C
  0
DICTIONARY
  5
17
102
{ACAD_REACTORS
330
C
102
}
330
C
100
AcDbDictionary
281
     1
  3
Standard
350
18
  0
DICTIONARY
  5
19
102
{ACAD_REACTORS
330
C
102
}
330
C
100
AcDbDictionary
281
     1
  0
ACDBDICTIONARYWDFLT
  5
E
102
{ACAD_REACTORS
330
C
102
}
330
C
100
AcDbDictionary
281
     1
  3
Normal
350
F
100
AcDbDictionaryWithDefault
340
F
  0
DICTIONARY
  5
47
102
{ACAD_REACTORS
330
C
102
}
330
C
100
AcDbDictionary
281
     1
  3
A0
350
48
  3
A1
350
49
  3
A2
350
4A
  3
A3
350
4B
  3
A4
350
4C
  3
A5
350
4D
  3
A6
350
4E
  3
A7
350
4F
  3
A8
350
50
  3
A9
350
51
  3
B0
350
52
  3
B1
350
53
  3
B2
350
54
  3
B3
350
55
  3
B4
350
56
  3
B5
350
57
  3
B6
350
58
  3
B7
350
59
  3
B8
350
5A
  3
B9
350
5B
  3
C0
350
5C
  3
C1
350
5D
  3
C2
350
5E
  3
C3
350
5F
  3
C4
350
60
  3
C5
350
61
  3
C6
350
62
  3
C7
350
63
  3
C8
350
64
  3
C9
350
65
  3
D0
350
66
  3
D1
350
67
  3
D2
350
68
  0
DICTIONARY
  5
1BD
102
{ACAD_REACTORS
330
C
102
}
330
C
100
AcDbDictionary
281
     1
  0
DICTIONARY
  5
69
102
{ACAD_REACTORS
330
C
102
}
330
C
100
AcDbDictionary
281
     1
  3
Standard
350
6A
  0
DICTIONARY
  5
2A
102
{ACAD_REACTORS
330
C
102
}
330
C
100
AcDbDictionary
281
     1
  3
2dWireframe
350
2F
  3
Basic
350
32
  3
Brighten
350
36
  3
ColorChange
350
3A
  3
Conceptual
350
34
  3
Dim
350
35
  3
EdgeColorOff
350
3D
  3
Facepattern
350
39
  3
Flat
350
2B
  3
FlatWithEdges
350
2C
  3
Gouraud
350
2D
  3
GouraudWithEdges
350
2E
  3
Hidden
350
31
  3
JitterOff
350
3B
  3
Linepattern
350
38
  3
OverhangOff
350
3C
  3
Realistic
350
33
  3
Shaded
350
42
  3
Shaded with edges
350
41
  3
Shades of Gray
350
3E
  3
Sketchy
350
3F
  3
Thicken
350
37
  3
Wireframe
350
30
  3
X-Ray
350
40
  0
XRECORD
  5
1B9
102
{ACAD_REACTORS
330
C
102
}
330
C
100
AcDbXrecord
280
     1
 90
        1
330
6A
  0
DICTIONARY
  5
181
102
{ACAD_REACTORS
330
C
102
}
330
C
100
AcDbDictionary
281
     1
  3
CANNOSCALE
350
182
  3
CMLEADERSTYLE
350
1BB
  3
CTABLESTYLE
350
1BA
  3
XCLIPFRAME
350
183
  0
LAYOUT
  5
1E
102
{ACAD_REACTORS
330
1A
102
}
330
1A
100
AcDbPlotSettings
  1

  2
none_device
  4

  6

 40
0.0
 41
0.0
 42
0.0
 43
0.0
 44
0.0
 45
0.0
 46
0.0
 47
0.0
 48
0.0
 49
0.0
140
0.0
141
0.0
142
1.0
143
1.0
 70
   688
 72
     0
 73
     0
 74
     5
  7

 75
    16
 76
     0
 77
     2
 78
   300
147
1.0
148
0.0
149
0.0
100
AcDbLayout
  1
Layout1
 70
     1
 71
     1
 10
0.0
 20
0.0
 11
12.0
 21
9.0
 12
0.0
 22
0.0
 32
0.0
 14
1.000000000000000E+20
 24
1.000000000000000E+20
 34
1.000000000000000E+20
 15
-1.000000000000000E+20
 25
-1.000000000000000E+20
 35
-1.000000000000000E+20
146
0.0
 13
0.0
 23
0.0
 33
0.0
 16
1.0
 26
0.0
 36
0.0
 17
0.0
 27
1.0
 37
0.0
 76
     0
330
1B
  0
LAYOUT
  5
26
102
{ACAD_REACTORS
330
1A
102
}
330
1A
100
AcDbPlotSettings
  1

  2
none_device
  4

  6

 40
0.0
 41
0.0
 42
0.0
 43
0.0
 44
0.0
 45
0.0
 46
0.0
 47
0.0
 48
0.0
 49
0.0
140
0.0
141
0.0
142
1.0
143
1.0
 70
   688
 72
     0
 73
     0
 74
     5
  7

 75
    16
 76
     0
 77
     2
 78
   300
147
1.0
148
0.0
149
0.0
100
AcDbLayout
  1
Layout2
 70
     1
 71
     2
 10
0.0
 20
0.0
 11
0.0
 21
0.0
 12
0.0
 22
0.0
 32
0.0
 14
0.0
 24
0.0
 34
0.0
 15
0.0
 25
0.0
 35
0.0
146
0.0
 13
0.0
 23
0.0
 33
0.0
 16
1.0
 26
0.0
 36
0.0
 17
0.0
 27
1.0
 37
0.0
 76
     0
330
23
  0
LAYOUT
  5
22
102
{ACAD_REACTORS
330
1A
102
}
330
1A
100
AcDbPlotSettings
  1

  2
none_device
  4
Letter_(8.50_x_11.00_Inches)
  6

 40
6.35
 41
6.35
 42
6.35000508
 43
6.35000508
 44
215.9
 45
279.4
 46
0.0
 47
0.0
 48
0.0
 49
0.0
140
0.0
141
0.0
142
1.0
143
1.0
 70
  1712
 72
     0
 73
     0
 74
     0
  7

 75
     0
 76
     0
 77
     2
 78
   300
147
1.0
148
0.0
149
0.0
100
AcDbLayout
  1
Model
 70
     1
 71
     0
 10
0.0
 20
0.0
 11
12.0
 21
9.0
 12
0.0
 22
0.0
 32
0.0
 14
-56.3737
 24
-15.196
 34
0.0
 15
56.0829
 25
15.196
 35
0.0
146
0.0
 13
0.0
 23
0.0
 33
0.0
 16
1.0
 26
0.0
 36
0.0
 17
0.0
 27
1.0
 37
0.0
 76
     0
330
1F
331
29
  0
MATERIAL
  5
45
102
{ACAD_REACTORS
330
43
102
}
330
43
100
AcDbMaterial
  1
ByBlock
 72
     1
 94
      127
  0
MATERIAL
  5
44
102
{ACAD_REACTORS
330
43
102
}
330
43
100
AcDbMaterial
  1
ByLayer
 72
     1
 94
      127
  0
MATERIAL
  5
46
102
{ACAD_REACTORS
330
43
102
}
330
43
100
AcDbMaterial
  1
Global
 72
     1
 94
      127
  0
MLEADERSTYLE
  5
6C
102
{ACAD_REACTORS
330
6B
102
}
102
{ACAD_XDICTIONARY
360
1B7
102
}
330
6B
100
AcDbMLeaderStyle
170
     2
171
     1
172
     0
 90
        2
 40
0.0
 41
0.0
173
     1
 91
-1056964608
340
14
 92
       -2
290
     1
 42
0.09
291
     1
 43
0.36
  3
Standard
341
0
 44
0.18
300

342
11
174
     1
178
     6
175
     1
176
     0
 93
-1056964608
 45
0.18
292
     0
297
     0
 46
0.18
343
0
 94
-1056964608
 47
1.0
 49
1.0
140
1.0
293
     1
141
0.0
294
     1
177
     0
142
1.0
295
     0
296
     0
143
0.125
1001
ACAD_MLEADERVER
1070
     2
  0
MLINESTYLE
  5
18
102
{ACAD_REACTORS
330
17
102
}
330
17
100
AcDbMlineStyle
  2
Standard
 70
     0
  3

 62
   256
 51
90.0
 52
90.0
 71
     2
 49
0.5
 62
   256
  6
BYLAYER
 49
-0.5
 62
   256
  6
BYLAYER
  0
ACDBPLACEHOLDER
  5
F
102
{ACAD_REACTORS
330
E
102
}
330
E
  0
SCALE
  5
48
102
{ACAD_REACTORS
330
47
102
}
330
47
100
AcDbScale
 70
     0
300
1:1
140
1.0
141
1.0
290
     1
  0
SCALE
  5
49
102
{ACAD_REACTORS
330
47
102
}
330
47
100
AcDbScale
 70
     0
300
1:2
140
1.0
141
2.0
290
     0
  0
SCALE
  5
4A
102
{ACAD_REACTORS
330
47
102
}
330
47
100
AcDbScale
 70
     0
300
1:4
140
1.0
141
4.0
290
     0
  0
SCALE
  5
4B
102
{ACAD_REACTORS
330
47
102
}
330
47
100
AcDbScale
 70
     0
300
1:5
140
1.0
141
5.0
290
     0
  0
SCALE
  5
4C
102
{ACAD_REACTORS
330
47
102
}
330
47
100
AcDbScale
 70
     0
300
1:8
140
1.0
141
8.0
290
     0
  0
SCALE
  5
4D
102
{ACAD_REACTORS
330
47
102
}
330
47
100
AcDbScale
 70
     0
300
1:10
140
1.0
141
10.0
290
     0
  0
SCALE
  5
4E
102
{ACAD_REACTORS
330
47
102
}
330
47
100
AcDbScale
 70
     0
300
1:16
140
1.0
141
16.0
290
     0
  0
SCALE
  5
4F
102
{ACAD_REACTORS
330
47
102
}
330
47
100
AcDbScale
 70
     0
300
1:20
140
1.0
141
20.0
290
     0
  0
SCALE
  5
50
102
{ACAD_REACTORS
330
47
102
}
330
47
100
AcDbScale
 70
     0
300
1:30
140
1.0
141
30.0
290
     0
  0
SCALE
  5
51
102
{ACAD_REACTORS
330
47
102
}
330
47
100
AcDbScale
 70
     0
300
1:40
140
1.0
141
40.0
290
     0
  0
SCALE
  5
52
102
{ACAD_REACTORS
330
47
102
}
330
47
100
AcDbScale
 70
     0
300
1:50
140
1.0
141
50.0
290
     0
  0
SCALE
  5
53
102
{ACAD_REACTORS
330
47
102
}
330
47
100
AcDbScale
 70
     0
300
1:100
140
1.0
141
100.0
290
     0
  0
SCALE
  5
54
102
{ACAD_REACTORS
330
47
102
}
330
47
100
AcDbScale
 70
     0
300
2:1
140
2.0
141
1.0
290
     0
  0
SCALE
  5
55
102
{ACAD_REACTORS
330
47
102
}
330
47
100
AcDbScale
 70
     0
300
4:1
140
4.0
141
1.0
290
     0
  0
SCALE
  5
56
102
{ACAD_REACTORS
330
47
102
}
330
47
100
AcDbScale
 70
     0
300
8:1
140
8.0
141
1.0
290
     0
  0
SCALE
  5
57
102
{ACAD_REACTORS
330
47
102
}
330
47
100
AcDbScale
 70
     0
300
10:1
140
10.0
141
1.0
290
     0
  0
SCALE
  5
58
102
{ACAD_REACTORS
330
47
102
}
330
47
100
AcDbScale
 70
     0
300
100:1
140
100.0
141
1.0
290
     0
  0
SCALE
  5
59
102
{ACAD_REACTORS
330
47
102
}
330
47
100
AcDbScale
 70
     0
300
1/128" = 1'-0"
140
0.0078125
141
12.0
290
     0
  0
SCALE
  5
5A
102
{ACAD_REACTORS
330
47
102
}
330
47
100
AcDbScale
 70
     0
300
1/64" = 1'-0"
140
0.015625
141
12.0
290
     0
  0
SCALE
  5
5B
102
{ACAD_REACTORS
330
47
102
}
330
47
100
AcDbScale
 70
     0
300
1/32" = 1'-0"
140
0.03125
141
12.0
290
     0
  0
SCALE
  5
5C
102
{ACAD_REACTORS
330
47
102
}
330
47
100
AcDbScale
 70
     0
300
1/16" = 1'-0"
140
0.0625
141
12.0
290
     0
  0
SCALE
  5
5D
102
{ACAD_REACTORS
330
47
102
}
330
47
100
AcDbScale
 70
     0
300
3/32" = 1'-0"
140
0.09375
141
12.0
290
     0
  0
SCALE
  5
5E
102
{ACAD_REACTORS
330
47
102
}
330
47
100
AcDbScale
 70
     0
300
1/8" = 1'-0"
140
0.125
141
12.0
290
     0
  0
SCALE
  5
5F
102
{ACAD_REACTORS
330
47
102
}
330
47
100
AcDbScale
 70
     0
300
3/16" = 1'-0"
140
0.1875
141
12.0
290
     0
  0
SCALE
  5
60
102
{ACAD_REACTORS
330
47
102
}
330
47
100
AcDbScale
 70
     0
300
1/4" = 1'-0"
140
0.25
141
12.0
290
     0
  0
SCALE
  5
61
102
{ACAD_REACTORS
330
47
102
}
330
47
100
AcDbScale
 70
     0
300
3/8" = 1'-0"
140
0.375
141
12.0
290
     0
  0
SCALE
  5
62
102
{ACAD_REACTORS
330
47
102
}
330
47
100
AcDbScale
 70
     0
300
1/2" = 1'-0"
140
0.5
141
12.0
290
     0
  0
SCALE
  5
63
102
{ACAD_REACTORS
330
47
102
}
330
47
100
AcDbScale
 70
     0
300
3/4" = 1'-0"
140
0.75
141
12.0
290
     0
  0
SCALE
  5
64
102
{ACAD_REACTORS
330
47
102
}
330
47
100
AcDbScale
 70
     0
300
1" = 1'-0"
140
1.0
141
12.0
290
     0
  0
SCALE
  5
65
102
{ACAD_REACTORS
330
47
102
}
330
47
100
AcDbScale
 70
     0
300
1-1/2" = 1'-0"
140
1.5
141
12.0
290
     0
  0
SCALE
  5
66
102
{ACAD_REACTORS
330
47
102
}
330
47
100
AcDbScale
 70
     0
300
3" = 1'-0"
140
3.0
141
12.0
290
     0
  0
SCALE
  5
67
102
{ACAD_REACTORS
330
47
102
}
330
47
100
AcDbScale
 70
     0
300
6" = 1'-0"
140
6.0
141
12.0
290
     0
  0
SCALE
  5
68
102
{ACAD_REACTORS
330
47
102
}
330
47
100
AcDbScale
 70
     0
300
1'-0" = 1'-0"
140
12.0
141
12.0
290
     0
  0
TABLESTYLE
  5
6A
102
{ACAD_REACTORS
330
69
102
}
102
{ACAD_XDICTIONARY
360
1B4
102
}
330
69
100
AcDbTableStyle
  3
Standard
 70
     0
 71
     0
 40
0.06
 41
0.06
280
     0
281
     0
  7
Standard
140
0.18
170
     2
 62
     0
 63
   257
283
     0
 90
        4
 91
        0
  1

274
    -2
284
     1
 64
     0
275
    -2
285
     1
 65
     0
276
    -2
286
     1
 66
     0
277
    -2
287
     1
 67
     0
278
    -2
288
     1
 68
     0
279
    -2
289
     1
 69
     0
  7
Standard
140
0.25
170
     5
 62
     0
 63
   257
283
     0
 90
        4
 91
        0
  1

274
    -2
284
     1
 64
     0
275
    -2
285
     1
 65
     0
276
    -2
286
     1
 66
     0
277
    -2
287
     1
 67
     0
278
    -2
288
     1
 68
     0
279
    -2
289
     1
 69
     0
  7
Standard
140
0.18
170
     5
 62
     0
 63
   257
283
     0
 90
        4
 91
        0
  1

274
    -2
284
     1
 64
     0
275
    -2
285
     1
 65
     0
276
    -2
286
     1
 66
     0
277
    -2
287
     1
 67
     0
278
    -2
288
     1
 68
     0
279
    -2
289
     1
 69
     0
  0
VISUALSTYLE
  5
2F
102
{ACAD_REACTORS
330
2A
102
}
102
{ACAD_XDICTIONARY
360
18C
102
}
330
2A
100
AcDbVisualStyle
  2
2dWireframe
 70
     4
 71
     0
 72
     2
 73
     0
 90
        0
 40
0.6
 41
30.0
 62
     5
 63
     7
421
 16777215
 74
     1
 91
        4
 64
     7
 65
   257
 75
     1
175
     1
 42
1.0
 92
        0
 66
   257
 43
1.0
 76
     1
 77
     6
 78
     2
 67
     7
 79
     5
170
     0
171
     0
290
     0
174
     0
 93
        1
 44
0.0
173
     0
291
     0
 45
0.0
  0
VISUALSTYLE
  5
32
102
{ACAD_REACTORS
330
2A
102
}
102
{ACAD_XDICTIONARY
360
192
102
}
330
2A
100
AcDbVisualStyle
  2
Basic
 70
     7
 71
     1
 72
     0
 73
     1
 90
        0
 40
0.6
 41
30.0
 62
     5
 63
     7
421
 16777215
 74
     0
 91
        4
 64
     7
 65
   257
 75
     1
175
     1
 42
1.0
 92
        8
 66
     7
 43
1.0
 76
     1
 77
     6
 78
     2
 67
     7
 79
     5
170
     0
171
     0
290
     0
174
     0
 93
        1
 44
0.0
173
     0
291
     1
 45
0.0
  0
VISUALSTYLE
  5
36
102
{ACAD_REACTORS
330
2A
102
}
102
{ACAD_XDICTIONARY
360
19A
102
}
330
2A
100
AcDbVisualStyle
  2
Brighten
 70
    12
 71
     2
 72
     2
 73
     0
 90
        0
 40
0.6
 41
30.0
 62
     5
 63
     7
421
 16777215
 74
     1
 91
        4
 64
     7
 65
   257
 75
     1
175
     1
 42
1.0
 92
        8
 66
     7
 43
1.0
 76
     1
 77
     6
 78
     2
 67
     7
 79
     5
170
     0
171
     0
290
     0
174
     0
 93
        1
 44
50.0
173
     0
291
     1
 45
0.0
  0
VISUALSTYLE
  5
3A
102
{ACAD_REACTORS
330
2A
102
}
102
{ACAD_XDICTIONARY
360
1A2
102
}
330
2A
100
AcDbVisualStyle
  2
ColorChange
 70
    16
 71
     2
 72
     2
 73
     3
 90
        0
 40
0.6
 41
30.0
 62
     5
 63
     8
421
  8421504
 74
     1
 91
        4
 64
     7
 65
   257
 75
     1
175
     1
 42
1.0
 92
        8
 66
     8
424
  8421504
 43
1.0
 76
     1
 77
     6
 78
     2
 67
     7
 79
     5
170
     0
171
     0
290
     0
174
     0
 93
        1
 44
0.0
173
     0
291
     1
 45
0.0
  0
VISUALSTYLE
  5
34
102
{ACAD_REACTORS
330
2A
102
}
102
{ACAD_XDICTIONARY
360
196
102
}
330
2A
100
AcDbVisualStyle
  2
Conceptual
 70
     9
 71
     3
 72
     2
 73
     0
 90
        0
 40
0.6
 41
30.0
 62
     5
 63
     7
421
 16777215
 74
     2
 91
        2
 64
     7
 65
   257
 75
     1
175
     1
 42
179.0
 92
        8
 66
     7
 43
1.0
 76
     1
 77
     6
 78
     2
 67
     7
 79
     3
170
     0
171
     0
290
     0
174
     0
 93
        1
 44
0.0
173
     0
291
     0
 45
0.0
  0
VISUALSTYLE
  5
35
102
{ACAD_REACTORS
330
2A
102
}
102
{ACAD_XDICTIONARY
360
198
102
}
330
2A
100
AcDbVisualStyle
  2
Dim
 70
    11
 71
     2
 72
     2
 73
     0
 90
        0
 40
0.6
 41
30.0
 62
     5
 63
     7
421
 16777215
 74
     1
 91
        4
 64
     7
 65
   257
 75
     1
175
     1
 42
1.0
 92
        8
 66
     7
 43
1.0
 76
     1
 77
     6
 78
     2
 67
     7
 79
     5
170
     0
171
     0
290
     0
174
     0
 93
        1
 44
-50.0
173
     0
291
     1
 45
0.0
  0
VISUALSTYLE
  5
3D
102
{ACAD_REACTORS
330
2A
102
}
102
{ACAD_XDICTIONARY
360
1A8
102
}
330
2A
100
AcDbVisualStyle
  2
EdgeColorOff
 70
    22
 71
     2
 72
     2
 73
     0
 90
        0
 40
0.6
 41
30.0
 62
     5
 63
     7
421
 16777215
 74
     1
 91
        4
 64
     7
 65
   257
 75
     1
175
     1
 42
1.0
 92
        8
 66
     7
 43
1.0
 76
     1
 77
     6
 78
     2
 67
     7
 79
     5
170
     0
171
     0
290
     0
174
     0
 93
        1
 44
0.0
173
     0
291
     1
 45
0.0
  0
VISUALSTYLE
  5
39
102
{ACAD_REACTORS
330
2A
102
}
102
{ACAD_XDICTIONARY
360
1A0
102
}
330
2A
100
AcDbVisualStyle
  2
Facepattern
 70
    15
 71
     2
 72
     2
 73
     0
 90
        0
 40
0.6
 41
30.0
 62
     5
 63
     7
421
 16777215
 74
     1
 91
        4
 64
     7
 65
   257
 75
     1
175
     1
 42
1.0
 92
        8
 66
     7
 43
1.0
 76
     1
 77
     6
 78
     2
 67
     7
 79
     5
170
     0
171
     0
290
     0
174
     0
 93
        1
 44
0.0
173
     0
291
     1
 45
0.0
  0
VISUALSTYLE
  5
2B
102
{ACAD_REACTORS
330
2A
102
}
102
{ACAD_XDICTIONARY
360
184
102
}
330
2A
100
AcDbVisualStyle
  2
Flat
 70
     0
 71
     2
 72
     1
 73
     1
 90
        2
 40
0.6
 41
30.0
 62
     5
 63
     7
421
 16777215
 74
     0
 91
        0
 64
     7
 65
   257
 75
     1
175
     1
 42
1.0
 92
        8
 66
     7
 43
1.0
 76
     1
 77
     6
 78
     2
 67
     7
 79
     5
170
     0
171
     0
290
     0
174
     0
 93
       13
 44
0.0
173
     0
291
     1
 45
0.0
  0
VISUALSTYLE
  5
2C
102
{ACAD_REACTORS
330
2A
102
}
102
{ACAD_XDICTIONARY
360
186
102
}
330
2A
100
AcDbVisualStyle
  2
FlatWithEdges
 70
     1
 71
     2
 72
     1
 73
     1
 90
        2
 40
0.6
 41
30.0
 62
     5
 63
     7
421
 16777215
 74
     1
 91
        0
 64
     7
 65
   257
 75
     1
175
     1
 42
1.0
 92
        0
 66
   257
 43
1.0
 76
     1
 77
     6
 78
     2
 67
     7
 79
     5
170
     0
171
     0
290
     0
174
     0
 93
       13
 44
0.0
173
     0
291
     1
 45
0.0
  0
VISUALSTYLE
  5
2D
102
{ACAD_REACTORS
330
2A
102
}
102
{ACAD_XDICTIONARY
360
188
102
}
330
2A
100
AcDbVisualStyle
  2
Gouraud
 70
     2
 71
     2
 72
     2
 73
     1
 90
        2
 40
0.6
 41
30.0
 62
     5
 63
     7
421
 16777215
 74
     0
 91
        0
 64
     7
 65
   257
 75
     1
175
     1
 42
1.0
 92
        0
 66
     7
 43
1.0
 76
     1
 77
     6
 78
     2
 67
     7
 79
     5
170
     0
171
     0
290
     0
174
     0
 93
       13
 44
0.0
173
     0
291
     1
 45
0.0
  0
VISUALSTYLE
  5
2E
102
{ACAD_REACTORS
330
2A
102
}
102
{ACAD_XDICTIONARY
360
18A
102
}
330
2A
100
AcDbVisualStyle
  2
GouraudWithEdges
 70
     3
 71
     2
 72
     2
 73
     1
 90
        2
 40
0.6
 41
30.0
 62
     5
 63
     7
421
 16777215
 74
     1
 91
        0
 64
     7
 65
   257
 75
     1
175
     1
 42
1.0
 92
        0
 66
   257
 43
1.0
 76
     1
 77
     6
 78
     2
 67
     7
 79
     5
170
     0
171
     0
290
     0
174
     0
 93
       13
 44
0.0
173
     0
291
     1
 45
0.0
  0
VISUALSTYLE
  5
31
102
{ACAD_REACTORS
330
2A
102
}
102
{ACAD_XDICTIONARY
360
190
102
}
330
2A
100
AcDbVisualStyle
  2
Hidden
 70
     6
 71
     1
 72
     2
 73
     2
 90
        0
 40
0.6
 41
30.0
 62
     5
 63
     7
421
 16777215
 74
     2
 91
        2
 64
     7
 65
   257
 75
     2
175
     1
 42
40.0
 92
        0
 66
   257
 43
1.0
 76
     1
 77
     6
 78
     2
 67
     7
 79
     3
170
     0
171
     0
290
     0
174
     0
 93
        1
 44
0.0
173
     0
291
     0
 45
0.0
  0
VISUALSTYLE
  5
3B
102
{ACAD_REACTORS
330
2A
102
}
102
{ACAD_XDICTIONARY
360
1A4
102
}
330
2A
100
AcDbVisualStyle
  2
JitterOff
 70
    20
 71
     2
 72
     2
 73
     0
 90
        0
 40
0.6
 41
30.0
 62
     5
 63
     7
421
 16777215
 74
     1
 91
        4
 64
     7
 65
   257
 75
     1
175
     1
 42
1.0
 92
       10
 66
     7
 43
1.0
 76
     1
 77
     6
 78
     2
 67
     7
 79
     5
170
     0
171
     0
290
     0
174
     0
 93
        1
 44
0.0
173
     0
291
     1
 45
0.0
  0
VISUALSTYLE
  5
38
102
{ACAD_REACTORS
330
2A
102
}
102
{ACAD_XDICTIONARY
360
19E
102
}
330
2A
100
AcDbVisualStyle
  2
Linepattern
 70
    14
 71
     2
 72
     2
 73
     0
 90
        0
 40
0.6
 41
30.0
 62
     5
 63
     7
421
 16777215
 74
     1
 91
        4
 64
     7
 65
   257
 75
     7
175
     7
 42
1.0
 92
        8
 66
     7
 43
1.0
 76
     1
 77
     6
 78
     2
 67
     7
 79
     5
170
     0
171
     0
290
     0
174
     0
 93
        1
 44
0.0
173
     0
291
     1
 45
0.0
  0
VISUALSTYLE
  5
3C
102
{ACAD_REACTORS
330
2A
102
}
102
{ACAD_XDICTIONARY
360
1A6
102
}
330
2A
100
AcDbVisualStyle
  2
OverhangOff
 70
    21
 71
     2
 72
     2
 73
     0
 90
        0
 40
0.6
 41
30.0
 62
     5
 63
     7
421
 16777215
 74
     1
 91
        4
 64
     7
 65
   257
 75
     1
175
     1
 42
1.0
 92
        9
 66
     7
 43
1.0
 76
     1
 77
     6
 78
     2
 67
     7
 79
     5
170
     0
171
     0
290
     0
174
     0
 93
        1
 44
0.0
173
     0
291
     1
 45
0.0
  0
VISUALSTYLE
  5
33
102
{ACAD_REACTORS
330
2A
102
}
102
{ACAD_XDICTIONARY
360
194
102
}
330
2A
100
AcDbVisualStyle
  2
Realistic
 70
     8
 71
     2
 72
     3
 73
     0
 90
        2
 40
0.6
 41
30.0
 62
     5
 63
     7
421
 16777215
 74
     0
 91
        0
 64
     7
 65
   257
 75
     1
175
     1
 42
1.0
 92
        8
 66
   257
 43
1.0
 76
     1
 77
     6
 78
     2
 67
     7
 79
     3
170
     0
171
     0
290
     0
174
     0
 93
       13
 44
0.0
173
     0
291
     0
 45
0.0
  0
VISUALSTYLE
  5
42
102
{ACAD_REACTORS
330
2A
102
}
102
{ACAD_XDICTIONARY
360
1B2
102
}
330
2A
100
AcDbVisualStyle
  2
Shaded
 70
    27
 71
     2
 72
     2
 73
     1
 90
        2
 40
0.6
 41
30.0
 62
     5
 63
     7
421
 16777215
 74
     0
 91
        4
 64
     7
 65
   257
 75
     1
175
     1
 42
1.0
 92
        8
 66
   257
 43
1.0
 76
     1
 77
     6
 78
     2
 67
     8
425
  7895160
 79
     3
170
     0
171
     0
290
     0
174
     0
 93
        5
 44
0.0
173
     0
291
     0
 45
0.0
  0
VISUALSTYLE
  5
41
102
{ACAD_REACTORS
330
2A
102
}
102
{ACAD_XDICTIONARY
360
1B0
102
}
330
2A
100
AcDbVisualStyle
  2
Shaded with edges
 70
    26
 71
     2
 72
     2
 73
     1
 90
        2
 40
0.6
 41
30.0
 62
     5
 63
     7
421
 16777215
 74
     1
 91
       10
 64
     7
 65
   257
 75
     2
175
     1
 42
1.0
 92
        8
 66
   257
 43
1.0
 76
     1
 77
     6
 78
     2
 67
     7
 79
     3
170
     0
171
     0
290
     0
174
     0
 93
        5
 44
0.0
173
     0
291
     0
 45
0.0
  0
VISUALSTYLE
  5
3E
102
{ACAD_REACTORS
330
2A
102
}
102
{ACAD_XDICTIONARY
360
1AA
102
}
330
2A
100
AcDbVisualStyle
  2
Shades of Gray
 70
    23
 71
     2
 72
     2
 73
     3
 90
        0
 40
0.6
 41
30.0
 62
     5
 63
     7
421
 16777215
 74
     2
 91
        2
 64
     7
 65
     7
 75
     1
175
     1
 42
40.0
 92
        8
 66
     7
 43
1.0
 76
     1
 77
     6
 78
     2
 67
     7
 79
     3
170
     0
171
     0
290
     0
174
     0
 93
        1
 44
0.0
173
     0
291
     0
 45
0.0
  0
VISUALSTYLE
  5
3F
102
{ACAD_REACTORS
330
2A
102
}
102
{ACAD_XDICTIONARY
360
1AC
102
}
330
2A
100
AcDbVisualStyle
  2
Sketchy
 70
    24
 71
     1
 72
     2
 73
     2
 90
        0
 40
0.6
 41
30.0
 62
     5
 63
     7
421
 16777215
 74
     2
 91
        2
 64
     7
 65
     7
 75
     1
175
     1
 42
40.0
 92
       11
 66
     7
 43
1.0
 76
     1
 77
     6
 78
     2
 67
     7
 79
     6
170
     0
171
     0
290
     0
174
     0
 93
        1
 44
0.0
173
     0
291
     0
 45
0.0
  0
VISUALSTYLE
  5
37
102
{ACAD_REACTORS
330
2A
102
}
102
{ACAD_XDICTIONARY
360
19C
102
}
330
2A
100
AcDbVisualStyle
  2
Thicken
 70
    13
 71
     2
 72
     2
 73
     0
 90
        0
 40
0.6
 41
30.0
 62
     5
 63
     7
421
 16777215
 74
     1
 91
        4
 64
     7
 65
   257
 75
     1
175
     1
 42
1.0
 92
       12
 66
     7
 43
1.0
 76
     1
 77
     6
 78
     2
 67
     7
 79
     5
170
     0
171
     0
290
     0
174
     0
 93
        1
 44
0.0
173
     0
291
     1
 45
0.0
  0
VISUALSTYLE
  5
30
102
{ACAD_REACTORS
330
2A
102
}
102
{ACAD_XDICTIONARY
360
18E
102
}
330
2A
100
AcDbVisualStyle
  2
Wireframe
 70
     5
 71
     0
 72
     2
 73
     0
 90
        0
 40
0.6
 41
30.0
 62
     5
 63
     7
421
 16777215
 74
     1
 91
        4
 64
     7
 65
   257
 75
     1
175
     1
 42
1.0
 92
        0
 66
   257
 43
1.0
 76
     1
 77
     6
 78
     2
 67
     7
 79
     3
170
     0
171
     0
290
     0
174
     0
 93
        1
 44
0.0
173
     0
291
     0
 45
0.0
  0
VISUALSTYLE
  5
40
102
{ACAD_REACTORS
330
2A
102
}
102
{ACAD_XDICTIONARY
360
1AE
102
}
330
2A
100
AcDbVisualStyle
  2
X-Ray
 70
    25
 71
     2
 72
     2
 73
     1
 90
        1
 40
0.5
 41
30.0
 62
     5
 63
     7
421
 16777215
 74
     1
 91
        0
 64
     7
 65
   257
 75
     1
175
     1
 42
1.0
 92
        8
 66
     7
 43
1.0
 76
     1
 77
     6
 78
     2
 67
     7
 79
     3
170
     0
171
     0
290
     0
174
     0
 93
       13
 44
0.0
173
     0
291
     0
 45
0.0
  0
DICTIONARYVAR
  5
182
102
{ACAD_REACTORS
330
181
102
}
330
181
100
DictionaryVariables
280
     0
  1
1:1
  0
DICTIONARYVAR
  5
1BB
102
{ACAD_REACTORS
330
181
102
}
330
181
100
DictionaryVariables
280
     0
  1
Standard
  0
DICTIONARYVAR
  5
1BA
102
{ACAD_REACTORS
330
181
102
}
330
181
100
DictionaryVariables
280
     0
  1
Standard
  0
DICTIONARYVAR
  5
183
102
{ACAD_REACTORS
330
181
102
}
330
181
100
DictionaryVariables
280
     0
  1
2
  0
DICTIONARY
  5
1B7
330
6C
100
AcDbDictionary
280
     1
281
     1
  3
ACAD_XREC_ROUNDTRIP
360
1B8
  0
DICTIONARY
  5
1B4
330
6A
100
AcDbDictionary
280
     1
281
     1
  3
ACAD_ROUNDTRIP_2008_TABLESTYLE_CELLSTYLEMAP
360
1B5
  0
DICTIONARY
  5
18C
330
2F
100
AcDbDictionary
280
     1
281
     1
  3
ACAD_XREC_ROUNDTRIP
360
18D
  0
DICTIONARY
  5
192
330
32
100
AcDbDictionary
280
     1
281
     1
  3
ACAD_XREC_ROUNDTRIP
360
193
  0
DICTIONARY
  5
19A
330
36
100
AcDbDictionary
280
     1
281
     1
  3
ACAD_XREC_ROUNDTRIP
360
19B
  0
DICTIONARY
  5
1A2
330
3A
100
AcDbDictionary
280
     1
281
     1
  3
ACAD_XREC_ROUNDTRIP
360
1A3
  0
DICTIONARY
  5
196
330
34
100
AcDbDictionary
280
     1
281
     1
  3
ACAD_XREC_ROUNDTRIP
360
197
  0
DICTIONARY
  5
198
330
35
100
AcDbDictionary
280
     1
281
     1
  3
ACAD_XREC_ROUNDTRIP
360
199
  0
DICTIONARY
  5
1A8
330
3D
100
AcDbDictionary
280
     1
281
     1
  3
ACAD_XREC_ROUNDTRIP
360
1A9
  0
DICTIONARY
  5
1A0
330
39
100
AcDbDictionary
280
     1
281
     1
  3
ACAD_XREC_ROUNDTRIP
360
1A1
  0
DICTIONARY
  5
184
330
2B
100
AcDbDictionary
280
     1
281
     1
  3
ACAD_XREC_ROUNDTRIP
360
185
  0
DICTIONARY
  5
186
330
2C
100
AcDbDictionary
280
     1
281
     1
  3
ACAD_XREC_ROUNDTRIP
360
187
  0
DICTIONARY
  5
188
330
2D
100
AcDbDictionary
280
     1
281
     1
  3
ACAD_XREC_ROUNDTRIP
360
189
  0
DICTIONARY
  5
18A
330
2E
100
AcDbDictionary
280
     1
281
     1
  3
ACAD_XREC_ROUNDTRIP
360
18B
  0
DICTIONARY
  5
190
330
31
100
AcDbDictionary
280
     1
281
     1
  3
ACAD_XREC_ROUNDTRIP
360
191
  0
DICTIONARY
  5
1A4
330
3B
100
AcDbDictionary
280
     1
281
     1
  3
ACAD_XREC_ROUNDTRIP
360
1A5
  0
DICTIONARY
  5
19E
330
38
100
AcDbDictionary
280
     1
281
     1
  3
ACAD_XREC_ROUNDTRIP
360
19F
  0
DICTIONARY
  5
1A6
330
3C
100
AcDbDictionary
280
     1
281
     1
  3
ACAD_XREC_ROUNDTRIP
360
1A7
  0
DICTIONARY
  5
194
330
33
100
AcDbDictionary
280
     1
281
     1
  3
ACAD_XREC_ROUNDTRIP
360
195
  0
DICTIONARY
  5
1B2
330
42
100
AcDbDictionary
280
     1
281
     1
  3
ACAD_XREC_ROUNDTRIP
360
1B3
  0
DICTIONARY
  5
1B0
330
41
100
AcDbDictionary
280
     1
281
     1
  3
ACAD_XREC_ROUNDTRIP
360
1B1
  0
DICTIONARY
  5
1AA
330
3E
100
AcDbDictionary
280
     1
281
     1
  3
ACAD_XREC_ROUNDTRIP
360
1AB
  0
DICTIONARY
  5
1AC
330
3F
100
AcDbDictionary
280
     1
281
     1
  3
ACAD_XREC_ROUNDTRIP
360
1AD
  0
DICTIONARY
  5
19C
330
37
100
AcDbDictionary
280
     1
281
     1
  3
ACAD_XREC_ROUNDTRIP
360
19D
  0
DICTIONARY
  5
18E
330
30
100
AcDbDictionary
280
     1
281
     1
  3
ACAD_XREC_ROUNDTRIP
360
18F
  0
DICTIONARY
  5
1AE
330
40
100
AcDbDictionary
280
     1
281
     1
  3
ACAD_XREC_ROUNDTRIP
360
1AF
  0
XRECORD
  5
1B8
102
{ACAD_REACTORS
330
1B7
102
}
330
1B7
100
AcDbXrecord
280
     1
102
ACAD_ROUNDTRIP_2010_MLEADER_STYLE
  0
CELLSTYLEMAP
  5
1B5
102
{ACAD_REACTORS
330
1B4
102
}
330
1B4
100
AcDbCellStyleMap
 90
        3
300
CELLSTYLE
  1
TABLEFORMAT_BEGIN
 90
        5
170
     1
 91
        0
 92
    32768
 62
   257
 93
        1
300
CONTENTFORMAT
  1
CONTENTFORMAT_BEGIN
 90
        0
 91
        0
 92
        4
 93
        0
300

 40
0.0
140
1.0
 94
        5
 62
     0
340
11
144
0.25
309
CONTENTFORMAT_END
171
     1
301
MARGIN
  1
CELLMARGIN_BEGIN
 40
0.06
 40
0.06
 40
0.06
 40
0.06
 40
0.06
 40
0.06
309
CELLMARGIN_END
 94
        6
 95
        1
302
GRIDFORMAT
  1
GRIDFORMAT_BEGIN
 90
        0
 91
        1
 62
     0
 92
       -2
340
14
 93
        0
 40
0.045
309
GRIDFORMAT_END
 95
        2
302
GRIDFORMAT
  1
GRIDFORMAT_BEGIN
 90
        0
 91
        1
 62
     0
 92
       -2
340
14
 93
        0
 40
0.045
309
GRIDFORMAT_END
 95
        4
302
GRIDFORMAT
  1
GRIDFORMAT_BEGIN
 90
        0
 91
        1
 62
     0
 92
       -2
340
14
 93
        0
 40
0.045
309
GRIDFORMAT_END
 95
        8
302
GRIDFORMAT
  1
GRIDFORMAT_BEGIN
 90
        0
 91
        1
 62
     0
 92
       -2
340
14
 93
        0
 40
0.045
309
GRIDFORMAT_END
 95
       16
302
GRIDFORMAT
  1
GRIDFORMAT_BEGIN
 90
        0
 91
        1
 62
     0
 92
       -2
340
14
 93
        0
 40
0.045
309
GRIDFORMAT_END
 95
       32
302
GRIDFORMAT
  1
GRIDFORMAT_BEGIN
 90
        0
 91
        1
 62
     0
 92
       -2
340
14
 93
        0
 40
0.045
309
GRIDFORMAT_END
309
TABLEFORMAT_END
  1
CELLSTYLE_BEGIN
 90
        1
 91
        1
300
_TITLE
309
CELLSTYLE_END
300
CELLSTYLE
  1
TABLEFORMAT_BEGIN
 90
        5
170
     1
 91
        0
 92
        0
 62
   257
 93
        1
300
CONTENTFORMAT
  1
CONTENTFORMAT_BEGIN
 90
        0
 91
        0
 92
        4
 93
        0
300

 40
0.0
140
1.0
 94
        5
 62
     0
340
11
144
0.18
309
CONTENTFORMAT_END
171
     1
301
MARGIN
  1
CELLMARGIN_BEGIN
 40
0.06
 40
0.06
 40
0.06
 40
0.06
 40
0.06
 40
0.06
309
CELLMARGIN_END
 94
        6
 95
        1
302
GRIDFORMAT
  1
GRIDFORMAT_BEGIN
 90
        0
 91
        1
 62
     0
 92
       -2
340
14
 93
        0
 40
0.045
309
GRIDFORMAT_END
 95
        2
302
GRIDFORMAT
  1
GRIDFORMAT_BEGIN
 90
        0
 91
        1
 62
     0
 92
       -2
340
14
 93
        0
 40
0.045
309
GRIDFORMAT_END
 95
        4
302
GRIDFORMAT
  1
GRIDFORMAT_BEGIN
 90
        0
 91
        1
 62
     0
 92
       -2
340
14
 93
        0
 40
0.045
309
GRIDFORMAT_END
 95
        8
302
GRIDFORMAT
  1
GRIDFORMAT_BEGIN
 90
        0
 91
        1
 62
     0
 92
       -2
340
14
 93
        0
 40
0.045
309
GRIDFORMAT_END
 95
       16
302
GRIDFORMAT
  1
GRIDFORMAT_BEGIN
 90
        0
 91
        1
 62
     0
 92
       -2
340
14
 93
        0
 40
0.045
309
GRIDFORMAT_END
 95
       32
302
GRIDFORMAT
  1
GRIDFORMAT_BEGIN
 90
        0
 91
        1
 62
     0
 92
       -2
340
14
 93
        0
 40
0.045
309
GRIDFORMAT_END
309
TABLEFORMAT_END
  1
CELLSTYLE_BEGIN
 90
        2
 91
        1
300
_HEADER
309
CELLSTYLE_END
300
CELLSTYLE
  1
TABLEFORMAT_BEGIN
 90
        5
170
     1
 91
        0
 92
        0
 62
   257
 93
        1
300
CONTENTFORMAT
  1
CONTENTFORMAT_BEGIN
 90
        0
 91
        0
 92
        4
 93
        0
300

 40
0.0
140
1.0
 94
        2
 62
     0
340
11
144
0.18
309
CONTENTFORMAT_END
171
     1
301
MARGIN
  1
CELLMARGIN_BEGIN
 40
0.06
 40
0.06
 40
0.06
 40
0.06
 40
0.06
 40
0.06
309
CELLMARGIN_END
 94
        6
 95
        1
302
GRIDFORMAT
  1
GRIDFORMAT_BEGIN
 90
        0
 91
        1
 62
     0
 92
       -2
340
14
 93
        0
 40
0.045
309
GRIDFORMAT_END
 95
        2
302
GRIDFORMAT
  1
GRIDFORMAT_BEGIN
 90
        0
 91
        1
 62
     0
 92
       -2
340
14
 93
        0
 40
0.045
309
GRIDFORMAT_END
 95
        4
302
GRIDFORMAT
  1
GRIDFORMAT_BEGIN
 90
        0
 91
        1
 62
     0
 92
       -2
340
14
 93
        0
 40
0.045
309
GRIDFORMAT_END
 95
        8
302
GRIDFORMAT
  1
GRIDFORMAT_BEGIN
 90
        0
 91
        1
 62
     0
 92
       -2
340
14
 93
        0
 40
0.045
309
GRIDFORMAT_END
 95
       16
302
GRIDFORMAT
  1
GRIDFORMAT_BEGIN
 90
        0
 91
        1
 62
     0
 92
       -2
340
14
 93
        0
 40
0.045
309
GRIDFORMAT_END
 95
       32
302
GRIDFORMAT
  1
GRIDFORMAT_BEGIN
 90
        0
 91
        1
 62
     0
 92
       -2
340
14
 93
        0
 40
0.045
309
GRIDFORMAT_END
309
TABLEFORMAT_END
  1
CELLSTYLE_BEGIN
 90
        3
 91
        2
300
_DATA
309
CELLSTYLE_END
  0
XRECORD
  5
18D
102
{ACAD_REACTORS
330
18C
102
}
330
18C
100
AcDbXrecord
280
     1
102
RTVSPropertyOp0
 70
     1
102
RTVSPropertyOp1
 70
     1
102
RTVSPropertyOp2
 70
     1
102
RTVSPropertyOp3
 70
     1
102
RTVSPropertyOp4
 70
     1
102
RTVSPropertyOp5
 70
     1
102
RTVSPropertyOp6
 70
     1
102
RTVSPropertyOp7
 70
     1
102
RTVSPropertyOp8
 70
     1
102
RTVSPropertyOp9
 70
     1
102
RTVSPropertyOp10
 70
     1
102
RTVSPropertyOp11
 70
     1
102
RTVSPropertyOp12
 70
     1
102
RTVSPropertyOp13
 70
     1
102
RTVSPropertyOp14
 70
     1
102
RTVSPropertyOp15
 70
     1
102
RTVSPropertyOp16
 70
     1
102
RTVSPropertyOp17
 70
     1
102
RTVSPropertyOp18
 70
     1
102
RTVSPropertyOp19
 70
     1
102
RTVSPropertyOp20
 70
     1
102
RTVSPropertyOp21
 70
     1
102
RTVSPropertyOp22
 70
     1
102
RTVSPropertyOp23
 70
     1
102
RTVSPropertyOp24
 70
     1
102
RTVSPropertyOp25
 70
     1
102
RTVSPropertyOp26
 70
     1
102
RTVSPropertyOp27
 70
     1
102
RTVSPropertyOp28
 70
     1
102
RTVSPropertyOp29
 70
     1
102
RTVSPropertyOp30
 70
     1
102
RTVSPropertyOp31
 70
     1
102
RTVSPropertyOp32
 70
     1
102
RTVSPropertyOp33
 70
     1
102
RTVSPropertyOp34
 70
     1
102
RTVSPropertyOp35
 70
     1
102
RTVSPropertyOp36
 70
     1
102
RTVSPropertyOp37
 70
     1
102
RTVSPropertyOp38
 70
     1
102
RTVSPropertyOp39
 70
     1
102
RTVSPropertyOp40
 70
     1
102
RTVSPropertyOp41
 70
     1
102
RTVSPropertyOp42
 70
     1
102
RTVSPropertyOp43
 70
     1
102
RTVSPropertyOp44
 70
     1
102
RTVSPropertyOp45
 70
     1
102
RTVSPropertyOp46
 70
     1
102
RTVSPropertyOp47
 70
     1
102
RTVSPropertyOp48
 70
     1
102
RTVSPropertyOp49
 70
     1
102
RTVSPropertyOp50
 70
     1
102
RTVSPropertyOp51
 70
     0
102
RTVSPropertyOp52
 70
     0
102
RTVSPropertyOp53
 70
     1
102
RTVSPropertyOp54
 70
     1
102
RTVSPropertyOp55
 70
     1
102
RTVSPropertyOp56
 70
     1
102
RTVSPropertyOp57
 70
     1
102
RTVSPost2010Prop28
280
     1
102
RTVSPost2010PropOp28
 70
     1
102
RTVSPost2010Prop29
280
     1
102
RTVSPost2010PropOp29
 70
     1
102
RTVSPost2010Prop30
280
     0
102
RTVSPost2010PropOp30
 70
     1
102
RTVSPost2010Prop31
280
     0
102
RTVSPost2010PropOp31
 70
     1
102
RTVSPost2010Prop32
280
     0
102
RTVSPost2010PropOp32
 70
     1
102
RTVSPost2010Prop33
280
     0
102
RTVSPost2010PropOp33
 70
     1
102
RTVSPost2010Prop34
280
     0
102
RTVSPost2010PropOp34
 70
     1
102
RTVSPost2010Prop35
280
     0
102
RTVSPost2010PropOp35
 70
     1
102
RTVSPost2010Prop36
280
     0
102
RTVSPost2010PropOp36
 70
     1
102
RTVSPost2010Prop37
 90
       50
102
RTVSPost2010PropOp37
 70
     1
102
RTVSPost2010Prop38
140
0.0
102
RTVSPost2010PropOp38
 70
     1
102
RTVSPost2010Prop39
140
1.0
102
RTVSPost2010PropOp39
 70
     1
102
RTVSPost2010Prop40
 90
        0
102
RTVSPost2010PropOp40
 70
     1
102
RTVSPost2010Prop41ColorIndex
 90
       18
102
RTVSPost2010Prop41ColorRGB
 90
        0
102
RTVSPost2010PropOp41
 70
     1
102
RTVSPost2010Prop42
 90
       50
102
RTVSPost2010PropOp42
 70
     1
102
RTVSPost2010Prop43
 90
        3
102
RTVSPost2010PropOp43
 70
     1
102
RTVSPost2010Prop44ColorIndex
 90
        5
102
RTVSPost2010Prop44ColorRGB
 90
      255
102
RTVSPost2010PropOp44
 70
     1
102
RTVSPost2010Prop45
280
     0
102
RTVSPost2010PropOp45
 70
     1
102
RTVSPost2010Prop46
 90
       50
102
RTVSPost2010PropOp46
 70
     1
102
RTVSPost2010Prop47
 90
       50
102
RTVSPost2010PropOp47
 70
     1
102
RTVSPost2010Prop48
 90
       50
102
RTVSPost2010PropOp48
 70
     1
102
RTVSPost2010Prop49
280
     0
102
RTVSPost2010PropOp49
 70
     1
102
RTVSPost2010Prop50
 90
       50
102
RTVSPost2010PropOp50
 70
     1
102
RTVSPost2010Prop51ColorIndex
 90
      256
102
RTVSPost2010Prop51ColorRGB
 90
-16777216
102
RTVSPost2010PropOp51
 70
     0
102
RTVSPost2010Prop52
140
1.0
102
RTVSPost2010PropOp52
 70
     0
102
RTVSPost2010Prop53
 90
        2
102
RTVSPost2010PropOp53
 70
     1
102
RTVSPost2010Prop54
  1
strokes_ogs.tif
102
RTVSPost2010PropOp54
 70
     1
102
RTVSPost2010Prop55
280
     0
102
RTVSPost2010PropOp55
 70
     1
102
RTVSPost2010Prop56
140
1.0
102
RTVSPost2010PropOp56
 70
     1
102
RTVSPost2010Prop57
140
1.0
102
RTVSPost2010PropOp57
 70
     1
  0
XRECORD
  5
193
102
{ACAD_REACTORS
330
192
102
}
330
192
100
AcDbXrecord
280
     1
102
RTVSPropertyOp0
 70
     1
102
RTVSPropertyOp1
 70
     1
102
RTVSPropertyOp2
 70
     1
102
RTVSPropertyOp3
 70
     1
102
RTVSPropertyOp4
 70
     1
102
RTVSPropertyOp5
 70
     1
102
RTVSPropertyOp6
 70
     1
102
RTVSPropertyOp7
 70
     1
102
RTVSPropertyOp8
 70
     1
102
RTVSPropertyOp9
 70
     1
102
RTVSPropertyOp10
 70
     1
102
RTVSPropertyOp11
 70
     1
102
RTVSPropertyOp12
 70
     1
102
RTVSPropertyOp13
 70
     1
102
RTVSPropertyOp14
 70
     1
102
RTVSPropertyOp15
 70
     1
102
RTVSPropertyOp16
 70
     1
102
RTVSPropertyOp17
 70
     1
102
RTVSPropertyOp18
 70
     1
102
RTVSPropertyOp19
 70
     1
102
RTVSPropertyOp20
 70
     1
102
RTVSPropertyOp21
 70
     1
102
RTVSPropertyOp22
 70
     1
102
RTVSPropertyOp23
 70
     1
102
RTVSPropertyOp24
 70
     1
102
RTVSPropertyOp25
 70
     1
102
RTVSPropertyOp26
 70
     1
102
RTVSPropertyOp27
 70
     1
102
RTVSPropertyOp28
 70
     1
102
RTVSPropertyOp29
 70
     1
102
RTVSPropertyOp30
 70
     1
102
RTVSPropertyOp31
 70
     1
102
RTVSPropertyOp32
 70
     1
102
RTVSPropertyOp33
 70
     1
102
RTVSPropertyOp34
 70
     1
102
RTVSPropertyOp35
 70
     1
102
RTVSPropertyOp36
 70
     1
102
RTVSPropertyOp37
 70
     1
102
RTVSPropertyOp38
 70
     1
102
RTVSPropertyOp39
 70
     1
102
RTVSPropertyOp40
 70
     1
102
RTVSPropertyOp41
 70
     1
102
RTVSPropertyOp42
 70
     1
102
RTVSPropertyOp43
 70
     1
102
RTVSPropertyOp44
 70
     1
102
RTVSPropertyOp45
 70
     1
102
RTVSPropertyOp46
 70
     1
102
RTVSPropertyOp47
 70
     1
102
RTVSPropertyOp48
 70
     1
102
RTVSPropertyOp49
 70
     1
102
RTVSPropertyOp50
 70
     1
102
RTVSPropertyOp51
 70
     0
102
RTVSPropertyOp52
 70
     0
102
RTVSPropertyOp53
 70
     1
102
RTVSPropertyOp54
 70
     1
102
RTVSPropertyOp55
 70
     1
102
RTVSPropertyOp56
 70
     1
102
RTVSPropertyOp57
 70
     1
102
RTVSPost2010Prop28
280
     0
102
RTVSPost2010PropOp28
 70
     1
102
RTVSPost2010Prop29
280
     1
102
RTVSPost2010PropOp29
 70
     1
102
RTVSPost2010Prop30
280
     1
102
RTVSPost2010PropOp30
 70
     1
102
RTVSPost2010Prop31
280
     0
102
RTVSPost2010PropOp31
 70
     1
102
RTVSPost2010Prop32
280
     0
102
RTVSPost2010PropOp32
 70
     1
102
RTVSPost2010Prop33
280
     0
102
RTVSPost2010PropOp33
 70
     1
102
RTVSPost2010Prop34
280
     0
102
RTVSPost2010PropOp34
 70
     1
102
RTVSPost2010Prop35
280
     0
102
RTVSPost2010PropOp35
 70
     1
102
RTVSPost2010Prop36
280
     0
102
RTVSPost2010PropOp36
 70
     1
102
RTVSPost2010Prop37
 90
       50
102
RTVSPost2010PropOp37
 70
     1
102
RTVSPost2010Prop38
140
0.0
102
RTVSPost2010PropOp38
 70
     1
102
RTVSPost2010Prop39
140
1.0
102
RTVSPost2010PropOp39
 70
     1
102
RTVSPost2010Prop40
 90
        0
102
RTVSPost2010PropOp40
 70
     1
102
RTVSPost2010Prop41ColorIndex
 90
       18
102
RTVSPost2010Prop41ColorRGB
 90
        0
102
RTVSPost2010PropOp41
 70
     1
102
RTVSPost2010Prop42
 90
       50
102
RTVSPost2010PropOp42
 70
     1
102
RTVSPost2010Prop43
 90
        3
102
RTVSPost2010PropOp43
 70
     1
102
RTVSPost2010Prop44ColorIndex
 90
        5
102
RTVSPost2010Prop44ColorRGB
 90
      255
102
RTVSPost2010PropOp44
 70
     1
102
RTVSPost2010Prop45
280
     0
102
RTVSPost2010PropOp45
 70
     1
102
RTVSPost2010Prop46
 90
       50
102
RTVSPost2010PropOp46
 70
     1
102
RTVSPost2010Prop47
 90
       50
102
RTVSPost2010PropOp47
 70
     1
102
RTVSPost2010Prop48
 90
       50
102
RTVSPost2010PropOp48
 70
     1
102
RTVSPost2010Prop49
280
     0
102
RTVSPost2010PropOp49
 70
     1
102
RTVSPost2010Prop50
 90
       50
102
RTVSPost2010PropOp50
 70
     1
102
RTVSPost2010Prop51ColorIndex
 90
      256
102
RTVSPost2010Prop51ColorRGB
 90
-16777216
102
RTVSPost2010PropOp51
 70
     0
102
RTVSPost2010Prop52
140
1.0
102
RTVSPost2010PropOp52
 70
     0
102
RTVSPost2010Prop53
 90
        2
102
RTVSPost2010PropOp53
 70
     1
102
RTVSPost2010Prop54
  1
strokes_ogs.tif
102
RTVSPost2010PropOp54
 70
     1
102
RTVSPost2010Prop55
280
     0
102
RTVSPost2010PropOp55
 70
     1
102
RTVSPost2010Prop56
140
1.0
102
RTVSPost2010PropOp56
 70
     1
102
RTVSPost2010Prop57
140
1.0
102
RTVSPost2010PropOp57
 70
     1
  0
XRECORD
  5
19B
102
{ACAD_REACTORS
330
19A
102
}
330
19A
100
AcDbXrecord
280
     1
102
RTVSPropertyOp0
 70
     1
102
RTVSPropertyOp1
 70
     1
102
RTVSPropertyOp2
 70
     1
102
RTVSPropertyOp3
 70
     1
102
RTVSPropertyOp4
 70
     1
102
RTVSPropertyOp5
 70
     1
102
RTVSPropertyOp6
 70
     1
102
RTVSPropertyOp7
 70
     1
102
RTVSPropertyOp8
 70
     1
102
RTVSPropertyOp9
 70
     1
102
RTVSPropertyOp10
 70
     1
102
RTVSPropertyOp11
 70
     1
102
RTVSPropertyOp12
 70
     1
102
RTVSPropertyOp13
 70
     1
102
RTVSPropertyOp14
 70
     1
102
RTVSPropertyOp15
 70
     1
102
RTVSPropertyOp16
 70
     1
102
RTVSPropertyOp17
 70
     1
102
RTVSPropertyOp18
 70
     1
102
RTVSPropertyOp19
 70
     1
102
RTVSPropertyOp20
 70
     1
102
RTVSPropertyOp21
 70
     1
102
RTVSPropertyOp22
 70
     1
102
RTVSPropertyOp23
 70
     1
102
RTVSPropertyOp24
 70
     1
102
RTVSPropertyOp25
 70
     1
102
RTVSPropertyOp26
 70
     1
102
RTVSPropertyOp27
 70
     1
102
RTVSPropertyOp28
 70
     1
102
RTVSPropertyOp29
 70
     1
102
RTVSPropertyOp30
 70
     1
102
RTVSPropertyOp31
 70
     1
102
RTVSPropertyOp32
 70
     1
102
RTVSPropertyOp33
 70
     1
102
RTVSPropertyOp34
 70
     1
102
RTVSPropertyOp35
 70
     1
102
RTVSPropertyOp36
 70
     1
102
RTVSPropertyOp37
 70
     1
102
RTVSPropertyOp38
 70
     1
102
RTVSPropertyOp39
 70
     1
102
RTVSPropertyOp40
 70
     1
102
RTVSPropertyOp41
 70
     1
102
RTVSPropertyOp42
 70
     1
102
RTVSPropertyOp43
 70
     1
102
RTVSPropertyOp44
 70
     1
102
RTVSPropertyOp45
 70
     1
102
RTVSPropertyOp46
 70
     1
102
RTVSPropertyOp47
 70
     1
102
RTVSPropertyOp48
 70
     1
102
RTVSPropertyOp49
 70
     1
102
RTVSPropertyOp50
 70
     1
102
RTVSPropertyOp51
 70
     0
102
RTVSPropertyOp52
 70
     0
102
RTVSPropertyOp53
 70
     1
102
RTVSPropertyOp54
 70
     1
102
RTVSPropertyOp55
 70
     1
102
RTVSPropertyOp56
 70
     1
102
RTVSPropertyOp57
 70
     1
102
RTVSPost2010Prop28
280
     0
102
RTVSPost2010PropOp28
 70
     1
102
RTVSPost2010Prop29
280
     1
102
RTVSPost2010PropOp29
 70
     1
102
RTVSPost2010Prop30
280
     1
102
RTVSPost2010PropOp30
 70
     1
102
RTVSPost2010Prop31
280
     0
102
RTVSPost2010PropOp31
 70
     1
102
RTVSPost2010Prop32
280
     0
102
RTVSPost2010PropOp32
 70
     1
102
RTVSPost2010Prop33
280
     0
102
RTVSPost2010PropOp33
 70
     1
102
RTVSPost2010Prop34
280
     0
102
RTVSPost2010PropOp34
 70
     1
102
RTVSPost2010Prop35
280
     0
102
RTVSPost2010PropOp35
 70
     1
102
RTVSPost2010Prop36
280
     0
102
RTVSPost2010PropOp36
 70
     1
102
RTVSPost2010Prop37
 90
       50
102
RTVSPost2010PropOp37
 70
     1
102
RTVSPost2010Prop38
140
0.0
102
RTVSPost2010PropOp38
 70
     1
102
RTVSPost2010Prop39
140
1.0
102
RTVSPost2010PropOp39
 70
     1
102
RTVSPost2010Prop40
 90
        0
102
RTVSPost2010PropOp40
 70
     1
102
RTVSPost2010Prop41ColorIndex
 90
       18
102
RTVSPost2010Prop41ColorRGB
 90
        0
102
RTVSPost2010PropOp41
 70
     1
102
RTVSPost2010Prop42
 90
       50
102
RTVSPost2010PropOp42
 70
     1
102
RTVSPost2010Prop43
 90
        3
102
RTVSPost2010PropOp43
 70
     1
102
RTVSPost2010Prop44ColorIndex
 90
        5
102
RTVSPost2010Prop44ColorRGB
 90
      255
102
RTVSPost2010PropOp44
 70
     1
102
RTVSPost2010Prop45
280
     0
102
RTVSPost2010PropOp45
 70
     1
102
RTVSPost2010Prop46
 90
       50
102
RTVSPost2010PropOp46
 70
     1
102
RTVSPost2010Prop47
 90
       50
102
RTVSPost2010PropOp47
 70
     1
102
RTVSPost2010Prop48
 90
       50
102
RTVSPost2010PropOp48
 70
     1
102
RTVSPost2010Prop49
280
     0
102
RTVSPost2010PropOp49
 70
     1
102
RTVSPost2010Prop50
 90
       50
102
RTVSPost2010PropOp50
 70
     1
102
RTVSPost2010Prop51ColorIndex
 90
      256
102
RTVSPost2010Prop51ColorRGB
 90
-16777216
102
RTVSPost2010PropOp51
 70
     0
102
RTVSPost2010Prop52
140
1.0
102
RTVSPost2010PropOp52
 70
     0
102
RTVSPost2010Prop53
 90
        2
102
RTVSPost2010PropOp53
 70
     1
102
RTVSPost2010Prop54
  1
strokes_ogs.tif
102
RTVSPost2010PropOp54
 70
     1
102
RTVSPost2010Prop55
280
     0
102
RTVSPost2010PropOp55
 70
     1
102
RTVSPost2010Prop56
140
1.0
102
RTVSPost2010PropOp56
 70
     1
102
RTVSPost2010Prop57
140
1.0
102
RTVSPost2010PropOp57
 70
     1
  0
XRECORD
  5
1A3
102
{ACAD_REACTORS
330
1A2
102
}
330
1A2
100
AcDbXrecord
280
     1
102
RTVSPropertyOp0
 70
     1
102
RTVSPropertyOp1
 70
     1
102
RTVSPropertyOp2
 70
     1
102
RTVSPropertyOp3
 70
     1
102
RTVSPropertyOp4
 70
     1
102
RTVSPropertyOp5
 70
     1
102
RTVSPropertyOp6
 70
     1
102
RTVSPropertyOp7
 70
     1
102
RTVSPropertyOp8
 70
     1
102
RTVSPropertyOp9
 70
     1
102
RTVSPropertyOp10
 70
     1
102
RTVSPropertyOp11
 70
     1
102
RTVSPropertyOp12
 70
     1
102
RTVSPropertyOp13
 70
     1
102
RTVSPropertyOp14
 70
     1
102
RTVSPropertyOp15
 70
     1
102
RTVSPropertyOp16
 70
     1
102
RTVSPropertyOp17
 70
     1
102
RTVSPropertyOp18
 70
     1
102
RTVSPropertyOp19
 70
     1
102
RTVSPropertyOp20
 70
     1
102
RTVSPropertyOp21
 70
     1
102
RTVSPropertyOp22
 70
     1
102
RTVSPropertyOp23
 70
     1
102
RTVSPropertyOp24
 70
     1
102
RTVSPropertyOp25
 70
     1
102
RTVSPropertyOp26
 70
     1
102
RTVSPropertyOp27
 70
     1
102
RTVSPropertyOp28
 70
     1
102
RTVSPropertyOp29
 70
     1
102
RTVSPropertyOp30
 70
     1
102
RTVSPropertyOp31
 70
     1
102
RTVSPropertyOp32
 70
     1
102
RTVSPropertyOp33
 70
     1
102
RTVSPropertyOp34
 70
     1
102
RTVSPropertyOp35
 70
     1
102
RTVSPropertyOp36
 70
     1
102
RTVSPropertyOp37
 70
     1
102
RTVSPropertyOp38
 70
     1
102
RTVSPropertyOp39
 70
     1
102
RTVSPropertyOp40
 70
     1
102
RTVSPropertyOp41
 70
     1
102
RTVSPropertyOp42
 70
     1
102
RTVSPropertyOp43
 70
     1
102
RTVSPropertyOp44
 70
     1
102
RTVSPropertyOp45
 70
     1
102
RTVSPropertyOp46
 70
     1
102
RTVSPropertyOp47
 70
     1
102
RTVSPropertyOp48
 70
     1
102
RTVSPropertyOp49
 70
     1
102
RTVSPropertyOp50
 70
     1
102
RTVSPropertyOp51
 70
     0
102
RTVSPropertyOp52
 70
     0
102
RTVSPropertyOp53
 70
     1
102
RTVSPropertyOp54
 70
     1
102
RTVSPropertyOp55
 70
     1
102
RTVSPropertyOp56
 70
     1
102
RTVSPropertyOp57
 70
     1
102
RTVSPost2010Prop28
280
     0
102
RTVSPost2010PropOp28
 70
     1
102
RTVSPost2010Prop29
280
     1
102
RTVSPost2010PropOp29
 70
     1
102
RTVSPost2010Prop30
280
     1
102
RTVSPost2010PropOp30
 70
     1
102
RTVSPost2010Prop31
280
     0
102
RTVSPost2010PropOp31
 70
     1
102
RTVSPost2010Prop32
280
     0
102
RTVSPost2010PropOp32
 70
     1
102
RTVSPost2010Prop33
280
     0
102
RTVSPost2010PropOp33
 70
     1
102
RTVSPost2010Prop34
280
     0
102
RTVSPost2010PropOp34
 70
     1
102
RTVSPost2010Prop35
280
     0
102
RTVSPost2010PropOp35
 70
     1
102
RTVSPost2010Prop36
280
     0
102
RTVSPost2010PropOp36
 70
     1
102
RTVSPost2010Prop37
 90
       50
102
RTVSPost2010PropOp37
 70
     1
102
RTVSPost2010Prop38
140
0.0
102
RTVSPost2010PropOp38
 70
     1
102
RTVSPost2010Prop39
140
1.0
102
RTVSPost2010PropOp39
 70
     1
102
RTVSPost2010Prop40
 90
        0
102
RTVSPost2010PropOp40
 70
     1
102
RTVSPost2010Prop41ColorIndex
 90
       18
102
RTVSPost2010Prop41ColorRGB
 90
        0
102
RTVSPost2010PropOp41
 70
     1
102
RTVSPost2010Prop42
 90
       50
102
RTVSPost2010PropOp42
 70
     1
102
RTVSPost2010Prop43
 90
        3
102
RTVSPost2010PropOp43
 70
     1
102
RTVSPost2010Prop44ColorIndex
 90
        5
102
RTVSPost2010Prop44ColorRGB
 90
      255
102
RTVSPost2010PropOp44
 70
     1
102
RTVSPost2010Prop45
280
     0
102
RTVSPost2010PropOp45
 70
     1
102
RTVSPost2010Prop46
 90
       50
102
RTVSPost2010PropOp46
 70
     1
102
RTVSPost2010Prop47
 90
       50
102
RTVSPost2010PropOp47
 70
     1
102
RTVSPost2010Prop48
 90
       50
102
RTVSPost2010PropOp48
 70
     1
102
RTVSPost2010Prop49
280
     0
102
RTVSPost2010PropOp49
 70
     1
102
RTVSPost2010Prop50
 90
       50
102
RTVSPost2010PropOp50
 70
     1
102
RTVSPost2010Prop51ColorIndex
 90
      256
102
RTVSPost2010Prop51ColorRGB
 90
-16777216
102
RTVSPost2010PropOp51
 70
     0
102
RTVSPost2010Prop52
140
1.0
102
RTVSPost2010PropOp52
 70
     0
102
RTVSPost2010Prop53
 90
        2
102
RTVSPost2010PropOp53
 70
     1
102
RTVSPost2010Prop54
  1
strokes_ogs.tif
102
RTVSPost2010PropOp54
 70
     1
102
RTVSPost2010Prop55
280
     0
102
RTVSPost2010PropOp55
 70
     1
102
RTVSPost2010Prop56
140
1.0
102
RTVSPost2010PropOp56
 70
     1
102
RTVSPost2010Prop57
140
1.0
102
RTVSPost2010PropOp57
 70
     1
  0
XRECORD
  5
197
102
{ACAD_REACTORS
330
196
102
}
330
196
100
AcDbXrecord
280
     1
102
RTVSPropertyOp0
 70
     1
102
RTVSPropertyOp1
 70
     1
102
RTVSPropertyOp2
 70
     1
102
RTVSPropertyOp3
 70
     1
102
RTVSPropertyOp4
 70
     1
102
RTVSPropertyOp5
 70
     1
102
RTVSPropertyOp6
 70
     1
102
RTVSPropertyOp7
 70
     1
102
RTVSPropertyOp8
 70
     1
102
RTVSPropertyOp9
 70
     1
102
RTVSPropertyOp10
 70
     1
102
RTVSPropertyOp11
 70
     1
102
RTVSPropertyOp12
 70
     1
102
RTVSPropertyOp13
 70
     1
102
RTVSPropertyOp14
 70
     1
102
RTVSPropertyOp15
 70
     1
102
RTVSPropertyOp16
 70
     1
102
RTVSPropertyOp17
 70
     1
102
RTVSPropertyOp18
 70
     1
102
RTVSPropertyOp19
 70
     1
102
RTVSPropertyOp20
 70
     1
102
RTVSPropertyOp21
 70
     1
102
RTVSPropertyOp22
 70
     1
102
RTVSPropertyOp23
 70
     1
102
RTVSPropertyOp24
 70
     1
102
RTVSPropertyOp25
 70
     1
102
RTVSPropertyOp26
 70
     1
102
RTVSPropertyOp27
 70
     1
102
RTVSPropertyOp28
 70
     1
102
RTVSPropertyOp29
 70
     1
102
RTVSPropertyOp30
 70
     1
102
RTVSPropertyOp31
 70
     1
102
RTVSPropertyOp32
 70
     1
102
RTVSPropertyOp33
 70
     1
102
RTVSPropertyOp34
 70
     1
102
RTVSPropertyOp35
 70
     1
102
RTVSPropertyOp36
 70
     1
102
RTVSPropertyOp37
 70
     1
102
RTVSPropertyOp38
 70
     1
102
RTVSPropertyOp39
 70
     1
102
RTVSPropertyOp40
 70
     1
102
RTVSPropertyOp41
 70
     1
102
RTVSPropertyOp42
 70
     1
102
RTVSPropertyOp43
 70
     1
102
RTVSPropertyOp44
 70
     1
102
RTVSPropertyOp45
 70
     1
102
RTVSPropertyOp46
 70
     1
102
RTVSPropertyOp47
 70
     1
102
RTVSPropertyOp48
 70
     1
102
RTVSPropertyOp49
 70
     1
102
RTVSPropertyOp50
 70
     1
102
RTVSPropertyOp51
 70
     0
102
RTVSPropertyOp52
 70
     0
102
RTVSPropertyOp53
 70
     1
102
RTVSPropertyOp54
 70
     1
102
RTVSPropertyOp55
 70
     1
102
RTVSPropertyOp56
 70
     1
102
RTVSPropertyOp57
 70
     1
102
RTVSPost2010Prop28
280
     0
102
RTVSPost2010PropOp28
 70
     1
102
RTVSPost2010Prop29
280
     1
102
RTVSPost2010PropOp29
 70
     1
102
RTVSPost2010Prop30
280
     1
102
RTVSPost2010PropOp30
 70
     1
102
RTVSPost2010Prop31
280
     0
102
RTVSPost2010PropOp31
 70
     1
102
RTVSPost2010Prop32
280
     0
102
RTVSPost2010PropOp32
 70
     1
102
RTVSPost2010Prop33
280
     0
102
RTVSPost2010PropOp33
 70
     1
102
RTVSPost2010Prop34
280
     0
102
RTVSPost2010PropOp34
 70
     1
102
RTVSPost2010Prop35
280
     0
102
RTVSPost2010PropOp35
 70
     1
102
RTVSPost2010Prop36
280
     0
102
RTVSPost2010PropOp36
 70
     1
102
RTVSPost2010Prop37
 90
       50
102
RTVSPost2010PropOp37
 70
     1
102
RTVSPost2010Prop38
140
0.0
102
RTVSPost2010PropOp38
 70
     1
102
RTVSPost2010Prop39
140
1.0
102
RTVSPost2010PropOp39
 70
     1
102
RTVSPost2010Prop40
 90
        0
102
RTVSPost2010PropOp40
 70
     1
102
RTVSPost2010Prop41ColorIndex
 90
       18
102
RTVSPost2010Prop41ColorRGB
 90
        0
102
RTVSPost2010PropOp41
 70
     1
102
RTVSPost2010Prop42
 90
       50
102
RTVSPost2010PropOp42
 70
     1
102
RTVSPost2010Prop43
 90
        3
102
RTVSPost2010PropOp43
 70
     1
102
RTVSPost2010Prop44ColorIndex
 90
        5
102
RTVSPost2010Prop44ColorRGB
 90
      255
102
RTVSPost2010PropOp44
 70
     1
102
RTVSPost2010Prop45
280
     0
102
RTVSPost2010PropOp45
 70
     1
102
RTVSPost2010Prop46
 90
       50
102
RTVSPost2010PropOp46
 70
     1
102
RTVSPost2010Prop47
 90
       50
102
RTVSPost2010PropOp47
 70
     1
102
RTVSPost2010Prop48
 90
       50
102
RTVSPost2010PropOp48
 70
     1
102
RTVSPost2010Prop49
280
     0
102
RTVSPost2010PropOp49
 70
     1
102
RTVSPost2010Prop50
 90
       50
102
RTVSPost2010PropOp50
 70
     1
102
RTVSPost2010Prop51ColorIndex
 90
      256
102
RTVSPost2010Prop51ColorRGB
 90
-16777216
102
RTVSPost2010PropOp51
 70
     0
102
RTVSPost2010Prop52
140
1.0
102
RTVSPost2010PropOp52
 70
     0
102
RTVSPost2010Prop53
 90
        2
102
RTVSPost2010PropOp53
 70
     1
102
RTVSPost2010Prop54
  1
strokes_ogs.tif
102
RTVSPost2010PropOp54
 70
     1
102
RTVSPost2010Prop55
280
     0
102
RTVSPost2010PropOp55
 70
     1
102
RTVSPost2010Prop56
140
1.0
102
RTVSPost2010PropOp56
 70
     1
102
RTVSPost2010Prop57
140
1.0
102
RTVSPost2010PropOp57
 70
     1
  0
XRECORD
  5
199
102
{ACAD_REACTORS
330
198
102
}
330
198
100
AcDbXrecord
280
     1
102
RTVSPropertyOp0
 70
     1
102
RTVSPropertyOp1
 70
     1
102
RTVSPropertyOp2
 70
     1
102
RTVSPropertyOp3
 70
     1
102
RTVSPropertyOp4
 70
     1
102
RTVSPropertyOp5
 70
     1
102
RTVSPropertyOp6
 70
     1
102
RTVSPropertyOp7
 70
     1
102
RTVSPropertyOp8
 70
     1
102
RTVSPropertyOp9
 70
     1
102
RTVSPropertyOp10
 70
     1
102
RTVSPropertyOp11
 70
     1
102
RTVSPropertyOp12
 70
     1
102
RTVSPropertyOp13
 70
     1
102
RTVSPropertyOp14
 70
     1
102
RTVSPropertyOp15
 70
     1
102
RTVSPropertyOp16
 70
     1
102
RTVSPropertyOp17
 70
     1
102
RTVSPropertyOp18
 70
     1
102
RTVSPropertyOp19
 70
     1
102
RTVSPropertyOp20
 70
     1
102
RTVSPropertyOp21
 70
     1
102
RTVSPropertyOp22
 70
     1
102
RTVSPropertyOp23
 70
     1
102
RTVSPropertyOp24
 70
     1
102
RTVSPropertyOp25
 70
     1
102
RTVSPropertyOp26
 70
     1
102
RTVSPropertyOp27
 70
     1
102
RTVSPropertyOp28
 70
     1
102
RTVSPropertyOp29
 70
     1
102
RTVSPropertyOp30
 70
     1
102
RTVSPropertyOp31
 70
     1
102
RTVSPropertyOp32
 70
     1
102
RTVSPropertyOp33
 70
     1
102
RTVSPropertyOp34
 70
     1
102
RTVSPropertyOp35
 70
     1
102
RTVSPropertyOp36
 70
     1
102
RTVSPropertyOp37
 70
     1
102
RTVSPropertyOp38
 70
     1
102
RTVSPropertyOp39
 70
     1
102
RTVSPropertyOp40
 70
     1
102
RTVSPropertyOp41
 70
     1
102
RTVSPropertyOp42
 70
     1
102
RTVSPropertyOp43
 70
     1
102
RTVSPropertyOp44
 70
     1
102
RTVSPropertyOp45
 70
     1
102
RTVSPropertyOp46
 70
     1
102
RTVSPropertyOp47
 70
     1
102
RTVSPropertyOp48
 70
     1
102
RTVSPropertyOp49
 70
     1
102
RTVSPropertyOp50
 70
     1
102
RTVSPropertyOp51
 70
     0
102
RTVSPropertyOp52
 70
     0
102
RTVSPropertyOp53
 70
     1
102
RTVSPropertyOp54
 70
     1
102
RTVSPropertyOp55
 70
     1
102
RTVSPropertyOp56
 70
     1
102
RTVSPropertyOp57
 70
     1
102
RTVSPost2010Prop28
280
     0
102
RTVSPost2010PropOp28
 70
     1
102
RTVSPost2010Prop29
280
     1
102
RTVSPost2010PropOp29
 70
     1
102
RTVSPost2010Prop30
280
     1
102
RTVSPost2010PropOp30
 70
     1
102
RTVSPost2010Prop31
280
     0
102
RTVSPost2010PropOp31
 70
     1
102
RTVSPost2010Prop32
280
     0
102
RTVSPost2010PropOp32
 70
     1
102
RTVSPost2010Prop33
280
     0
102
RTVSPost2010PropOp33
 70
     1
102
RTVSPost2010Prop34
280
     0
102
RTVSPost2010PropOp34
 70
     1
102
RTVSPost2010Prop35
280
     0
102
RTVSPost2010PropOp35
 70
     1
102
RTVSPost2010Prop36
280
     0
102
RTVSPost2010PropOp36
 70
     1
102
RTVSPost2010Prop37
 90
       50
102
RTVSPost2010PropOp37
 70
     1
102
RTVSPost2010Prop38
140
0.0
102
RTVSPost2010PropOp38
 70
     1
102
RTVSPost2010Prop39
140
1.0
102
RTVSPost2010PropOp39
 70
     1
102
RTVSPost2010Prop40
 90
        0
102
RTVSPost2010PropOp40
 70
     1
102
RTVSPost2010Prop41ColorIndex
 90
       18
102
RTVSPost2010Prop41ColorRGB
 90
        0
102
RTVSPost2010PropOp41
 70
     1
102
RTVSPost2010Prop42
 90
       50
102
RTVSPost2010PropOp42
 70
     1
102
RTVSPost2010Prop43
 90
        3
102
RTVSPost2010PropOp43
 70
     1
102
RTVSPost2010Prop44ColorIndex
 90
        5
102
RTVSPost2010Prop44ColorRGB
 90
      255
102
RTVSPost2010PropOp44
 70
     1
102
RTVSPost2010Prop45
280
     0
102
RTVSPost2010PropOp45
 70
     1
102
RTVSPost2010Prop46
 90
       50
102
RTVSPost2010PropOp46
 70
     1
102
RTVSPost2010Prop47
 90
       50
102
RTVSPost2010PropOp47
 70
     1
102
RTVSPost2010Prop48
 90
       50
102
RTVSPost2010PropOp48
 70
     1
102
RTVSPost2010Prop49
280
     0
102
RTVSPost2010PropOp49
 70
     1
102
RTVSPost2010Prop50
 90
       50
102
RTVSPost2010PropOp50
 70
     1
102
RTVSPost2010Prop51ColorIndex
 90
      256
102
RTVSPost2010Prop51ColorRGB
 90
-16777216
102
RTVSPost2010PropOp51
 70
     0
102
RTVSPost2010Prop52
140
1.0
102
RTVSPost2010PropOp52
 70
     0
102
RTVSPost2010Prop53
 90
        2
102
RTVSPost2010PropOp53
 70
     1
102
RTVSPost2010Prop54
  1
strokes_ogs.tif
102
RTVSPost2010PropOp54
 70
     1
102
RTVSPost2010Prop55
280
     0
102
RTVSPost2010PropOp55
 70
     1
102
RTVSPost2010Prop56
140
1.0
102
RTVSPost2010PropOp56
 70
     1
102
RTVSPost2010Prop57
140
1.0
102
RTVSPost2010PropOp57
 70
     1
  0
XRECORD
  5
1A9
102
{ACAD_REACTORS
330
1A8
102
}
330
1A8
100
AcDbXrecord
280
     1
102
RTVSPropertyOp0
 70
     0
102
RTVSPropertyOp1
 70
     0
102
RTVSPropertyOp2
 70
     0
102
RTVSPropertyOp3
 70
     0
102
RTVSPropertyOp4
 70
     0
102
RTVSPropertyOp5
 70
     0
102
RTVSPropertyOp6
 70
     0
102
RTVSPropertyOp7
 70
     0
102
RTVSPropertyOp8
 70
     0
102
RTVSPropertyOp9
 70
     0
102
RTVSPropertyOp10
 70
     0
102
RTVSPropertyOp11
 70
     0
102
RTVSPropertyOp12
 70
     0
102
RTVSPropertyOp13
 70
     0
102
RTVSPropertyOp14
 70
     2
102
RTVSPropertyOp15
 70
     0
102
RTVSPropertyOp16
 70
     0
102
RTVSPropertyOp17
 70
     0
102
RTVSPropertyOp18
 70
     0
102
RTVSPropertyOp19
 70
     0
102
RTVSPropertyOp20
 70
     0
102
RTVSPropertyOp21
 70
     0
102
RTVSPropertyOp22
 70
     0
102
RTVSPropertyOp23
 70
     0
102
RTVSPropertyOp24
 70
     0
102
RTVSPropertyOp25
 70
     0
102
RTVSPropertyOp26
 70
     0
102
RTVSPropertyOp27
 70
     0
102
RTVSPropertyOp28
 70
     0
102
RTVSPropertyOp29
 70
     0
102
RTVSPropertyOp30
 70
     0
102
RTVSPropertyOp31
 70
     0
102
RTVSPropertyOp32
 70
     0
102
RTVSPropertyOp33
 70
     0
102
RTVSPropertyOp34
 70
     0
102
RTVSPropertyOp35
 70
     0
102
RTVSPropertyOp36
 70
     0
102
RTVSPropertyOp37
 70
     0
102
RTVSPropertyOp38
 70
     0
102
RTVSPropertyOp39
 70
     0
102
RTVSPropertyOp40
 70
     0
102
RTVSPropertyOp41
 70
     0
102
RTVSPropertyOp42
 70
     0
102
RTVSPropertyOp43
 70
     0
102
RTVSPropertyOp44
 70
     0
102
RTVSPropertyOp45
 70
     0
102
RTVSPropertyOp46
 70
     0
102
RTVSPropertyOp47
 70
     0
102
RTVSPropertyOp48
 70
     0
102
RTVSPropertyOp49
 70
     0
102
RTVSPropertyOp50
 70
     0
102
RTVSPropertyOp51
 70
     0
102
RTVSPropertyOp52
 70
     0
102
RTVSPropertyOp53
 70
     0
102
RTVSPropertyOp54
 70
     0
102
RTVSPropertyOp55
 70
     0
102
RTVSPropertyOp56
 70
     0
102
RTVSPropertyOp57
 70
     0
102
RTVSPost2010Prop28
280
     0
102
RTVSPost2010PropOp28
 70
     0
102
RTVSPost2010Prop29
280
     1
102
RTVSPost2010PropOp29
 70
     0
102
RTVSPost2010Prop30
280
     1
102
RTVSPost2010PropOp30
 70
     0
102
RTVSPost2010Prop31
280
     0
102
RTVSPost2010PropOp31
 70
     0
102
RTVSPost2010Prop32
280
     0
102
RTVSPost2010PropOp32
 70
     0
102
RTVSPost2010Prop33
280
     0
102
RTVSPost2010PropOp33
 70
     0
102
RTVSPost2010Prop34
280
     0
102
RTVSPost2010PropOp34
 70
     0
102
RTVSPost2010Prop35
280
     0
102
RTVSPost2010PropOp35
 70
     0
102
RTVSPost2010Prop36
280
     0
102
RTVSPost2010PropOp36
 70
     0
102
RTVSPost2010Prop37
 90
       50
102
RTVSPost2010PropOp37
 70
     0
102
RTVSPost2010Prop38
140
0.0
102
RTVSPost2010PropOp38
 70
     0
102
RTVSPost2010Prop39
140
1.0
102
RTVSPost2010PropOp39
 70
     0
102
RTVSPost2010Prop40
 90
        0
102
RTVSPost2010PropOp40
 70
     0
102
RTVSPost2010Prop41ColorIndex
 90
       18
102
RTVSPost2010Prop41ColorRGB
 90
        0
102
RTVSPost2010PropOp41
 70
     0
102
RTVSPost2010Prop42
 90
       50
102
RTVSPost2010PropOp42
 70
     0
102
RTVSPost2010Prop43
 90
        3
102
RTVSPost2010PropOp43
 70
     0
102
RTVSPost2010Prop44ColorIndex
 90
        5
102
RTVSPost2010Prop44ColorRGB
 90
      255
102
RTVSPost2010PropOp44
 70
     0
102
RTVSPost2010Prop45
280
     0
102
RTVSPost2010PropOp45
 70
     0
102
RTVSPost2010Prop46
 90
       50
102
RTVSPost2010PropOp46
 70
     0
102
RTVSPost2010Prop47
 90
       50
102
RTVSPost2010PropOp47
 70
     0
102
RTVSPost2010Prop48
 90
       50
102
RTVSPost2010PropOp48
 70
     0
102
RTVSPost2010Prop49
280
     0
102
RTVSPost2010PropOp49
 70
     0
102
RTVSPost2010Prop50
 90
       50
102
RTVSPost2010PropOp50
 70
     0
102
RTVSPost2010Prop51ColorIndex
 90
      256
102
RTVSPost2010Prop51ColorRGB
 90
-16777216
102
RTVSPost2010PropOp51
 70
     0
102
RTVSPost2010Prop52
140
1.0
102
RTVSPost2010PropOp52
 70
     0
102
RTVSPost2010Prop53
 90
        2
102
RTVSPost2010PropOp53
 70
     0
102
RTVSPost2010Prop54
  1
strokes_ogs.tif
102
RTVSPost2010PropOp54
 70
     0
102
RTVSPost2010Prop55
280
     0
102
RTVSPost2010PropOp55
 70
     0
102
RTVSPost2010Prop56
140
1.0
102
RTVSPost2010PropOp56
 70
     0
102
RTVSPost2010Prop57
140
1.0
102
RTVSPost2010PropOp57
 70
     0
  0
XRECORD
  5
1A1
102
{ACAD_REACTORS
330
1A0
102
}
330
1A0
100
AcDbXrecord
280
     1
102
RTVSPropertyOp0
 70
     1
102
RTVSPropertyOp1
 70
     1
102
RTVSPropertyOp2
 70
     1
102
RTVSPropertyOp3
 70
     1
102
RTVSPropertyOp4
 70
     1
102
RTVSPropertyOp5
 70
     1
102
RTVSPropertyOp6
 70
     1
102
RTVSPropertyOp7
 70
     1
102
RTVSPropertyOp8
 70
     1
102
RTVSPropertyOp9
 70
     1
102
RTVSPropertyOp10
 70
     1
102
RTVSPropertyOp11
 70
     1
102
RTVSPropertyOp12
 70
     1
102
RTVSPropertyOp13
 70
     1
102
RTVSPropertyOp14
 70
     1
102
RTVSPropertyOp15
 70
     1
102
RTVSPropertyOp16
 70
     1
102
RTVSPropertyOp17
 70
     1
102
RTVSPropertyOp18
 70
     1
102
RTVSPropertyOp19
 70
     1
102
RTVSPropertyOp20
 70
     1
102
RTVSPropertyOp21
 70
     1
102
RTVSPropertyOp22
 70
     1
102
RTVSPropertyOp23
 70
     1
102
RTVSPropertyOp24
 70
     1
102
RTVSPropertyOp25
 70
     1
102
RTVSPropertyOp26
 70
     1
102
RTVSPropertyOp27
 70
     1
102
RTVSPropertyOp28
 70
     1
102
RTVSPropertyOp29
 70
     1
102
RTVSPropertyOp30
 70
     1
102
RTVSPropertyOp31
 70
     1
102
RTVSPropertyOp32
 70
     1
102
RTVSPropertyOp33
 70
     1
102
RTVSPropertyOp34
 70
     1
102
RTVSPropertyOp35
 70
     1
102
RTVSPropertyOp36
 70
     1
102
RTVSPropertyOp37
 70
     1
102
RTVSPropertyOp38
 70
     1
102
RTVSPropertyOp39
 70
     1
102
RTVSPropertyOp40
 70
     1
102
RTVSPropertyOp41
 70
     1
102
RTVSPropertyOp42
 70
     1
102
RTVSPropertyOp43
 70
     1
102
RTVSPropertyOp44
 70
     1
102
RTVSPropertyOp45
 70
     1
102
RTVSPropertyOp46
 70
     1
102
RTVSPropertyOp47
 70
     1
102
RTVSPropertyOp48
 70
     1
102
RTVSPropertyOp49
 70
     1
102
RTVSPropertyOp50
 70
     1
102
RTVSPropertyOp51
 70
     0
102
RTVSPropertyOp52
 70
     0
102
RTVSPropertyOp53
 70
     1
102
RTVSPropertyOp54
 70
     1
102
RTVSPropertyOp55
 70
     1
102
RTVSPropertyOp56
 70
     1
102
RTVSPropertyOp57
 70
     1
102
RTVSPost2010Prop28
280
     0
102
RTVSPost2010PropOp28
 70
     1
102
RTVSPost2010Prop29
280
     1
102
RTVSPost2010PropOp29
 70
     1
102
RTVSPost2010Prop30
280
     1
102
RTVSPost2010PropOp30
 70
     1
102
RTVSPost2010Prop31
280
     0
102
RTVSPost2010PropOp31
 70
     1
102
RTVSPost2010Prop32
280
     0
102
RTVSPost2010PropOp32
 70
     1
102
RTVSPost2010Prop33
280
     0
102
RTVSPost2010PropOp33
 70
     1
102
RTVSPost2010Prop34
280
     0
102
RTVSPost2010PropOp34
 70
     1
102
RTVSPost2010Prop35
280
     0
102
RTVSPost2010PropOp35
 70
     1
102
RTVSPost2010Prop36
280
     0
102
RTVSPost2010PropOp36
 70
     1
102
RTVSPost2010Prop37
 90
       50
102
RTVSPost2010PropOp37
 70
     1
102
RTVSPost2010Prop38
140
0.0
102
RTVSPost2010PropOp38
 70
     1
102
RTVSPost2010Prop39
140
1.0
102
RTVSPost2010PropOp39
 70
     1
102
RTVSPost2010Prop40
 90
        0
102
RTVSPost2010PropOp40
 70
     1
102
RTVSPost2010Prop41ColorIndex
 90
       18
102
RTVSPost2010Prop41ColorRGB
 90
        0
102
RTVSPost2010PropOp41
 70
     1
102
RTVSPost2010Prop42
 90
       50
102
RTVSPost2010PropOp42
 70
     1
102
RTVSPost2010Prop43
 90
        3
102
RTVSPost2010PropOp43
 70
     1
102
RTVSPost2010Prop44ColorIndex
 90
        5
102
RTVSPost2010Prop44ColorRGB
 90
      255
102
RTVSPost2010PropOp44
 70
     1
102
RTVSPost2010Prop45
280
     0
102
RTVSPost2010PropOp45
 70
     1
102
RTVSPost2010Prop46
 90
       50
102
RTVSPost2010PropOp46
 70
     1
102
RTVSPost2010Prop47
 90
       50
102
RTVSPost2010PropOp47
 70
     1
102
RTVSPost2010Prop48
 90
       50
102
RTVSPost2010PropOp48
 70
     1
102
RTVSPost2010Prop49
280
     0
102
RTVSPost2010PropOp49
 70
     1
102
RTVSPost2010Prop50
 90
       50
102
RTVSPost2010PropOp50
 70
     1
102
RTVSPost2010Prop51ColorIndex
 90
      256
102
RTVSPost2010Prop51ColorRGB
 90
-16777216
102
RTVSPost2010PropOp51
 70
     0
102
RTVSPost2010Prop52
140
1.0
102
RTVSPost2010PropOp52
 70
     0
102
RTVSPost2010Prop53
 90
        2
102
RTVSPost2010PropOp53
 70
     1
102
RTVSPost2010Prop54
  1
strokes_ogs.tif
102
RTVSPost2010PropOp54
 70
     1
102
RTVSPost2010Prop55
280
     0
102
RTVSPost2010PropOp55
 70
     1
102
RTVSPost2010Prop56
140
1.0
102
RTVSPost2010PropOp56
 70
     1
102
RTVSPost2010Prop57
140
1.0
102
RTVSPost2010PropOp57
 70
     1
  0
XRECORD
  5
185
102
{ACAD_REACTORS
330
184
102
}
330
184
100
AcDbXrecord
280
     1
102
RTVSPropertyOp0
 70
     1
102
RTVSPropertyOp1
 70
     1
102
RTVSPropertyOp2
 70
     1
102
RTVSPropertyOp3
 70
     1
102
RTVSPropertyOp4
 70
     1
102
RTVSPropertyOp5
 70
     1
102
RTVSPropertyOp6
 70
     1
102
RTVSPropertyOp7
 70
     1
102
RTVSPropertyOp8
 70
     1
102
RTVSPropertyOp9
 70
     1
102
RTVSPropertyOp10
 70
     1
102
RTVSPropertyOp11
 70
     1
102
RTVSPropertyOp12
 70
     1
102
RTVSPropertyOp13
 70
     1
102
RTVSPropertyOp14
 70
     1
102
RTVSPropertyOp15
 70
     1
102
RTVSPropertyOp16
 70
     1
102
RTVSPropertyOp17
 70
     1
102
RTVSPropertyOp18
 70
     1
102
RTVSPropertyOp19
 70
     1
102
RTVSPropertyOp20
 70
     1
102
RTVSPropertyOp21
 70
     1
102
RTVSPropertyOp22
 70
     1
102
RTVSPropertyOp23
 70
     1
102
RTVSPropertyOp24
 70
     1
102
RTVSPropertyOp25
 70
     1
102
RTVSPropertyOp26
 70
     1
102
RTVSPropertyOp27
 70
     1
102
RTVSPropertyOp28
 70
     1
102
RTVSPropertyOp29
 70
     1
102
RTVSPropertyOp30
 70
     1
102
RTVSPropertyOp31
 70
     1
102
RTVSPropertyOp32
 70
     1
102
RTVSPropertyOp33
 70
     1
102
RTVSPropertyOp34
 70
     1
102
RTVSPropertyOp35
 70
     1
102
RTVSPropertyOp36
 70
     1
102
RTVSPropertyOp37
 70
     1
102
RTVSPropertyOp38
 70
     1
102
RTVSPropertyOp39
 70
     1
102
RTVSPropertyOp40
 70
     1
102
RTVSPropertyOp41
 70
     1
102
RTVSPropertyOp42
 70
     1
102
RTVSPropertyOp43
 70
     1
102
RTVSPropertyOp44
 70
     1
102
RTVSPropertyOp45
 70
     1
102
RTVSPropertyOp46
 70
     1
102
RTVSPropertyOp47
 70
     1
102
RTVSPropertyOp48
 70
     1
102
RTVSPropertyOp49
 70
     1
102
RTVSPropertyOp50
 70
     1
102
RTVSPropertyOp51
 70
     0
102
RTVSPropertyOp52
 70
     0
102
RTVSPropertyOp53
 70
     1
102
RTVSPropertyOp54
 70
     1
102
RTVSPropertyOp55
 70
     1
102
RTVSPropertyOp56
 70
     1
102
RTVSPropertyOp57
 70
     1
102
RTVSPost2010Prop28
280
     0
102
RTVSPost2010PropOp28
 70
     1
102
RTVSPost2010Prop29
280
     1
102
RTVSPost2010PropOp29
 70
     1
102
RTVSPost2010Prop30
280
     1
102
RTVSPost2010PropOp30
 70
     1
102
RTVSPost2010Prop31
280
     0
102
RTVSPost2010PropOp31
 70
     1
102
RTVSPost2010Prop32
280
     0
102
RTVSPost2010PropOp32
 70
     1
102
RTVSPost2010Prop33
280
     0
102
RTVSPost2010PropOp33
 70
     1
102
RTVSPost2010Prop34
280
     0
102
RTVSPost2010PropOp34
 70
     1
102
RTVSPost2010Prop35
280
     0
102
RTVSPost2010PropOp35
 70
     1
102
RTVSPost2010Prop36
280
     0
102
RTVSPost2010PropOp36
 70
     1
102
RTVSPost2010Prop37
 90
       50
102
RTVSPost2010PropOp37
 70
     1
102
RTVSPost2010Prop38
140
0.0
102
RTVSPost2010PropOp38
 70
     1
102
RTVSPost2010Prop39
140
1.0
102
RTVSPost2010PropOp39
 70
     1
102
RTVSPost2010Prop40
 90
        0
102
RTVSPost2010PropOp40
 70
     1
102
RTVSPost2010Prop41ColorIndex
 90
       18
102
RTVSPost2010Prop41ColorRGB
 90
        0
102
RTVSPost2010PropOp41
 70
     1
102
RTVSPost2010Prop42
 90
       50
102
RTVSPost2010PropOp42
 70
     1
102
RTVSPost2010Prop43
 90
        3
102
RTVSPost2010PropOp43
 70
     1
102
RTVSPost2010Prop44ColorIndex
 90
        5
102
RTVSPost2010Prop44ColorRGB
 90
      255
102
RTVSPost2010PropOp44
 70
     1
102
RTVSPost2010Prop45
280
     0
102
RTVSPost2010PropOp45
 70
     1
102
RTVSPost2010Prop46
 90
       50
102
RTVSPost2010PropOp46
 70
     1
102
RTVSPost2010Prop47
 90
       50
102
RTVSPost2010PropOp47
 70
     1
102
RTVSPost2010Prop48
 90
       50
102
RTVSPost2010PropOp48
 70
     1
102
RTVSPost2010Prop49
280
     0
102
RTVSPost2010PropOp49
 70
     1
102
RTVSPost2010Prop50
 90
       50
102
RTVSPost2010PropOp50
 70
     1
102
RTVSPost2010Prop51ColorIndex
 90
      256
102
RTVSPost2010Prop51ColorRGB
 90
-16777216
102
RTVSPost2010PropOp51
 70
     0
102
RTVSPost2010Prop52
140
1.0
102
RTVSPost2010PropOp52
 70
     0
102
RTVSPost2010Prop53
 90
        2
102
RTVSPost2010PropOp53
 70
     1
102
RTVSPost2010Prop54
  1
strokes_ogs.tif
102
RTVSPost2010PropOp54
 70
     1
102
RTVSPost2010Prop55
280
     0
102
RTVSPost2010PropOp55
 70
     1
102
RTVSPost2010Prop56
140
1.0
102
RTVSPost2010PropOp56
 70
     1
102
RTVSPost2010Prop57
140
1.0
102
RTVSPost2010PropOp57
 70
     1
  0
XRECORD
  5
187
102
{ACAD_REACTORS
330
186
102
}
330
186
100
AcDbXrecord
280
     1
102
RTVSPropertyOp0
 70
     1
102
RTVSPropertyOp1
 70
     1
102
RTVSPropertyOp2
 70
     1
102
RTVSPropertyOp3
 70
     1
102
RTVSPropertyOp4
 70
     1
102
RTVSPropertyOp5
 70
     1
102
RTVSPropertyOp6
 70
     1
102
RTVSPropertyOp7
 70
     1
102
RTVSPropertyOp8
 70
     1
102
RTVSPropertyOp9
 70
     1
102
RTVSPropertyOp10
 70
     1
102
RTVSPropertyOp11
 70
     1
102
RTVSPropertyOp12
 70
     1
102
RTVSPropertyOp13
 70
     1
102
RTVSPropertyOp14
 70
     1
102
RTVSPropertyOp15
 70
     1
102
RTVSPropertyOp16
 70
     1
102
RTVSPropertyOp17
 70
     1
102
RTVSPropertyOp18
 70
     1
102
RTVSPropertyOp19
 70
     1
102
RTVSPropertyOp20
 70
     1
102
RTVSPropertyOp21
 70
     1
102
RTVSPropertyOp22
 70
     1
102
RTVSPropertyOp23
 70
     1
102
RTVSPropertyOp24
 70
     1
102
RTVSPropertyOp25
 70
     1
102
RTVSPropertyOp26
 70
     1
102
RTVSPropertyOp27
 70
     1
102
RTVSPropertyOp28
 70
     1
102
RTVSPropertyOp29
 70
     1
102
RTVSPropertyOp30
 70
     1
102
RTVSPropertyOp31
 70
     1
102
RTVSPropertyOp32
 70
     1
102
RTVSPropertyOp33
 70
     1
102
RTVSPropertyOp34
 70
     1
102
RTVSPropertyOp35
 70
     1
102
RTVSPropertyOp36
 70
     1
102
RTVSPropertyOp37
 70
     1
102
RTVSPropertyOp38
 70
     1
102
RTVSPropertyOp39
 70
     1
102
RTVSPropertyOp40
 70
     1
102
RTVSPropertyOp41
 70
     1
102
RTVSPropertyOp42
 70
     1
102
RTVSPropertyOp43
 70
     1
102
RTVSPropertyOp44
 70
     1
102
RTVSPropertyOp45
 70
     1
102
RTVSPropertyOp46
 70
     1
102
RTVSPropertyOp47
 70
     1
102
RTVSPropertyOp48
 70
     1
102
RTVSPropertyOp49
 70
     1
102
RTVSPropertyOp50
 70
     1
102
RTVSPropertyOp51
 70
     0
102
RTVSPropertyOp52
 70
     0
102
RTVSPropertyOp53
 70
     1
102
RTVSPropertyOp54
 70
     1
102
RTVSPropertyOp55
 70
     1
102
RTVSPropertyOp56
 70
     1
102
RTVSPropertyOp57
 70
     1
102
RTVSPost2010Prop28
280
     0
102
RTVSPost2010PropOp28
 70
     1
102
RTVSPost2010Prop29
280
     1
102
RTVSPost2010PropOp29
 70
     1
102
RTVSPost2010Prop30
280
     1
102
RTVSPost2010PropOp30
 70
     1
102
RTVSPost2010Prop31
280
     0
102
RTVSPost2010PropOp31
 70
     1
102
RTVSPost2010Prop32
280
     0
102
RTVSPost2010PropOp32
 70
     1
102
RTVSPost2010Prop33
280
     0
102
RTVSPost2010PropOp33
 70
     1
102
RTVSPost2010Prop34
280
     0
102
RTVSPost2010PropOp34
 70
     1
102
RTVSPost2010Prop35
280
     0
102
RTVSPost2010PropOp35
 70
     1
102
RTVSPost2010Prop36
280
     0
102
RTVSPost2010PropOp36
 70
     1
102
RTVSPost2010Prop37
 90
       50
102
RTVSPost2010PropOp37
 70
     1
102
RTVSPost2010Prop38
140
0.0
102
RTVSPost2010PropOp38
 70
     1
102
RTVSPost2010Prop39
140
1.0
102
RTVSPost2010PropOp39
 70
     1
102
RTVSPost2010Prop40
 90
        0
102
RTVSPost2010PropOp40
 70
     1
102
RTVSPost2010Prop41ColorIndex
 90
       18
102
RTVSPost2010Prop41ColorRGB
 90
        0
102
RTVSPost2010PropOp41
 70
     1
102
RTVSPost2010Prop42
 90
       50
102
RTVSPost2010PropOp42
 70
     1
102
RTVSPost2010Prop43
 90
        3
102
RTVSPost2010PropOp43
 70
     1
102
RTVSPost2010Prop44ColorIndex
 90
        5
102
RTVSPost2010Prop44ColorRGB
 90
      255
102
RTVSPost2010PropOp44
 70
     1
102
RTVSPost2010Prop45
280
     0
102
RTVSPost2010PropOp45
 70
     1
102
RTVSPost2010Prop46
 90
       50
102
RTVSPost2010PropOp46
 70
     1
102
RTVSPost2010Prop47
 90
       50
102
RTVSPost2010PropOp47
 70
     1
102
RTVSPost2010Prop48
 90
       50
102
RTVSPost2010PropOp48
 70
     1
102
RTVSPost2010Prop49
280
     0
102
RTVSPost2010PropOp49
 70
     1
102
RTVSPost2010Prop50
 90
       50
102
RTVSPost2010PropOp50
 70
     1
102
RTVSPost2010Prop51ColorIndex
 90
      256
102
RTVSPost2010Prop51ColorRGB
 90
-16777216
102
RTVSPost2010PropOp51
 70
     0
102
RTVSPost2010Prop52
140
1.0
102
RTVSPost2010PropOp52
 70
     0
102
RTVSPost2010Prop53
 90
        2
102
RTVSPost2010PropOp53
 70
     1
102
RTVSPost2010Prop54
  1
strokes_ogs.tif
102
RTVSPost2010PropOp54
 70
     1
102
RTVSPost2010Prop55
280
     0
102
RTVSPost2010PropOp55
 70
     1
102
RTVSPost2010Prop56
140
1.0
102
RTVSPost2010PropOp56
 70
     1
102
RTVSPost2010Prop57
140
1.0
102
RTVSPost2010PropOp57
 70
     1
  0
XRECORD
  5
189
102
{ACAD_REACTORS
330
188
102
}
330
188
100
AcDbXrecord
280
     1
102
RTVSPropertyOp0
 70
     1
102
RTVSPropertyOp1
 70
     1
102
RTVSPropertyOp2
 70
     1
102
RTVSPropertyOp3
 70
     1
102
RTVSPropertyOp4
 70
     1
102
RTVSPropertyOp5
 70
     1
102
RTVSPropertyOp6
 70
     1
102
RTVSPropertyOp7
 70
     1
102
RTVSPropertyOp8
 70
     1
102
RTVSPropertyOp9
 70
     1
102
RTVSPropertyOp10
 70
     1
102
RTVSPropertyOp11
 70
     1
102
RTVSPropertyOp12
 70
     1
102
RTVSPropertyOp13
 70
     1
102
RTVSPropertyOp14
 70
     1
102
RTVSPropertyOp15
 70
     1
102
RTVSPropertyOp16
 70
     1
102
RTVSPropertyOp17
 70
     1
102
RTVSPropertyOp18
 70
     1
102
RTVSPropertyOp19
 70
     1
102
RTVSPropertyOp20
 70
     1
102
RTVSPropertyOp21
 70
     1
102
RTVSPropertyOp22
 70
     1
102
RTVSPropertyOp23
 70
     1
102
RTVSPropertyOp24
 70
     1
102
RTVSPropertyOp25
 70
     1
102
RTVSPropertyOp26
 70
     1
102
RTVSPropertyOp27
 70
     1
102
RTVSPropertyOp28
 70
     1
102
RTVSPropertyOp29
 70
     1
102
RTVSPropertyOp30
 70
     1
102
RTVSPropertyOp31
 70
     1
102
RTVSPropertyOp32
 70
     1
102
RTVSPropertyOp33
 70
     1
102
RTVSPropertyOp34
 70
     1
102
RTVSPropertyOp35
 70
     1
102
RTVSPropertyOp36
 70
     1
102
RTVSPropertyOp37
 70
     1
102
RTVSPropertyOp38
 70
     1
102
RTVSPropertyOp39
 70
     1
102
RTVSPropertyOp40
 70
     1
102
RTVSPropertyOp41
 70
     1
102
RTVSPropertyOp42
 70
     1
102
RTVSPropertyOp43
 70
     1
102
RTVSPropertyOp44
 70
     1
102
RTVSPropertyOp45
 70
     1
102
RTVSPropertyOp46
 70
     1
102
RTVSPropertyOp47
 70
     1
102
RTVSPropertyOp48
 70
     1
102
RTVSPropertyOp49
 70
     1
102
RTVSPropertyOp50
 70
     1
102
RTVSPropertyOp51
 70
     0
102
RTVSPropertyOp52
 70
     0
102
RTVSPropertyOp53
 70
     1
102
RTVSPropertyOp54
 70
     1
102
RTVSPropertyOp55
 70
     1
102
RTVSPropertyOp56
 70
     1
102
RTVSPropertyOp57
 70
     1
102
RTVSPost2010Prop28
280
     0
102
RTVSPost2010PropOp28
 70
     1
102
RTVSPost2010Prop29
280
     1
102
RTVSPost2010PropOp29
 70
     1
102
RTVSPost2010Prop30
280
     1
102
RTVSPost2010PropOp30
 70
     1
102
RTVSPost2010Prop31
280
     0
102
RTVSPost2010PropOp31
 70
     1
102
RTVSPost2010Prop32
280
     0
102
RTVSPost2010PropOp32
 70
     1
102
RTVSPost2010Prop33
280
     0
102
RTVSPost2010PropOp33
 70
     1
102
RTVSPost2010Prop34
280
     0
102
RTVSPost2010PropOp34
 70
     1
102
RTVSPost2010Prop35
280
     0
102
RTVSPost2010PropOp35
 70
     1
102
RTVSPost2010Prop36
280
     0
102
RTVSPost2010PropOp36
 70
     1
102
RTVSPost2010Prop37
 90
       50
102
RTVSPost2010PropOp37
 70
     1
102
RTVSPost2010Prop38
140
0.0
102
RTVSPost2010PropOp38
 70
     1
102
RTVSPost2010Prop39
140
1.0
102
RTVSPost2010PropOp39
 70
     1
102
RTVSPost2010Prop40
 90
        0
102
RTVSPost2010PropOp40
 70
     1
102
RTVSPost2010Prop41ColorIndex
 90
       18
102
RTVSPost2010Prop41ColorRGB
 90
        0
102
RTVSPost2010PropOp41
 70
     1
102
RTVSPost2010Prop42
 90
       50
102
RTVSPost2010PropOp42
 70
     1
102
RTVSPost2010Prop43
 90
        3
102
RTVSPost2010PropOp43
 70
     1
102
RTVSPost2010Prop44ColorIndex
 90
        5
102
RTVSPost2010Prop44ColorRGB
 90
      255
102
RTVSPost2010PropOp44
 70
     1
102
RTVSPost2010Prop45
280
     0
102
RTVSPost2010PropOp45
 70
     1
102
RTVSPost2010Prop46
 90
       50
102
RTVSPost2010PropOp46
 70
     1
102
RTVSPost2010Prop47
 90
       50
102
RTVSPost2010PropOp47
 70
     1
102
RTVSPost2010Prop48
 90
       50
102
RTVSPost2010PropOp48
 70
     1
102
RTVSPost2010Prop49
280
     0
102
RTVSPost2010PropOp49
 70
     1
102
RTVSPost2010Prop50
 90
       50
102
RTVSPost2010PropOp50
 70
     1
102
RTVSPost2010Prop51ColorIndex
 90
      256
102
RTVSPost2010Prop51ColorRGB
 90
-16777216
102
RTVSPost2010PropOp51
 70
     0
102
RTVSPost2010Prop52
140
1.0
102
RTVSPost2010PropOp52
 70
     0
102
RTVSPost2010Prop53
 90
        2
102
RTVSPost2010PropOp53
 70
     1
102
RTVSPost2010Prop54
  1
strokes_ogs.tif
102
RTVSPost2010PropOp54
 70
     1
102
RTVSPost2010Prop55
280
     0
102
RTVSPost2010PropOp55
 70
     1
102
RTVSPost2010Prop56
140
1.0
102
RTVSPost2010PropOp56
 70
     1
102
RTVSPost2010Prop57
140
1.0
102
RTVSPost2010PropOp57
 70
     1
  0
XRECORD
  5
18B
102
{ACAD_REACTORS
330
18A
102
}
330
18A
100
AcDbXrecord
280
     1
102
RTVSPropertyOp0
 70
     1
102
RTVSPropertyOp1
 70
     1
102
RTVSPropertyOp2
 70
     1
102
RTVSPropertyOp3
 70
     1
102
RTVSPropertyOp4
 70
     1
102
RTVSPropertyOp5
 70
     1
102
RTVSPropertyOp6
 70
     1
102
RTVSPropertyOp7
 70
     1
102
RTVSPropertyOp8
 70
     1
102
RTVSPropertyOp9
 70
     1
102
RTVSPropertyOp10
 70
     1
102
RTVSPropertyOp11
 70
     1
102
RTVSPropertyOp12
 70
     1
102
RTVSPropertyOp13
 70
     1
102
RTVSPropertyOp14
 70
     1
102
RTVSPropertyOp15
 70
     1
102
RTVSPropertyOp16
 70
     1
102
RTVSPropertyOp17
 70
     1
102
RTVSPropertyOp18
 70
     1
102
RTVSPropertyOp19
 70
     1
102
RTVSPropertyOp20
 70
     1
102
RTVSPropertyOp21
 70
     1
102
RTVSPropertyOp22
 70
     1
102
RTVSPropertyOp23
 70
     1
102
RTVSPropertyOp24
 70
     1
102
RTVSPropertyOp25
 70
     1
102
RTVSPropertyOp26
 70
     1
102
RTVSPropertyOp27
 70
     1
102
RTVSPropertyOp28
 70
     1
102
RTVSPropertyOp29
 70
     1
102
RTVSPropertyOp30
 70
     1
102
RTVSPropertyOp31
 70
     1
102
RTVSPropertyOp32
 70
     1
102
RTVSPropertyOp33
 70
     1
102
RTVSPropertyOp34
 70
     1
102
RTVSPropertyOp35
 70
     1
102
RTVSPropertyOp36
 70
     1
102
RTVSPropertyOp37
 70
     1
102
RTVSPropertyOp38
 70
     1
102
RTVSPropertyOp39
 70
     1
102
RTVSPropertyOp40
 70
     1
102
RTVSPropertyOp41
 70
     1
102
RTVSPropertyOp42
 70
     1
102
RTVSPropertyOp43
 70
     1
102
RTVSPropertyOp44
 70
     1
102
RTVSPropertyOp45
 70
     1
102
RTVSPropertyOp46
 70
     1
102
RTVSPropertyOp47
 70
     1
102
RTVSPropertyOp48
 70
     1
102
RTVSPropertyOp49
 70
     1
102
RTVSPropertyOp50
 70
     1
102
RTVSPropertyOp51
 70
     0
102
RTVSPropertyOp52
 70
     0
102
RTVSPropertyOp53
 70
     1
102
RTVSPropertyOp54
 70
     1
102
RTVSPropertyOp55
 70
     1
102
RTVSPropertyOp56
 70
     1
102
RTVSPropertyOp57
 70
     1
102
RTVSPost2010Prop28
280
     0
102
RTVSPost2010PropOp28
 70
     1
102
RTVSPost2010Prop29
280
     1
102
RTVSPost2010PropOp29
 70
     1
102
RTVSPost2010Prop30
280
     1
102
RTVSPost2010PropOp30
 70
     1
102
RTVSPost2010Prop31
280
     0
102
RTVSPost2010PropOp31
 70
     1
102
RTVSPost2010Prop32
280
     0
102
RTVSPost2010PropOp32
 70
     1
102
RTVSPost2010Prop33
280
     0
102
RTVSPost2010PropOp33
 70
     1
102
RTVSPost2010Prop34
280
     0
102
RTVSPost2010PropOp34
 70
     1
102
RTVSPost2010Prop35
280
     0
102
RTVSPost2010PropOp35
 70
     1
102
RTVSPost2010Prop36
280
     0
102
RTVSPost2010PropOp36
 70
     1
102
RTVSPost2010Prop37
 90
       50
102
RTVSPost2010PropOp37
 70
     1
102
RTVSPost2010Prop38
140
0.0
102
RTVSPost2010PropOp38
 70
     1
102
RTVSPost2010Prop39
140
1.0
102
RTVSPost2010PropOp39
 70
     1
102
RTVSPost2010Prop40
 90
        0
102
RTVSPost2010PropOp40
 70
     1
102
RTVSPost2010Prop41ColorIndex
 90
       18
102
RTVSPost2010Prop41ColorRGB
 90
        0
102
RTVSPost2010PropOp41
 70
     1
102
RTVSPost2010Prop42
 90
       50
102
RTVSPost2010PropOp42
 70
     1
102
RTVSPost2010Prop43
 90
        3
102
RTVSPost2010PropOp43
 70
     1
102
RTVSPost2010Prop44ColorIndex
 90
        5
102
RTVSPost2010Prop44ColorRGB
 90
      255
102
RTVSPost2010PropOp44
 70
     1
102
RTVSPost2010Prop45
280
     0
102
RTVSPost2010PropOp45
 70
     1
102
RTVSPost2010Prop46
 90
       50
102
RTVSPost2010PropOp46
 70
     1
102
RTVSPost2010Prop47
 90
       50
102
RTVSPost2010PropOp47
 70
     1
102
RTVSPost2010Prop48
 90
       50
102
RTVSPost2010PropOp48
 70
     1
102
RTVSPost2010Prop49
280
     0
102
RTVSPost2010PropOp49
 70
     1
102
RTVSPost2010Prop50
 90
       50
102
RTVSPost2010PropOp50
 70
     1
102
RTVSPost2010Prop51ColorIndex
 90
      256
102
RTVSPost2010Prop51ColorRGB
 90
-16777216
102
RTVSPost2010PropOp51
 70
     0
102
RTVSPost2010Prop52
140
1.0
102
RTVSPost2010PropOp52
 70
     0
102
RTVSPost2010Prop53
 90
        2
102
RTVSPost2010PropOp53
 70
     1
102
RTVSPost2010Prop54
  1
strokes_ogs.tif
102
RTVSPost2010PropOp54
 70
     1
102
RTVSPost2010Prop55
280
     0
102
RTVSPost2010PropOp55
 70
     1
102
RTVSPost2010Prop56
140
1.0
102
RTVSPost2010PropOp56
 70
     1
102
RTVSPost2010Prop57
140
1.0
102
RTVSPost2010PropOp57
 70
     1
  0
XRECORD
  5
191
102
{ACAD_REACTORS
330
190
102
}
330
190
100
AcDbXrecord
280
     1
102
RTVSPropertyOp0
 70
     1
102
RTVSPropertyOp1
 70
     1
102
RTVSPropertyOp2
 70
     1
102
RTVSPropertyOp3
 70
     1
102
RTVSPropertyOp4
 70
     1
102
RTVSPropertyOp5
 70
     1
102
RTVSPropertyOp6
 70
     1
102
RTVSPropertyOp7
 70
     1
102
RTVSPropertyOp8
 70
     1
102
RTVSPropertyOp9
 70
     1
102
RTVSPropertyOp10
 70
     1
102
RTVSPropertyOp11
 70
     1
102
RTVSPropertyOp12
 70
     1
102
RTVSPropertyOp13
 70
     1
102
RTVSPropertyOp14
 70
     1
102
RTVSPropertyOp15
 70
     1
102
RTVSPropertyOp16
 70
     1
102
RTVSPropertyOp17
 70
     1
102
RTVSPropertyOp18
 70
     1
102
RTVSPropertyOp19
 70
     1
102
RTVSPropertyOp20
 70
     1
102
RTVSPropertyOp21
 70
     1
102
RTVSPropertyOp22
 70
     1
102
RTVSPropertyOp23
 70
     1
102
RTVSPropertyOp24
 70
     1
102
RTVSPropertyOp25
 70
     1
102
RTVSPropertyOp26
 70
     1
102
RTVSPropertyOp27
 70
     1
102
RTVSPropertyOp28
 70
     1
102
RTVSPropertyOp29
 70
     1
102
RTVSPropertyOp30
 70
     1
102
RTVSPropertyOp31
 70
     1
102
RTVSPropertyOp32
 70
     1
102
RTVSPropertyOp33
 70
     1
102
RTVSPropertyOp34
 70
     1
102
RTVSPropertyOp35
 70
     1
102
RTVSPropertyOp36
 70
     1
102
RTVSPropertyOp37
 70
     1
102
RTVSPropertyOp38
 70
     1
102
RTVSPropertyOp39
 70
     1
102
RTVSPropertyOp40
 70
     1
102
RTVSPropertyOp41
 70
     1
102
RTVSPropertyOp42
 70
     1
102
RTVSPropertyOp43
 70
     1
102
RTVSPropertyOp44
 70
     1
102
RTVSPropertyOp45
 70
     1
102
RTVSPropertyOp46
 70
     1
102
RTVSPropertyOp47
 70
     1
102
RTVSPropertyOp48
 70
     1
102
RTVSPropertyOp49
 70
     1
102
RTVSPropertyOp50
 70
     1
102
RTVSPropertyOp51
 70
     0
102
RTVSPropertyOp52
 70
     0
102
RTVSPropertyOp53
 70
     1
102
RTVSPropertyOp54
 70
     1
102
RTVSPropertyOp55
 70
     1
102
RTVSPropertyOp56
 70
     1
102
RTVSPropertyOp57
 70
     1
102
RTVSPost2010Prop28
280
     0
102
RTVSPost2010PropOp28
 70
     1
102
RTVSPost2010Prop29
280
     1
102
RTVSPost2010PropOp29
 70
     1
102
RTVSPost2010Prop30
280
     1
102
RTVSPost2010PropOp30
 70
     1
102
RTVSPost2010Prop31
280
     0
102
RTVSPost2010PropOp31
 70
     1
102
RTVSPost2010Prop32
280
     0
102
RTVSPost2010PropOp32
 70
     1
102
RTVSPost2010Prop33
280
     0
102
RTVSPost2010PropOp33
 70
     1
102
RTVSPost2010Prop34
280
     0
102
RTVSPost2010PropOp34
 70
     1
102
RTVSPost2010Prop35
280
     0
102
RTVSPost2010PropOp35
 70
     1
102
RTVSPost2010Prop36
280
     0
102
RTVSPost2010PropOp36
 70
     1
102
RTVSPost2010Prop37
 90
       50
102
RTVSPost2010PropOp37
 70
     1
102
RTVSPost2010Prop38
140
0.0
102
RTVSPost2010PropOp38
 70
     1
102
RTVSPost2010Prop39
140
1.0
102
RTVSPost2010PropOp39
 70
     1
102
RTVSPost2010Prop40
 90
        0
102
RTVSPost2010PropOp40
 70
     1
102
RTVSPost2010Prop41ColorIndex
 90
       18
102
RTVSPost2010Prop41ColorRGB
 90
        0
102
RTVSPost2010PropOp41
 70
     1
102
RTVSPost2010Prop42
 90
       50
102
RTVSPost2010PropOp42
 70
     1
102
RTVSPost2010Prop43
 90
        3
102
RTVSPost2010PropOp43
 70
     1
102
RTVSPost2010Prop44ColorIndex
 90
        5
102
RTVSPost2010Prop44ColorRGB
 90
      255
102
RTVSPost2010PropOp44
 70
     1
102
RTVSPost2010Prop45
280
     0
102
RTVSPost2010PropOp45
 70
     1
102
RTVSPost2010Prop46
 90
       50
102
RTVSPost2010PropOp46
 70
     1
102
RTVSPost2010Prop47
 90
       50
102
RTVSPost2010PropOp47
 70
     1
102
RTVSPost2010Prop48
 90
       50
102
RTVSPost2010PropOp48
 70
     1
102
RTVSPost2010Prop49
280
     0
102
RTVSPost2010PropOp49
 70
     1
102
RTVSPost2010Prop50
 90
       50
102
RTVSPost2010PropOp50
 70
     1
102
RTVSPost2010Prop51ColorIndex
 90
      256
102
RTVSPost2010Prop51ColorRGB
 90
-16777216
102
RTVSPost2010PropOp51
 70
     0
102
RTVSPost2010Prop52
140
1.0
102
RTVSPost2010PropOp52
 70
     0
102
RTVSPost2010Prop53
 90
        2
102
RTVSPost2010PropOp53
 70
     1
102
RTVSPost2010Prop54
  1
strokes_ogs.tif
102
RTVSPost2010PropOp54
 70
     1
102
RTVSPost2010Prop55
280
     0
102
RTVSPost2010PropOp55
 70
     1
102
RTVSPost2010Prop56
140
1.0
102
RTVSPost2010PropOp56
 70
     1
102
RTVSPost2010Prop57
140
1.0
102
RTVSPost2010PropOp57
 70
     1
  0
XRECORD
  5
1A5
102
{ACAD_REACTORS
330
1A4
102
}
330
1A4
100
AcDbXrecord
280
     1
102
RTVSPropertyOp0
 70
     0
102
RTVSPropertyOp1
 70
     0
102
RTVSPropertyOp2
 70
     0
102
RTVSPropertyOp3
 70
     0
102
RTVSPropertyOp4
 70
     0
102
RTVSPropertyOp5
 70
     0
102
RTVSPropertyOp6
 70
     0
102
RTVSPropertyOp7
 70
     0
102
RTVSPropertyOp8
 70
     0
102
RTVSPropertyOp9
 70
     0
102
RTVSPropertyOp10
 70
     0
102
RTVSPropertyOp11
 70
     0
102
RTVSPropertyOp12
 70
     0
102
RTVSPropertyOp13
 70
     0
102
RTVSPropertyOp14
 70
     2
102
RTVSPropertyOp15
 70
     0
102
RTVSPropertyOp16
 70
     0
102
RTVSPropertyOp17
 70
     0
102
RTVSPropertyOp18
 70
     0
102
RTVSPropertyOp19
 70
     0
102
RTVSPropertyOp20
 70
     0
102
RTVSPropertyOp21
 70
     0
102
RTVSPropertyOp22
 70
     0
102
RTVSPropertyOp23
 70
     0
102
RTVSPropertyOp24
 70
     0
102
RTVSPropertyOp25
 70
     0
102
RTVSPropertyOp26
 70
     0
102
RTVSPropertyOp27
 70
     0
102
RTVSPropertyOp28
 70
     0
102
RTVSPropertyOp29
 70
     0
102
RTVSPropertyOp30
 70
     0
102
RTVSPropertyOp31
 70
     0
102
RTVSPropertyOp32
 70
     0
102
RTVSPropertyOp33
 70
     0
102
RTVSPropertyOp34
 70
     0
102
RTVSPropertyOp35
 70
     0
102
RTVSPropertyOp36
 70
     0
102
RTVSPropertyOp37
 70
     0
102
RTVSPropertyOp38
 70
     0
102
RTVSPropertyOp39
 70
     0
102
RTVSPropertyOp40
 70
     0
102
RTVSPropertyOp41
 70
     0
102
RTVSPropertyOp42
 70
     0
102
RTVSPropertyOp43
 70
     0
102
RTVSPropertyOp44
 70
     0
102
RTVSPropertyOp45
 70
     0
102
RTVSPropertyOp46
 70
     0
102
RTVSPropertyOp47
 70
     0
102
RTVSPropertyOp48
 70
     0
102
RTVSPropertyOp49
 70
     0
102
RTVSPropertyOp50
 70
     0
102
RTVSPropertyOp51
 70
     0
102
RTVSPropertyOp52
 70
     0
102
RTVSPropertyOp53
 70
     0
102
RTVSPropertyOp54
 70
     0
102
RTVSPropertyOp55
 70
     0
102
RTVSPropertyOp56
 70
     0
102
RTVSPropertyOp57
 70
     0
102
RTVSPost2010Prop28
280
     0
102
RTVSPost2010PropOp28
 70
     0
102
RTVSPost2010Prop29
280
     1
102
RTVSPost2010PropOp29
 70
     0
102
RTVSPost2010Prop30
280
     1
102
RTVSPost2010PropOp30
 70
     0
102
RTVSPost2010Prop31
280
     0
102
RTVSPost2010PropOp31
 70
     0
102
RTVSPost2010Prop32
280
     0
102
RTVSPost2010PropOp32
 70
     0
102
RTVSPost2010Prop33
280
     0
102
RTVSPost2010PropOp33
 70
     0
102
RTVSPost2010Prop34
280
     0
102
RTVSPost2010PropOp34
 70
     0
102
RTVSPost2010Prop35
280
     0
102
RTVSPost2010PropOp35
 70
     0
102
RTVSPost2010Prop36
280
     0
102
RTVSPost2010PropOp36
 70
     0
102
RTVSPost2010Prop37
 90
       50
102
RTVSPost2010PropOp37
 70
     0
102
RTVSPost2010Prop38
140
0.0
102
RTVSPost2010PropOp38
 70
     0
102
RTVSPost2010Prop39
140
1.0
102
RTVSPost2010PropOp39
 70
     0
102
RTVSPost2010Prop40
 90
        0
102
RTVSPost2010PropOp40
 70
     0
102
RTVSPost2010Prop41ColorIndex
 90
       18
102
RTVSPost2010Prop41ColorRGB
 90
        0
102
RTVSPost2010PropOp41
 70
     0
102
RTVSPost2010Prop42
 90
       50
102
RTVSPost2010PropOp42
 70
     0
102
RTVSPost2010Prop43
 90
        3
102
RTVSPost2010PropOp43
 70
     0
102
RTVSPost2010Prop44ColorIndex
 90
        5
102
RTVSPost2010Prop44ColorRGB
 90
      255
102
RTVSPost2010PropOp44
 70
     0
102
RTVSPost2010Prop45
280
     0
102
RTVSPost2010PropOp45
 70
     0
102
RTVSPost2010Prop46
 90
       50
102
RTVSPost2010PropOp46
 70
     0
102
RTVSPost2010Prop47
 90
       50
102
RTVSPost2010PropOp47
 70
     0
102
RTVSPost2010Prop48
 90
       50
102
RTVSPost2010PropOp48
 70
     0
102
RTVSPost2010Prop49
280
     0
102
RTVSPost2010PropOp49
 70
     0
102
RTVSPost2010Prop50
 90
       50
102
RTVSPost2010PropOp50
 70
     0
102
RTVSPost2010Prop51ColorIndex
 90
      256
102
RTVSPost2010Prop51ColorRGB
 90
-16777216
102
RTVSPost2010PropOp51
 70
     0
102
RTVSPost2010Prop52
140
1.0
102
RTVSPost2010PropOp52
 70
     0
102
RTVSPost2010Prop53
 90
        2
102
RTVSPost2010PropOp53
 70
     0
102
RTVSPost2010Prop54
  1
strokes_ogs.tif
102
RTVSPost2010PropOp54
 70
     0
102
RTVSPost2010Prop55
280
     0
102
RTVSPost2010PropOp55
 70
     0
102
RTVSPost2010Prop56
140
1.0
102
RTVSPost2010PropOp56
 70
     0
102
RTVSPost2010Prop57
140
1.0
102
RTVSPost2010PropOp57
 70
     0
  0
XRECORD
  5
19F
102
{ACAD_REACTORS
330
19E
102
}
330
19E
100
AcDbXrecord
280
     1
102
RTVSPropertyOp0
 70
     1
102
RTVSPropertyOp1
 70
     1
102
RTVSPropertyOp2
 70
     1
102
RTVSPropertyOp3
 70
     1
102
RTVSPropertyOp4
 70
     1
102
RTVSPropertyOp5
 70
     1
102
RTVSPropertyOp6
 70
     1
102
RTVSPropertyOp7
 70
     1
102
RTVSPropertyOp8
 70
     1
102
RTVSPropertyOp9
 70
     1
102
RTVSPropertyOp10
 70
     1
102
RTVSPropertyOp11
 70
     1
102
RTVSPropertyOp12
 70
     1
102
RTVSPropertyOp13
 70
     1
102
RTVSPropertyOp14
 70
     1
102
RTVSPropertyOp15
 70
     1
102
RTVSPropertyOp16
 70
     1
102
RTVSPropertyOp17
 70
     1
102
RTVSPropertyOp18
 70
     1
102
RTVSPropertyOp19
 70
     1
102
RTVSPropertyOp20
 70
     1
102
RTVSPropertyOp21
 70
     1
102
RTVSPropertyOp22
 70
     1
102
RTVSPropertyOp23
 70
     1
102
RTVSPropertyOp24
 70
     1
102
RTVSPropertyOp25
 70
     1
102
RTVSPropertyOp26
 70
     1
102
RTVSPropertyOp27
 70
     1
102
RTVSPropertyOp28
 70
     1
102
RTVSPropertyOp29
 70
     1
102
RTVSPropertyOp30
 70
     1
102
RTVSPropertyOp31
 70
     1
102
RTVSPropertyOp32
 70
     1
102
RTVSPropertyOp33
 70
     1
102
RTVSPropertyOp34
 70
     1
102
RTVSPropertyOp35
 70
     1
102
RTVSPropertyOp36
 70
     1
102
RTVSPropertyOp37
 70
     1
102
RTVSPropertyOp38
 70
     1
102
RTVSPropertyOp39
 70
     1
102
RTVSPropertyOp40
 70
     1
102
RTVSPropertyOp41
 70
     1
102
RTVSPropertyOp42
 70
     1
102
RTVSPropertyOp43
 70
     1
102
RTVSPropertyOp44
 70
     1
102
RTVSPropertyOp45
 70
     1
102
RTVSPropertyOp46
 70
     1
102
RTVSPropertyOp47
 70
     1
102
RTVSPropertyOp48
 70
     1
102
RTVSPropertyOp49
 70
     1
102
RTVSPropertyOp50
 70
     1
102
RTVSPropertyOp51
 70
     0
102
RTVSPropertyOp52
 70
     0
102
RTVSPropertyOp53
 70
     1
102
RTVSPropertyOp54
 70
     1
102
RTVSPropertyOp55
 70
     1
102
RTVSPropertyOp56
 70
     1
102
RTVSPropertyOp57
 70
     1
102
RTVSPost2010Prop28
280
     0
102
RTVSPost2010PropOp28
 70
     1
102
RTVSPost2010Prop29
280
     1
102
RTVSPost2010PropOp29
 70
     1
102
RTVSPost2010Prop30
280
     1
102
RTVSPost2010PropOp30
 70
     1
102
RTVSPost2010Prop31
280
     0
102
RTVSPost2010PropOp31
 70
     1
102
RTVSPost2010Prop32
280
     0
102
RTVSPost2010PropOp32
 70
     1
102
RTVSPost2010Prop33
280
     0
102
RTVSPost2010PropOp33
 70
     1
102
RTVSPost2010Prop34
280
     0
102
RTVSPost2010PropOp34
 70
     1
102
RTVSPost2010Prop35
280
     0
102
RTVSPost2010PropOp35
 70
     1
102
RTVSPost2010Prop36
280
     0
102
RTVSPost2010PropOp36
 70
     1
102
RTVSPost2010Prop37
 90
       50
102
RTVSPost2010PropOp37
 70
     1
102
RTVSPost2010Prop38
140
0.0
102
RTVSPost2010PropOp38
 70
     1
102
RTVSPost2010Prop39
140
1.0
102
RTVSPost2010PropOp39
 70
     1
102
RTVSPost2010Prop40
 90
        0
102
RTVSPost2010PropOp40
 70
     1
102
RTVSPost2010Prop41ColorIndex
 90
       18
102
RTVSPost2010Prop41ColorRGB
 90
        0
102
RTVSPost2010PropOp41
 70
     1
102
RTVSPost2010Prop42
 90
       50
102
RTVSPost2010PropOp42
 70
     1
102
RTVSPost2010Prop43
 90
        3
102
RTVSPost2010PropOp43
 70
     1
102
RTVSPost2010Prop44ColorIndex
 90
        5
102
RTVSPost2010Prop44ColorRGB
 90
      255
102
RTVSPost2010PropOp44
 70
     1
102
RTVSPost2010Prop45
280
     0
102
RTVSPost2010PropOp45
 70
     1
102
RTVSPost2010Prop46
 90
       50
102
RTVSPost2010PropOp46
 70
     1
102
RTVSPost2010Prop47
 90
       50
102
RTVSPost2010PropOp47
 70
     1
102
RTVSPost2010Prop48
 90
       50
102
RTVSPost2010PropOp48
 70
     1
102
RTVSPost2010Prop49
280
     0
102
RTVSPost2010PropOp49
 70
     1
102
RTVSPost2010Prop50
 90
       50
102
RTVSPost2010PropOp50
 70
     1
102
RTVSPost2010Prop51ColorIndex
 90
      256
102
RTVSPost2010Prop51ColorRGB
 90
-16777216
102
RTVSPost2010PropOp51
 70
     0
102
RTVSPost2010Prop52
140
1.0
102
RTVSPost2010PropOp52
 70
     0
102
RTVSPost2010Prop53
 90
        2
102
RTVSPost2010PropOp53
 70
     1
102
RTVSPost2010Prop54
  1
strokes_ogs.tif
102
RTVSPost2010PropOp54
 70
     1
102
RTVSPost2010Prop55
280
     0
102
RTVSPost2010PropOp55
 70
     1
102
RTVSPost2010Prop56
140
1.0
102
RTVSPost2010PropOp56
 70
     1
102
RTVSPost2010Prop57
140
1.0
102
RTVSPost2010PropOp57
 70
     1
  0
XRECORD
  5
1A7
102
{ACAD_REACTORS
330
1A6
102
}
330
1A6
100
AcDbXrecord
280
     1
102
RTVSPropertyOp0
 70
     0
102
RTVSPropertyOp1
 70
     0
102
RTVSPropertyOp2
 70
     0
102
RTVSPropertyOp3
 70
     0
102
RTVSPropertyOp4
 70
     0
102
RTVSPropertyOp5
 70
     0
102
RTVSPropertyOp6
 70
     0
102
RTVSPropertyOp7
 70
     0
102
RTVSPropertyOp8
 70
     0
102
RTVSPropertyOp9
 70
     0
102
RTVSPropertyOp10
 70
     0
102
RTVSPropertyOp11
 70
     0
102
RTVSPropertyOp12
 70
     0
102
RTVSPropertyOp13
 70
     0
102
RTVSPropertyOp14
 70
     2
102
RTVSPropertyOp15
 70
     0
102
RTVSPropertyOp16
 70
     0
102
RTVSPropertyOp17
 70
     0
102
RTVSPropertyOp18
 70
     0
102
RTVSPropertyOp19
 70
     0
102
RTVSPropertyOp20
 70
     0
102
RTVSPropertyOp21
 70
     0
102
RTVSPropertyOp22
 70
     0
102
RTVSPropertyOp23
 70
     0
102
RTVSPropertyOp24
 70
     0
102
RTVSPropertyOp25
 70
     0
102
RTVSPropertyOp26
 70
     0
102
RTVSPropertyOp27
 70
     0
102
RTVSPropertyOp28
 70
     0
102
RTVSPropertyOp29
 70
     0
102
RTVSPropertyOp30
 70
     0
102
RTVSPropertyOp31
 70
     0
102
RTVSPropertyOp32
 70
     0
102
RTVSPropertyOp33
 70
     0
102
RTVSPropertyOp34
 70
     0
102
RTVSPropertyOp35
 70
     0
102
RTVSPropertyOp36
 70
     0
102
RTVSPropertyOp37
 70
     0
102
RTVSPropertyOp38
 70
     0
102
RTVSPropertyOp39
 70
     0
102
RTVSPropertyOp40
 70
     0
102
RTVSPropertyOp41
 70
     0
102
RTVSPropertyOp42
 70
     0
102
RTVSPropertyOp43
 70
     0
102
RTVSPropertyOp44
 70
     0
102
RTVSPropertyOp45
 70
     0
102
RTVSPropertyOp46
 70
     0
102
RTVSPropertyOp47
 70
     0
102
RTVSPropertyOp48
 70
     0
102
RTVSPropertyOp49
 70
     0
102
RTVSPropertyOp50
 70
     0
102
RTVSPropertyOp51
 70
     0
102
RTVSPropertyOp52
 70
     0
102
RTVSPropertyOp53
 70
     0
102
RTVSPropertyOp54
 70
     0
102
RTVSPropertyOp55
 70
     0
102
RTVSPropertyOp56
 70
     0
102
RTVSPropertyOp57
 70
     0
102
RTVSPost2010Prop28
280
     0
102
RTVSPost2010PropOp28
 70
     0
102
RTVSPost2010Prop29
280
     1
102
RTVSPost2010PropOp29
 70
     0
102
RTVSPost2010Prop30
280
     1
102
RTVSPost2010PropOp30
 70
     0
102
RTVSPost2010Prop31
280
     0
102
RTVSPost2010PropOp31
 70
     0
102
RTVSPost2010Prop32
280
     0
102
RTVSPost2010PropOp32
 70
     0
102
RTVSPost2010Prop33
280
     0
102
RTVSPost2010PropOp33
 70
     0
102
RTVSPost2010Prop34
280
     0
102
RTVSPost2010PropOp34
 70
     0
102
RTVSPost2010Prop35
280
     0
102
RTVSPost2010PropOp35
 70
     0
102
RTVSPost2010Prop36
280
     0
102
RTVSPost2010PropOp36
 70
     0
102
RTVSPost2010Prop37
 90
       50
102
RTVSPost2010PropOp37
 70
     0
102
RTVSPost2010Prop38
140
0.0
102
RTVSPost2010PropOp38
 70
     0
102
RTVSPost2010Prop39
140
1.0
102
RTVSPost2010PropOp39
 70
     0
102
RTVSPost2010Prop40
 90
        0
102
RTVSPost2010PropOp40
 70
     0
102
RTVSPost2010Prop41ColorIndex
 90
       18
102
RTVSPost2010Prop41ColorRGB
 90
        0
102
RTVSPost2010PropOp41
 70
     0
102
RTVSPost2010Prop42
 90
       50
102
RTVSPost2010PropOp42
 70
     0
102
RTVSPost2010Prop43
 90
        3
102
RTVSPost2010PropOp43
 70
     0
102
RTVSPost2010Prop44ColorIndex
 90
        5
102
RTVSPost2010Prop44ColorRGB
 90
      255
102
RTVSPost2010PropOp44
 70
     0
102
RTVSPost2010Prop45
280
     0
102
RTVSPost2010PropOp45
 70
     0
102
RTVSPost2010Prop46
 90
       50
102
RTVSPost2010PropOp46
 70
     0
102
RTVSPost2010Prop47
 90
       50
102
RTVSPost2010PropOp47
 70
     0
102
RTVSPost2010Prop48
 90
       50
102
RTVSPost2010PropOp48
 70
     0
102
RTVSPost2010Prop49
280
     0
102
RTVSPost2010PropOp49
 70
     0
102
RTVSPost2010Prop50
 90
       50
102
RTVSPost2010PropOp50
 70
     0
102
RTVSPost2010Prop51ColorIndex
 90
      256
102
RTVSPost2010Prop51ColorRGB
 90
-16777216
102
RTVSPost2010PropOp51
 70
     0
102
RTVSPost2010Prop52
140
1.0
102
RTVSPost2010PropOp52
 70
     0
102
RTVSPost2010Prop53
 90
        2
102
RTVSPost2010PropOp53
 70
     0
102
RTVSPost2010Prop54
  1
strokes_ogs.tif
102
RTVSPost2010PropOp54
 70
     0
102
RTVSPost2010Prop55
280
     0
102
RTVSPost2010PropOp55
 70
     0
102
RTVSPost2010Prop56
140
1.0
102
RTVSPost2010PropOp56
 70
     0
102
RTVSPost2010Prop57
140
1.0
102
RTVSPost2010PropOp57
 70
     0
  0
XRECORD
  5
195
102
{ACAD_REACTORS
330
194
102
}
330
194
100
AcDbXrecord
280
     1
102
RTVSPropertyOp0
 70
     1
102
RTVSPropertyOp1
 70
     1
102
RTVSPropertyOp2
 70
     1
102
RTVSPropertyOp3
 70
     1
102
RTVSPropertyOp4
 70
     1
102
RTVSPropertyOp5
 70
     1
102
RTVSPropertyOp6
 70
     1
102
RTVSPropertyOp7
 70
     1
102
RTVSPropertyOp8
 70
     1
102
RTVSPropertyOp9
 70
     1
102
RTVSPropertyOp10
 70
     1
102
RTVSPropertyOp11
 70
     1
102
RTVSPropertyOp12
 70
     1
102
RTVSPropertyOp13
 70
     1
102
RTVSPropertyOp14
 70
     1
102
RTVSPropertyOp15
 70
     1
102
RTVSPropertyOp16
 70
     1
102
RTVSPropertyOp17
 70
     1
102
RTVSPropertyOp18
 70
     1
102
RTVSPropertyOp19
 70
     1
102
RTVSPropertyOp20
 70
     1
102
RTVSPropertyOp21
 70
     1
102
RTVSPropertyOp22
 70
     1
102
RTVSPropertyOp23
 70
     1
102
RTVSPropertyOp24
 70
     1
102
RTVSPropertyOp25
 70
     1
102
RTVSPropertyOp26
 70
     1
102
RTVSPropertyOp27
 70
     1
102
RTVSPropertyOp28
 70
     1
102
RTVSPropertyOp29
 70
     1
102
RTVSPropertyOp30
 70
     1
102
RTVSPropertyOp31
 70
     1
102
RTVSPropertyOp32
 70
     1
102
RTVSPropertyOp33
 70
     1
102
RTVSPropertyOp34
 70
     1
102
RTVSPropertyOp35
 70
     1
102
RTVSPropertyOp36
 70
     1
102
RTVSPropertyOp37
 70
     1
102
RTVSPropertyOp38
 70
     1
102
RTVSPropertyOp39
 70
     1
102
RTVSPropertyOp40
 70
     1
102
RTVSPropertyOp41
 70
     1
102
RTVSPropertyOp42
 70
     1
102
RTVSPropertyOp43
 70
     1
102
RTVSPropertyOp44
 70
     1
102
RTVSPropertyOp45
 70
     1
102
RTVSPropertyOp46
 70
     1
102
RTVSPropertyOp47
 70
     1
102
RTVSPropertyOp48
 70
     1
102
RTVSPropertyOp49
 70
     1
102
RTVSPropertyOp50
 70
     1
102
RTVSPropertyOp51
 70
     0
102
RTVSPropertyOp52
 70
     0
102
RTVSPropertyOp53
 70
     1
102
RTVSPropertyOp54
 70
     1
102
RTVSPropertyOp55
 70
     1
102
RTVSPropertyOp56
 70
     1
102
RTVSPropertyOp57
 70
     1
102
RTVSPost2010Prop28
280
     0
102
RTVSPost2010PropOp28
 70
     1
102
RTVSPost2010Prop29
280
     1
102
RTVSPost2010PropOp29
 70
     1
102
RTVSPost2010Prop30
280
     1
102
RTVSPost2010PropOp30
 70
     1
102
RTVSPost2010Prop31
280
     0
102
RTVSPost2010PropOp31
 70
     1
102
RTVSPost2010Prop32
280
     0
102
RTVSPost2010PropOp32
 70
     1
102
RTVSPost2010Prop33
280
     0
102
RTVSPost2010PropOp33
 70
     1
102
RTVSPost2010Prop34
280
     0
102
RTVSPost2010PropOp34
 70
     1
102
RTVSPost2010Prop35
280
     0
102
RTVSPost2010PropOp35
 70
     1
102
RTVSPost2010Prop36
280
     0
102
RTVSPost2010PropOp36
 70
     1
102
RTVSPost2010Prop37
 90
       50
102
RTVSPost2010PropOp37
 70
     1
102
RTVSPost2010Prop38
140
0.0
102
RTVSPost2010PropOp38
 70
     1
102
RTVSPost2010Prop39
140
1.0
102
RTVSPost2010PropOp39
 70
     1
102
RTVSPost2010Prop40
 90
        0
102
RTVSPost2010PropOp40
 70
     1
102
RTVSPost2010Prop41ColorIndex
 90
       18
102
RTVSPost2010Prop41ColorRGB
 90
        0
102
RTVSPost2010PropOp41
 70
     1
102
RTVSPost2010Prop42
 90
       50
102
RTVSPost2010PropOp42
 70
     1
102
RTVSPost2010Prop43
 90
        3
102
RTVSPost2010PropOp43
 70
     1
102
RTVSPost2010Prop44ColorIndex
 90
        5
102
RTVSPost2010Prop44ColorRGB
 90
      255
102
RTVSPost2010PropOp44
 70
     1
102
RTVSPost2010Prop45
280
     0
102
RTVSPost2010PropOp45
 70
     1
102
RTVSPost2010Prop46
 90
       50
102
RTVSPost2010PropOp46
 70
     1
102
RTVSPost2010Prop47
 90
       50
102
RTVSPost2010PropOp47
 70
     1
102
RTVSPost2010Prop48
 90
       50
102
RTVSPost2010PropOp48
 70
     1
102
RTVSPost2010Prop49
280
     0
102
RTVSPost2010PropOp49
 70
     1
102
RTVSPost2010Prop50
 90
       50
102
RTVSPost2010PropOp50
 70
     1
102
RTVSPost2010Prop51ColorIndex
 90
      256
102
RTVSPost2010Prop51ColorRGB
 90
-16777216
102
RTVSPost2010PropOp51
 70
     0
102
RTVSPost2010Prop52
140
1.0
102
RTVSPost2010PropOp52
 70
     0
102
RTVSPost2010Prop53
 90
        2
102
RTVSPost2010PropOp53
 70
     1
102
RTVSPost2010Prop54
  1
strokes_ogs.tif
102
RTVSPost2010PropOp54
 70
     1
102
RTVSPost2010Prop55
280
     0
102
RTVSPost2010PropOp55
 70
     1
102
RTVSPost2010Prop56
140
1.0
102
RTVSPost2010PropOp56
 70
     1
102
RTVSPost2010Prop57
140
1.0
102
RTVSPost2010PropOp57
 70
     1
  0
XRECORD
  5
1B3
102
{ACAD_REACTORS
330
1B2
102
}
330
1B2
100
AcDbXrecord
280
     1
102
RTVSPropertyOp0
 70
     1
102
RTVSPropertyOp1
 70
     1
102
RTVSPropertyOp2
 70
     1
102
RTVSPropertyOp3
 70
     1
102
RTVSPropertyOp4
 70
     1
102
RTVSPropertyOp5
 70
     1
102
RTVSPropertyOp6
 70
     1
102
RTVSPropertyOp7
 70
     1
102
RTVSPropertyOp8
 70
     1
102
RTVSPropertyOp9
 70
     1
102
RTVSPropertyOp10
 70
     1
102
RTVSPropertyOp11
 70
     1
102
RTVSPropertyOp12
 70
     1
102
RTVSPropertyOp13
 70
     1
102
RTVSPropertyOp14
 70
     1
102
RTVSPropertyOp15
 70
     1
102
RTVSPropertyOp16
 70
     1
102
RTVSPropertyOp17
 70
     1
102
RTVSPropertyOp18
 70
     1
102
RTVSPropertyOp19
 70
     1
102
RTVSPropertyOp20
 70
     1
102
RTVSPropertyOp21
 70
     1
102
RTVSPropertyOp22
 70
     1
102
RTVSPropertyOp23
 70
     1
102
RTVSPropertyOp24
 70
     1
102
RTVSPropertyOp25
 70
     1
102
RTVSPropertyOp26
 70
     1
102
RTVSPropertyOp27
 70
     1
102
RTVSPropertyOp28
 70
     1
102
RTVSPropertyOp29
 70
     1
102
RTVSPropertyOp30
 70
     1
102
RTVSPropertyOp31
 70
     1
102
RTVSPropertyOp32
 70
     1
102
RTVSPropertyOp33
 70
     1
102
RTVSPropertyOp34
 70
     1
102
RTVSPropertyOp35
 70
     1
102
RTVSPropertyOp36
 70
     1
102
RTVSPropertyOp37
 70
     1
102
RTVSPropertyOp38
 70
     1
102
RTVSPropertyOp39
 70
     1
102
RTVSPropertyOp40
 70
     1
102
RTVSPropertyOp41
 70
     1
102
RTVSPropertyOp42
 70
     1
102
RTVSPropertyOp43
 70
     1
102
RTVSPropertyOp44
 70
     1
102
RTVSPropertyOp45
 70
     1
102
RTVSPropertyOp46
 70
     1
102
RTVSPropertyOp47
 70
     1
102
RTVSPropertyOp48
 70
     1
102
RTVSPropertyOp49
 70
     1
102
RTVSPropertyOp50
 70
     1
102
RTVSPropertyOp51
 70
     0
102
RTVSPropertyOp52
 70
     0
102
RTVSPropertyOp53
 70
     1
102
RTVSPropertyOp54
 70
     1
102
RTVSPropertyOp55
 70
     1
102
RTVSPropertyOp56
 70
     1
102
RTVSPropertyOp57
 70
     1
102
RTVSPost2010Prop28
280
     0
102
RTVSPost2010PropOp28
 70
     1
102
RTVSPost2010Prop29
280
     1
102
RTVSPost2010PropOp29
 70
     1
102
RTVSPost2010Prop30
280
     1
102
RTVSPost2010PropOp30
 70
     1
102
RTVSPost2010Prop31
280
     0
102
RTVSPost2010PropOp31
 70
     1
102
RTVSPost2010Prop32
280
     0
102
RTVSPost2010PropOp32
 70
     1
102
RTVSPost2010Prop33
280
     0
102
RTVSPost2010PropOp33
 70
     1
102
RTVSPost2010Prop34
280
     0
102
RTVSPost2010PropOp34
 70
     1
102
RTVSPost2010Prop35
280
     0
102
RTVSPost2010PropOp35
 70
     1
102
RTVSPost2010Prop36
280
     0
102
RTVSPost2010PropOp36
 70
     1
102
RTVSPost2010Prop37
 90
       50
102
RTVSPost2010PropOp37
 70
     1
102
RTVSPost2010Prop38
140
0.0
102
RTVSPost2010PropOp38
 70
     1
102
RTVSPost2010Prop39
140
1.0
102
RTVSPost2010PropOp39
 70
     1
102
RTVSPost2010Prop40
 90
        0
102
RTVSPost2010PropOp40
 70
     1
102
RTVSPost2010Prop41ColorIndex
 90
       18
102
RTVSPost2010Prop41ColorRGB
 90
        0
102
RTVSPost2010PropOp41
 70
     1
102
RTVSPost2010Prop42
 90
       50
102
RTVSPost2010PropOp42
 70
     1
102
RTVSPost2010Prop43
 90
        3
102
RTVSPost2010PropOp43
 70
     1
102
RTVSPost2010Prop44ColorIndex
 90
        5
102
RTVSPost2010Prop44ColorRGB
 90
      255
102
RTVSPost2010PropOp44
 70
     1
102
RTVSPost2010Prop45
280
     0
102
RTVSPost2010PropOp45
 70
     1
102
RTVSPost2010Prop46
 90
       50
102
RTVSPost2010PropOp46
 70
     1
102
RTVSPost2010Prop47
 90
       50
102
RTVSPost2010PropOp47
 70
     1
102
RTVSPost2010Prop48
 90
       50
102
RTVSPost2010PropOp48
 70
     1
102
RTVSPost2010Prop49
280
     0
102
RTVSPost2010PropOp49
 70
     1
102
RTVSPost2010Prop50
 90
       50
102
RTVSPost2010PropOp50
 70
     1
102
RTVSPost2010Prop51ColorIndex
 90
      256
102
RTVSPost2010Prop51ColorRGB
 90
-16777216
102
RTVSPost2010PropOp51
 70
     0
102
RTVSPost2010Prop52
140
1.0
102
RTVSPost2010PropOp52
 70
     0
102
RTVSPost2010Prop53
 90
        2
102
RTVSPost2010PropOp53
 70
     1
102
RTVSPost2010Prop54
  1
strokes_ogs.tif
102
RTVSPost2010PropOp54
 70
     1
102
RTVSPost2010Prop55
280
     0
102
RTVSPost2010PropOp55
 70
     1
102
RTVSPost2010Prop56
140
1.0
102
RTVSPost2010PropOp56
 70
     1
102
RTVSPost2010Prop57
140
1.0
102
RTVSPost2010PropOp57
 70
     1
  0
XRECORD
  5
1B1
102
{ACAD_REACTORS
330
1B0
102
}
330
1B0
100
AcDbXrecord
280
     1
102
RTVSPropertyOp0
 70
     1
102
RTVSPropertyOp1
 70
     1
102
RTVSPropertyOp2
 70
     1
102
RTVSPropertyOp3
 70
     1
102
RTVSPropertyOp4
 70
     1
102
RTVSPropertyOp5
 70
     1
102
RTVSPropertyOp6
 70
     1
102
RTVSPropertyOp7
 70
     1
102
RTVSPropertyOp8
 70
     1
102
RTVSPropertyOp9
 70
     1
102
RTVSPropertyOp10
 70
     1
102
RTVSPropertyOp11
 70
     1
102
RTVSPropertyOp12
 70
     1
102
RTVSPropertyOp13
 70
     1
102
RTVSPropertyOp14
 70
     1
102
RTVSPropertyOp15
 70
     1
102
RTVSPropertyOp16
 70
     1
102
RTVSPropertyOp17
 70
     1
102
RTVSPropertyOp18
 70
     1
102
RTVSPropertyOp19
 70
     1
102
RTVSPropertyOp20
 70
     1
102
RTVSPropertyOp21
 70
     1
102
RTVSPropertyOp22
 70
     1
102
RTVSPropertyOp23
 70
     1
102
RTVSPropertyOp24
 70
     1
102
RTVSPropertyOp25
 70
     1
102
RTVSPropertyOp26
 70
     1
102
RTVSPropertyOp27
 70
     1
102
RTVSPropertyOp28
 70
     1
102
RTVSPropertyOp29
 70
     1
102
RTVSPropertyOp30
 70
     1
102
RTVSPropertyOp31
 70
     1
102
RTVSPropertyOp32
 70
     1
102
RTVSPropertyOp33
 70
     1
102
RTVSPropertyOp34
 70
     1
102
RTVSPropertyOp35
 70
     1
102
RTVSPropertyOp36
 70
     1
102
RTVSPropertyOp37
 70
     1
102
RTVSPropertyOp38
 70
     1
102
RTVSPropertyOp39
 70
     1
102
RTVSPropertyOp40
 70
     1
102
RTVSPropertyOp41
 70
     1
102
RTVSPropertyOp42
 70
     1
102
RTVSPropertyOp43
 70
     1
102
RTVSPropertyOp44
 70
     1
102
RTVSPropertyOp45
 70
     1
102
RTVSPropertyOp46
 70
     1
102
RTVSPropertyOp47
 70
     1
102
RTVSPropertyOp48
 70
     1
102
RTVSPropertyOp49
 70
     1
102
RTVSPropertyOp50
 70
     1
102
RTVSPropertyOp51
 70
     0
102
RTVSPropertyOp52
 70
     0
102
RTVSPropertyOp53
 70
     1
102
RTVSPropertyOp54
 70
     1
102
RTVSPropertyOp55
 70
     1
102
RTVSPropertyOp56
 70
     1
102
RTVSPropertyOp57
 70
     1
102
RTVSPost2010Prop28
280
     0
102
RTVSPost2010PropOp28
 70
     1
102
RTVSPost2010Prop29
280
     1
102
RTVSPost2010PropOp29
 70
     1
102
RTVSPost2010Prop30
280
     1
102
RTVSPost2010PropOp30
 70
     1
102
RTVSPost2010Prop31
280
     0
102
RTVSPost2010PropOp31
 70
     1
102
RTVSPost2010Prop32
280
     0
102
RTVSPost2010PropOp32
 70
     1
102
RTVSPost2010Prop33
280
     0
102
RTVSPost2010PropOp33
 70
     1
102
RTVSPost2010Prop34
280
     0
102
RTVSPost2010PropOp34
 70
     1
102
RTVSPost2010Prop35
280
     0
102
RTVSPost2010PropOp35
 70
     1
102
RTVSPost2010Prop36
280
     0
102
RTVSPost2010PropOp36
 70
     1
102
RTVSPost2010Prop37
 90
       50
102
RTVSPost2010PropOp37
 70
     1
102
RTVSPost2010Prop38
140
0.0
102
RTVSPost2010PropOp38
 70
     1
102
RTVSPost2010Prop39
140
1.0
102
RTVSPost2010PropOp39
 70
     1
102
RTVSPost2010Prop40
 90
        0
102
RTVSPost2010PropOp40
 70
     1
102
RTVSPost2010Prop41ColorIndex
 90
       18
102
RTVSPost2010Prop41ColorRGB
 90
        0
102
RTVSPost2010PropOp41
 70
     1
102
RTVSPost2010Prop42
 90
       50
102
RTVSPost2010PropOp42
 70
     1
102
RTVSPost2010Prop43
 90
        3
102
RTVSPost2010PropOp43
 70
     1
102
RTVSPost2010Prop44ColorIndex
 90
        5
102
RTVSPost2010Prop44ColorRGB
 90
      255
102
RTVSPost2010PropOp44
 70
     1
102
RTVSPost2010Prop45
280
     0
102
RTVSPost2010PropOp45
 70
     1
102
RTVSPost2010Prop46
 90
       50
102
RTVSPost2010PropOp46
 70
     1
102
RTVSPost2010Prop47
 90
       50
102
RTVSPost2010PropOp47
 70
     1
102
RTVSPost2010Prop48
 90
       50
102
RTVSPost2010PropOp48
 70
     1
102
RTVSPost2010Prop49
280
     0
102
RTVSPost2010PropOp49
 70
     1
102
RTVSPost2010Prop50
 90
       50
102
RTVSPost2010PropOp50
 70
     1
102
RTVSPost2010Prop51ColorIndex
 90
      256
102
RTVSPost2010Prop51ColorRGB
 90
-16777216
102
RTVSPost2010PropOp51
 70
     0
102
RTVSPost2010Prop52
140
1.0
102
RTVSPost2010PropOp52
 70
     0
102
RTVSPost2010Prop53
 90
        2
102
RTVSPost2010PropOp53
 70
     1
102
RTVSPost2010Prop54
  1
strokes_ogs.tif
102
RTVSPost2010PropOp54
 70
     1
102
RTVSPost2010Prop55
280
     0
102
RTVSPost2010PropOp55
 70
     1
102
RTVSPost2010Prop56
140
1.0
102
RTVSPost2010PropOp56
 70
     1
102
RTVSPost2010Prop57
140
1.0
102
RTVSPost2010PropOp57
 70
     1
  0
XRECORD
  5
1AB
102
{ACAD_REACTORS
330
1AA
102
}
330
1AA
100
AcDbXrecord
280
     1
102
RTVSPropertyOp0
 70
     1
102
RTVSPropertyOp1
 70
     1
102
RTVSPropertyOp2
 70
     1
102
RTVSPropertyOp3
 70
     1
102
RTVSPropertyOp4
 70
     1
102
RTVSPropertyOp5
 70
     1
102
RTVSPropertyOp6
 70
     1
102
RTVSPropertyOp7
 70
     1
102
RTVSPropertyOp8
 70
     1
102
RTVSPropertyOp9
 70
     1
102
RTVSPropertyOp10
 70
     1
102
RTVSPropertyOp11
 70
     1
102
RTVSPropertyOp12
 70
     1
102
RTVSPropertyOp13
 70
     1
102
RTVSPropertyOp14
 70
     1
102
RTVSPropertyOp15
 70
     1
102
RTVSPropertyOp16
 70
     1
102
RTVSPropertyOp17
 70
     1
102
RTVSPropertyOp18
 70
     1
102
RTVSPropertyOp19
 70
     1
102
RTVSPropertyOp20
 70
     1
102
RTVSPropertyOp21
 70
     1
102
RTVSPropertyOp22
 70
     1
102
RTVSPropertyOp23
 70
     1
102
RTVSPropertyOp24
 70
     1
102
RTVSPropertyOp25
 70
     1
102
RTVSPropertyOp26
 70
     1
102
RTVSPropertyOp27
 70
     1
102
RTVSPropertyOp28
 70
     1
102
RTVSPropertyOp29
 70
     1
102
RTVSPropertyOp30
 70
     1
102
RTVSPropertyOp31
 70
     1
102
RTVSPropertyOp32
 70
     1
102
RTVSPropertyOp33
 70
     1
102
RTVSPropertyOp34
 70
     1
102
RTVSPropertyOp35
 70
     1
102
RTVSPropertyOp36
 70
     1
102
RTVSPropertyOp37
 70
     1
102
RTVSPropertyOp38
 70
     1
102
RTVSPropertyOp39
 70
     1
102
RTVSPropertyOp40
 70
     1
102
RTVSPropertyOp41
 70
     1
102
RTVSPropertyOp42
 70
     1
102
RTVSPropertyOp43
 70
     1
102
RTVSPropertyOp44
 70
     1
102
RTVSPropertyOp45
 70
     1
102
RTVSPropertyOp46
 70
     1
102
RTVSPropertyOp47
 70
     1
102
RTVSPropertyOp48
 70
     1
102
RTVSPropertyOp49
 70
     1
102
RTVSPropertyOp50
 70
     1
102
RTVSPropertyOp51
 70
     0
102
RTVSPropertyOp52
 70
     0
102
RTVSPropertyOp53
 70
     1
102
RTVSPropertyOp54
 70
     1
102
RTVSPropertyOp55
 70
     1
102
RTVSPropertyOp56
 70
     1
102
RTVSPropertyOp57
 70
     1
102
RTVSPost2010Prop28
280
     0
102
RTVSPost2010PropOp28
 70
     1
102
RTVSPost2010Prop29
280
     1
102
RTVSPost2010PropOp29
 70
     1
102
RTVSPost2010Prop30
280
     1
102
RTVSPost2010PropOp30
 70
     1
102
RTVSPost2010Prop31
280
     0
102
RTVSPost2010PropOp31
 70
     1
102
RTVSPost2010Prop32
280
     0
102
RTVSPost2010PropOp32
 70
     1
102
RTVSPost2010Prop33
280
     0
102
RTVSPost2010PropOp33
 70
     1
102
RTVSPost2010Prop34
280
     0
102
RTVSPost2010PropOp34
 70
     1
102
RTVSPost2010Prop35
280
     0
102
RTVSPost2010PropOp35
 70
     1
102
RTVSPost2010Prop36
280
     0
102
RTVSPost2010PropOp36
 70
     1
102
RTVSPost2010Prop37
 90
       50
102
RTVSPost2010PropOp37
 70
     1
102
RTVSPost2010Prop38
140
0.0
102
RTVSPost2010PropOp38
 70
     1
102
RTVSPost2010Prop39
140
1.0
102
RTVSPost2010PropOp39
 70
     1
102
RTVSPost2010Prop40
 90
        0
102
RTVSPost2010PropOp40
 70
     1
102
RTVSPost2010Prop41ColorIndex
 90
       18
102
RTVSPost2010Prop41ColorRGB
 90
        0
102
RTVSPost2010PropOp41
 70
     1
102
RTVSPost2010Prop42
 90
       50
102
RTVSPost2010PropOp42
 70
     1
102
RTVSPost2010Prop43
 90
        3
102
RTVSPost2010PropOp43
 70
     1
102
RTVSPost2010Prop44ColorIndex
 90
        5
102
RTVSPost2010Prop44ColorRGB
 90
      255
102
RTVSPost2010PropOp44
 70
     1
102
RTVSPost2010Prop45
280
     0
102
RTVSPost2010PropOp45
 70
     1
102
RTVSPost2010Prop46
 90
       50
102
RTVSPost2010PropOp46
 70
     1
102
RTVSPost2010Prop47
 90
       50
102
RTVSPost2010PropOp47
 70
     1
102
RTVSPost2010Prop48
 90
       50
102
RTVSPost2010PropOp48
 70
     1
102
RTVSPost2010Prop49
280
     0
102
RTVSPost2010PropOp49
 70
     1
102
RTVSPost2010Prop50
 90
       50
102
RTVSPost2010PropOp50
 70
     1
102
RTVSPost2010Prop51ColorIndex
 90
      256
102
RTVSPost2010Prop51ColorRGB
 90
-16777216
102
RTVSPost2010PropOp51
 70
     0
102
RTVSPost2010Prop52
140
1.0
102
RTVSPost2010PropOp52
 70
     0
102
RTVSPost2010Prop53
 90
        2
102
RTVSPost2010PropOp53
 70
     1
102
RTVSPost2010Prop54
  1
strokes_ogs.tif
102
RTVSPost2010PropOp54
 70
     1
102
RTVSPost2010Prop55
280
     0
102
RTVSPost2010PropOp55
 70
     1
102
RTVSPost2010Prop56
140
1.0
102
RTVSPost2010PropOp56
 70
     1
102
RTVSPost2010Prop57
140
1.0
102
RTVSPost2010PropOp57
 70
     1
  0
XRECORD
  5
1AD
102
{ACAD_REACTORS
330
1AC
102
}
330
1AC
100
AcDbXrecord
280
     1
102
RTVSPropertyOp0
 70
     1
102
RTVSPropertyOp1
 70
     1
102
RTVSPropertyOp2
 70
     1
102
RTVSPropertyOp3
 70
     1
102
RTVSPropertyOp4
 70
     1
102
RTVSPropertyOp5
 70
     1
102
RTVSPropertyOp6
 70
     1
102
RTVSPropertyOp7
 70
     1
102
RTVSPropertyOp8
 70
     1
102
RTVSPropertyOp9
 70
     1
102
RTVSPropertyOp10
 70
     1
102
RTVSPropertyOp11
 70
     1
102
RTVSPropertyOp12
 70
     1
102
RTVSPropertyOp13
 70
     1
102
RTVSPropertyOp14
 70
     1
102
RTVSPropertyOp15
 70
     1
102
RTVSPropertyOp16
 70
     1
102
RTVSPropertyOp17
 70
     1
102
RTVSPropertyOp18
 70
     1
102
RTVSPropertyOp19
 70
     1
102
RTVSPropertyOp20
 70
     1
102
RTVSPropertyOp21
 70
     1
102
RTVSPropertyOp22
 70
     1
102
RTVSPropertyOp23
 70
     1
102
RTVSPropertyOp24
 70
     1
102
RTVSPropertyOp25
 70
     1
102
RTVSPropertyOp26
 70
     1
102
RTVSPropertyOp27
 70
     1
102
RTVSPropertyOp28
 70
     1
102
RTVSPropertyOp29
 70
     1
102
RTVSPropertyOp30
 70
     1
102
RTVSPropertyOp31
 70
     1
102
RTVSPropertyOp32
 70
     1
102
RTVSPropertyOp33
 70
     1
102
RTVSPropertyOp34
 70
     1
102
RTVSPropertyOp35
 70
     1
102
RTVSPropertyOp36
 70
     1
102
RTVSPropertyOp37
 70
     1
102
RTVSPropertyOp38
 70
     1
102
RTVSPropertyOp39
 70
     1
102
RTVSPropertyOp40
 70
     1
102
RTVSPropertyOp41
 70
     1
102
RTVSPropertyOp42
 70
     1
102
RTVSPropertyOp43
 70
     1
102
RTVSPropertyOp44
 70
     1
102
RTVSPropertyOp45
 70
     1
102
RTVSPropertyOp46
 70
     1
102
RTVSPropertyOp47
 70
     1
102
RTVSPropertyOp48
 70
     1
102
RTVSPropertyOp49
 70
     1
102
RTVSPropertyOp50
 70
     1
102
RTVSPropertyOp51
 70
     0
102
RTVSPropertyOp52
 70
     0
102
RTVSPropertyOp53
 70
     1
102
RTVSPropertyOp54
 70
     1
102
RTVSPropertyOp55
 70
     1
102
RTVSPropertyOp56
 70
     1
102
RTVSPropertyOp57
 70
     1
102
RTVSPost2010Prop28
280
     0
102
RTVSPost2010PropOp28
 70
     1
102
RTVSPost2010Prop29
280
     1
102
RTVSPost2010PropOp29
 70
     1
102
RTVSPost2010Prop30
280
     1
102
RTVSPost2010PropOp30
 70
     1
102
RTVSPost2010Prop31
280
     0
102
RTVSPost2010PropOp31
 70
     1
102
RTVSPost2010Prop32
280
     0
102
RTVSPost2010PropOp32
 70
     1
102
RTVSPost2010Prop33
280
     0
102
RTVSPost2010PropOp33
 70
     1
102
RTVSPost2010Prop34
280
     0
102
RTVSPost2010PropOp34
 70
     1
102
RTVSPost2010Prop35
280
     0
102
RTVSPost2010PropOp35
 70
     1
102
RTVSPost2010Prop36
280
     0
102
RTVSPost2010PropOp36
 70
     1
102
RTVSPost2010Prop37
 90
       50
102
RTVSPost2010PropOp37
 70
     1
102
RTVSPost2010Prop38
140
0.0
102
RTVSPost2010PropOp38
 70
     1
102
RTVSPost2010Prop39
140
1.0
102
RTVSPost2010PropOp39
 70
     1
102
RTVSPost2010Prop40
 90
        0
102
RTVSPost2010PropOp40
 70
     1
102
RTVSPost2010Prop41ColorIndex
 90
       18
102
RTVSPost2010Prop41ColorRGB
 90
        0
102
RTVSPost2010PropOp41
 70
     1
102
RTVSPost2010Prop42
 90
       50
102
RTVSPost2010PropOp42
 70
     1
102
RTVSPost2010Prop43
 90
        3
102
RTVSPost2010PropOp43
 70
     1
102
RTVSPost2010Prop44ColorIndex
 90
        5
102
RTVSPost2010Prop44ColorRGB
 90
      255
102
RTVSPost2010PropOp44
 70
     1
102
RTVSPost2010Prop45
280
     0
102
RTVSPost2010PropOp45
 70
     1
102
RTVSPost2010Prop46
 90
       50
102
RTVSPost2010PropOp46
 70
     1
102
RTVSPost2010Prop47
 90
       50
102
RTVSPost2010PropOp47
 70
     1
102
RTVSPost2010Prop48
 90
       50
102
RTVSPost2010PropOp48
 70
     1
102
RTVSPost2010Prop49
280
     0
102
RTVSPost2010PropOp49
 70
     1
102
RTVSPost2010Prop50
 90
       50
102
RTVSPost2010PropOp50
 70
     1
102
RTVSPost2010Prop51ColorIndex
 90
      256
102
RTVSPost2010Prop51ColorRGB
 90
-16777216
102
RTVSPost2010PropOp51
 70
     0
102
RTVSPost2010Prop52
140
1.0
102
RTVSPost2010PropOp52
 70
     0
102
RTVSPost2010Prop53
 90
        2
102
RTVSPost2010PropOp53
 70
     1
102
RTVSPost2010Prop54
  1
strokes_ogs.tif
102
RTVSPost2010PropOp54
 70
     1
102
RTVSPost2010Prop55
280
     0
102
RTVSPost2010PropOp55
 70
     1
102
RTVSPost2010Prop56
140
1.0
102
RTVSPost2010PropOp56
 70
     1
102
RTVSPost2010Prop57
140
1.0
102
RTVSPost2010PropOp57
 70
     1
  0
XRECORD
  5
19D
102
{ACAD_REACTORS
330
19C
102
}
330
19C
100
AcDbXrecord
280
     1
102
RTVSPropertyOp0
 70
     1
102
RTVSPropertyOp1
 70
     1
102
RTVSPropertyOp2
 70
     1
102
RTVSPropertyOp3
 70
     1
102
RTVSPropertyOp4
 70
     1
102
RTVSPropertyOp5
 70
     1
102
RTVSPropertyOp6
 70
     1
102
RTVSPropertyOp7
 70
     1
102
RTVSPropertyOp8
 70
     1
102
RTVSPropertyOp9
 70
     1
102
RTVSPropertyOp10
 70
     1
102
RTVSPropertyOp11
 70
     1
102
RTVSPropertyOp12
 70
     1
102
RTVSPropertyOp13
 70
     1
102
RTVSPropertyOp14
 70
     1
102
RTVSPropertyOp15
 70
     1
102
RTVSPropertyOp16
 70
     1
102
RTVSPropertyOp17
 70
     1
102
RTVSPropertyOp18
 70
     1
102
RTVSPropertyOp19
 70
     1
102
RTVSPropertyOp20
 70
     1
102
RTVSPropertyOp21
 70
     1
102
RTVSPropertyOp22
 70
     1
102
RTVSPropertyOp23
 70
     1
102
RTVSPropertyOp24
 70
     1
102
RTVSPropertyOp25
 70
     1
102
RTVSPropertyOp26
 70
     1
102
RTVSPropertyOp27
 70
     1
102
RTVSPropertyOp28
 70
     1
102
RTVSPropertyOp29
 70
     1
102
RTVSPropertyOp30
 70
     1
102
RTVSPropertyOp31
 70
     1
102
RTVSPropertyOp32
 70
     1
102
RTVSPropertyOp33
 70
     1
102
RTVSPropertyOp34
 70
     1
102
RTVSPropertyOp35
 70
     1
102
RTVSPropertyOp36
 70
     1
102
RTVSPropertyOp37
 70
     1
102
RTVSPropertyOp38
 70
     1
102
RTVSPropertyOp39
 70
     1
102
RTVSPropertyOp40
 70
     1
102
RTVSPropertyOp41
 70
     1
102
RTVSPropertyOp42
 70
     1
102
RTVSPropertyOp43
 70
     1
102
RTVSPropertyOp44
 70
     1
102
RTVSPropertyOp45
 70
     1
102
RTVSPropertyOp46
 70
     1
102
RTVSPropertyOp47
 70
     1
102
RTVSPropertyOp48
 70
     1
102
RTVSPropertyOp49
 70
     1
102
RTVSPropertyOp50
 70
     1
102
RTVSPropertyOp51
 70
     0
102
RTVSPropertyOp52
 70
     0
102
RTVSPropertyOp53
 70
     1
102
RTVSPropertyOp54
 70
     1
102
RTVSPropertyOp55
 70
     1
102
RTVSPropertyOp56
 70
     1
102
RTVSPropertyOp57
 70
     1
102
RTVSPost2010Prop28
280
     0
102
RTVSPost2010PropOp28
 70
     1
102
RTVSPost2010Prop29
280
     1
102
RTVSPost2010PropOp29
 70
     1
102
RTVSPost2010Prop30
280
     1
102
RTVSPost2010PropOp30
 70
     1
102
RTVSPost2010Prop31
280
     0
102
RTVSPost2010PropOp31
 70
     1
102
RTVSPost2010Prop32
280
     0
102
RTVSPost2010PropOp32
 70
     1
102
RTVSPost2010Prop33
280
     0
102
RTVSPost2010PropOp33
 70
     1
102
RTVSPost2010Prop34
280
     0
102
RTVSPost2010PropOp34
 70
     1
102
RTVSPost2010Prop35
280
     0
102
RTVSPost2010PropOp35
 70
     1
102
RTVSPost2010Prop36
280
     0
102
RTVSPost2010PropOp36
 70
     1
102
RTVSPost2010Prop37
 90
       50
102
RTVSPost2010PropOp37
 70
     1
102
RTVSPost2010Prop38
140
0.0
102
RTVSPost2010PropOp38
 70
     1
102
RTVSPost2010Prop39
140
1.0
102
RTVSPost2010PropOp39
 70
     1
102
RTVSPost2010Prop40
 90
        0
102
RTVSPost2010PropOp40
 70
     1
102
RTVSPost2010Prop41ColorIndex
 90
       18
102
RTVSPost2010Prop41ColorRGB
 90
        0
102
RTVSPost2010PropOp41
 70
     1
102
RTVSPost2010Prop42
 90
       50
102
RTVSPost2010PropOp42
 70
     1
102
RTVSPost2010Prop43
 90
        3
102
RTVSPost2010PropOp43
 70
     1
102
RTVSPost2010Prop44ColorIndex
 90
        5
102
RTVSPost2010Prop44ColorRGB
 90
      255
102
RTVSPost2010PropOp44
 70
     1
102
RTVSPost2010Prop45
280
     0
102
RTVSPost2010PropOp45
 70
     1
102
RTVSPost2010Prop46
 90
       50
102
RTVSPost2010PropOp46
 70
     1
102
RTVSPost2010Prop47
 90
       50
102
RTVSPost2010PropOp47
 70
     1
102
RTVSPost2010Prop48
 90
       50
102
RTVSPost2010PropOp48
 70
     1
102
RTVSPost2010Prop49
280
     0
102
RTVSPost2010PropOp49
 70
     1
102
RTVSPost2010Prop50
 90
       50
102
RTVSPost2010PropOp50
 70
     1
102
RTVSPost2010Prop51ColorIndex
 90
      256
102
RTVSPost2010Prop51ColorRGB
 90
-16777216
102
RTVSPost2010PropOp51
 70
     0
102
RTVSPost2010Prop52
140
1.0
102
RTVSPost2010PropOp52
 70
     0
102
RTVSPost2010Prop53
 90
        2
102
RTVSPost2010PropOp53
 70
     1
102
RTVSPost2010Prop54
  1
strokes_ogs.tif
102
RTVSPost2010PropOp54
 70
     1
102
RTVSPost2010Prop55
280
     0
102
RTVSPost2010PropOp55
 70
     1
102
RTVSPost2010Prop56
140
1.0
102
RTVSPost2010PropOp56
 70
     1
102
RTVSPost2010Prop57
140
1.0
102
RTVSPost2010PropOp57
 70
     1
  0
XRECORD
  5
18F
102
{ACAD_REACTORS
330
18E
102
}
330
18E
100
AcDbXrecord
280
     1
102
RTVSPropertyOp0
 70
     1
102
RTVSPropertyOp1
 70
     1
102
RTVSPropertyOp2
 70
     1
102
RTVSPropertyOp3
 70
     1
102
RTVSPropertyOp4
 70
     1
102
RTVSPropertyOp5
 70
     1
102
RTVSPropertyOp6
 70
     1
102
RTVSPropertyOp7
 70
     1
102
RTVSPropertyOp8
 70
     1
102
RTVSPropertyOp9
 70
     1
102
RTVSPropertyOp10
 70
     1
102
RTVSPropertyOp11
 70
     1
102
RTVSPropertyOp12
 70
     1
102
RTVSPropertyOp13
 70
     1
102
RTVSPropertyOp14
 70
     1
102
RTVSPropertyOp15
 70
     1
102
RTVSPropertyOp16
 70
     1
102
RTVSPropertyOp17
 70
     1
102
RTVSPropertyOp18
 70
     1
102
RTVSPropertyOp19
 70
     1
102
RTVSPropertyOp20
 70
     1
102
RTVSPropertyOp21
 70
     1
102
RTVSPropertyOp22
 70
     1
102
RTVSPropertyOp23
 70
     1
102
RTVSPropertyOp24
 70
     1
102
RTVSPropertyOp25
 70
     1
102
RTVSPropertyOp26
 70
     1
102
RTVSPropertyOp27
 70
     1
102
RTVSPropertyOp28
 70
     1
102
RTVSPropertyOp29
 70
     1
102
RTVSPropertyOp30
 70
     1
102
RTVSPropertyOp31
 70
     1
102
RTVSPropertyOp32
 70
     1
102
RTVSPropertyOp33
 70
     1
102
RTVSPropertyOp34
 70
     1
102
RTVSPropertyOp35
 70
     1
102
RTVSPropertyOp36
 70
     1
102
RTVSPropertyOp37
 70
     1
102
RTVSPropertyOp38
 70
     1
102
RTVSPropertyOp39
 70
     1
102
RTVSPropertyOp40
 70
     1
102
RTVSPropertyOp41
 70
     1
102
RTVSPropertyOp42
 70
     1
102
RTVSPropertyOp43
 70
     1
102
RTVSPropertyOp44
 70
     1
102
RTVSPropertyOp45
 70
     1
102
RTVSPropertyOp46
 70
     1
102
RTVSPropertyOp47
 70
     1
102
RTVSPropertyOp48
 70
     1
102
RTVSPropertyOp49
 70
     1
102
RTVSPropertyOp50
 70
     1
102
RTVSPropertyOp51
 70
     0
102
RTVSPropertyOp52
 70
     0
102
RTVSPropertyOp53
 70
     1
102
RTVSPropertyOp54
 70
     1
102
RTVSPropertyOp55
 70
     1
102
RTVSPropertyOp56
 70
     1
102
RTVSPropertyOp57
 70
     1
102
RTVSPost2010Prop28
280
     0
102
RTVSPost2010PropOp28
 70
     1
102
RTVSPost2010Prop29
280
     1
102
RTVSPost2010PropOp29
 70
     1
102
RTVSPost2010Prop30
280
     1
102
RTVSPost2010PropOp30
 70
     1
102
RTVSPost2010Prop31
280
     0
102
RTVSPost2010PropOp31
 70
     1
102
RTVSPost2010Prop32
280
     0
102
RTVSPost2010PropOp32
 70
     1
102
RTVSPost2010Prop33
280
     0
102
RTVSPost2010PropOp33
 70
     1
102
RTVSPost2010Prop34
280
     0
102
RTVSPost2010PropOp34
 70
     1
102
RTVSPost2010Prop35
280
     0
102
RTVSPost2010PropOp35
 70
     1
102
RTVSPost2010Prop36
280
     0
102
RTVSPost2010PropOp36
 70
     1
102
RTVSPost2010Prop37
 90
       50
102
RTVSPost2010PropOp37
 70
     1
102
RTVSPost2010Prop38
140
0.0
102
RTVSPost2010PropOp38
 70
     1
102
RTVSPost2010Prop39
140
1.0
102
RTVSPost2010PropOp39
 70
     1
102
RTVSPost2010Prop40
 90
        0
102
RTVSPost2010PropOp40
 70
     1
102
RTVSPost2010Prop41ColorIndex
 90
       18
102
RTVSPost2010Prop41ColorRGB
 90
        0
102
RTVSPost2010PropOp41
 70
     1
102
RTVSPost2010Prop42
 90
       50
102
RTVSPost2010PropOp42
 70
     1
102
RTVSPost2010Prop43
 90
        3
102
RTVSPost2010PropOp43
 70
     1
102
RTVSPost2010Prop44ColorIndex
 90
        5
102
RTVSPost2010Prop44ColorRGB
 90
      255
102
RTVSPost2010PropOp44
 70
     1
102
RTVSPost2010Prop45
280
     0
102
RTVSPost2010PropOp45
 70
     1
102
RTVSPost2010Prop46
 90
       50
102
RTVSPost2010PropOp46
 70
     1
102
RTVSPost2010Prop47
 90
       50
102
RTVSPost2010PropOp47
 70
     1
102
RTVSPost2010Prop48
 90
       50
102
RTVSPost2010PropOp48
 70
     1
102
RTVSPost2010Prop49
280
     0
102
RTVSPost2010PropOp49
 70
     1
102
RTVSPost2010Prop50
 90
       50
102
RTVSPost2010PropOp50
 70
     1
102
RTVSPost2010Prop51ColorIndex
 90
      256
102
RTVSPost2010Prop51ColorRGB
 90
-16777216
102
RTVSPost2010PropOp51
 70
     0
102
RTVSPost2010Prop52
140
1.0
102
RTVSPost2010PropOp52
 70
     0
102
RTVSPost2010Prop53
 90
        2
102
RTVSPost2010PropOp53
 70
     1
102
RTVSPost2010Prop54
  1
strokes_ogs.tif
102
RTVSPost2010PropOp54
 70
     1
102
RTVSPost2010Prop55
280
     0
102
RTVSPost2010PropOp55
 70
     1
102
RTVSPost2010Prop56
140
1.0
102
RTVSPost2010PropOp56
 70
     1
102
RTVSPost2010Prop57
140
1.0
102
RTVSPost2010PropOp57
 70
     1
  0
XRECORD
  5
1AF
102
{ACAD_REACTORS
330
1AE
102
}
330
1AE
100
AcDbXrecord
280
     1
102
RTVSPropertyOp0
 70
     1
102
RTVSPropertyOp1
 70
     1
102
RTVSPropertyOp2
 70
     1
102
RTVSPropertyOp3
 70
     1
102
RTVSPropertyOp4
 70
     1
102
RTVSPropertyOp5
 70
     1
102
RTVSPropertyOp6
 70
     1
102
RTVSPropertyOp7
 70
     1
102
RTVSPropertyOp8
 70
     1
102
RTVSPropertyOp9
 70
     1
102
RTVSPropertyOp10
 70
     1
102
RTVSPropertyOp11
 70
     1
102
RTVSPropertyOp12
 70
     1
102
RTVSPropertyOp13
 70
     1
102
RTVSPropertyOp14
 70
     1
102
RTVSPropertyOp15
 70
     1
102
RTVSPropertyOp16
 70
     1
102
RTVSPropertyOp17
 70
     1
102
RTVSPropertyOp18
 70
     1
102
RTVSPropertyOp19
 70
     1
102
RTVSPropertyOp20
 70
     1
102
RTVSPropertyOp21
 70
     1
102
RTVSPropertyOp22
 70
     1
102
RTVSPropertyOp23
 70
     1
102
RTVSPropertyOp24
 70
     1
102
RTVSPropertyOp25
 70
     1
102
RTVSPropertyOp26
 70
     1
102
RTVSPropertyOp27
 70
     1
102
RTVSPropertyOp28
 70
     1
102
RTVSPropertyOp29
 70
     1
102
RTVSPropertyOp30
 70
     1
102
RTVSPropertyOp31
 70
     1
102
RTVSPropertyOp32
 70
     1
102
RTVSPropertyOp33
 70
     1
102
RTVSPropertyOp34
 70
     1
102
RTVSPropertyOp35
 70
     1
102
RTVSPropertyOp36
 70
     1
102
RTVSPropertyOp37
 70
     1
102
RTVSPropertyOp38
 70
     1
102
RTVSPropertyOp39
 70
     1
102
RTVSPropertyOp40
 70
     1
102
RTVSPropertyOp41
 70
     1
102
RTVSPropertyOp42
 70
     1
102
RTVSPropertyOp43
 70
     1
102
RTVSPropertyOp44
 70
     1
102
RTVSPropertyOp45
 70
     1
102
RTVSPropertyOp46
 70
     1
102
RTVSPropertyOp47
 70
     1
102
RTVSPropertyOp48
 70
     1
102
RTVSPropertyOp49
 70
     1
102
RTVSPropertyOp50
 70
     1
102
RTVSPropertyOp51
 70
     0
102
RTVSPropertyOp52
 70
     0
102
RTVSPropertyOp53
 70
     1
102
RTVSPropertyOp54
 70
     1
102
RTVSPropertyOp55
 70
     1
102
RTVSPropertyOp56
 70
     1
102
RTVSPropertyOp57
 70
     1
102
RTVSPost2010Prop28
280
     0
102
RTVSPost2010PropOp28
 70
     1
102
RTVSPost2010Prop29
280
     1
102
RTVSPost2010PropOp29
 70
     1
102
RTVSPost2010Prop30
280
     1
102
RTVSPost2010PropOp30
 70
     1
102
RTVSPost2010Prop31
280
     0
102
RTVSPost2010PropOp31
 70
     1
102
RTVSPost2010Prop32
280
     0
102
RTVSPost2010PropOp32
 70
     1
102
RTVSPost2010Prop33
280
     0
102
RTVSPost2010PropOp33
 70
     1
102
RTVSPost2010Prop34
280
     0
102
RTVSPost2010PropOp34
 70
     1
102
RTVSPost2010Prop35
280
     0
102
RTVSPost2010PropOp35
 70
     1
102
RTVSPost2010Prop36
280
     0
102
RTVSPost2010PropOp36
 70
     1
102
RTVSPost2010Prop37
 90
       50
102
RTVSPost2010PropOp37
 70
     1
102
RTVSPost2010Prop38
140
0.0
102
RTVSPost2010PropOp38
 70
     1
102
RTVSPost2010Prop39
140
1.0
102
RTVSPost2010PropOp39
 70
     1
102
RTVSPost2010Prop40
 90
        0
102
RTVSPost2010PropOp40
 70
     1
102
RTVSPost2010Prop41ColorIndex
 90
       18
102
RTVSPost2010Prop41ColorRGB
 90
        0
102
RTVSPost2010PropOp41
 70
     1
102
RTVSPost2010Prop42
 90
       50
102
RTVSPost2010PropOp42
 70
     1
102
RTVSPost2010Prop43
 90
        3
102
RTVSPost2010PropOp43
 70
     1
102
RTVSPost2010Prop44ColorIndex
 90
        5
102
RTVSPost2010Prop44ColorRGB
 90
      255
102
RTVSPost2010PropOp44
 70
     1
102
RTVSPost2010Prop45
280
     0
102
RTVSPost2010PropOp45
 70
     1
102
RTVSPost2010Prop46
 90
       50
102
RTVSPost2010PropOp46
 70
     1
102
RTVSPost2010Prop47
 90
       50
102
RTVSPost2010PropOp47
 70
     1
102
RTVSPost2010Prop48
 90
       50
102
RTVSPost2010PropOp48
 70
     1
102
RTVSPost2010Prop49
280
     0
102
RTVSPost2010PropOp49
 70
     1
102
RTVSPost2010Prop50
 90
       50
102
RTVSPost2010PropOp50
 70
     1
102
RTVSPost2010Prop51ColorIndex
 90
      256
102
RTVSPost2010Prop51ColorRGB
 90
-16777216
102
RTVSPost2010PropOp51
 70
     0
102
RTVSPost2010Prop52
140
1.0
102
RTVSPost2010PropOp52
 70
     0
102
RTVSPost2010Prop53
 90
        2
102
RTVSPost2010PropOp53
 70
     1
102
RTVSPost2010Prop54
  1
strokes_ogs.tif
102
RTVSPost2010PropOp54
 70
     1
102
RTVSPost2010Prop55
280
     0
102
RTVSPost2010PropOp55
 70
     1
102
RTVSPost2010Prop56
140
1.0
102
RTVSPost2010PropOp56
 70
     1
102
RTVSPost2010Prop57
140
1.0
102
RTVSPost2010PropOp57
 70
     1
  0
ENDSEC
  0
EOF
