  0
SECTION
  2
HEADER
  9
$ACADVER
  1
AC1015
  9
$ACADMAINTVER
 70
     6
  9
$DWGCODEPAGE
  3
ANSI_1250
  9
$INSBASE
 10
0.0
 20
0.0
 30
0.0
  9
$EXTMIN
 10
-53.2426
 20
-34.0719
 30
0.0
  9
$EXTMAX
 10
53.2427
 20
33.9309
 30
0.0
  9
$LIMMIN
 10
0.0
 20
0.0
  9
$LIMMAX
 10
12.0
 20
9.0
  9
$ORTHOMODE
 70
     0
  9
$REGENMODE
 70
     1
  9
$FILLMODE
 70
     1
  9
$QTEXTMODE
 70
     0
  9
$MIRRTEXT
 70
     1
  9
$LTSCALE
 40
1.0
  9
$ATTMODE
 70
     1
  9
$TEXTSIZE
 40
0.2
  9
$TRACEWID
 40
0.05
  9
$TEXTSTYLE
  7
Standard
  9
$CLAYER
  8
0
  9
$CELTYPE
  6
ByLayer
  9
$CECOLOR
 62
   256
  9
$CELTSCALE
 40
1.0
  9
$DISPSILH
 70
     0
  9
$DIMSCALE
 40
1.0
  9
$DIMASZ
 40
0.18
  9
$DIMEXO
 40
0.0625
  9
$DIMDLI
 40
0.38
  9
$DIMRND
 40
0.0
  9
$DIMDLE
 40
0.0
  9
$DIMEXE
 40
0.18
  9
$DIMTP
 40
0.0
  9
$DIMTM
 40
0.0
  9
$DIMTXT
 40
0.18
  9
$DIMCEN
 40
0.09
  9
$DIMTSZ
 40
0.0
  9
$DIMTOL
 70
     0
  9
$DIMLIM
 70
     0
  9
$DIMTIH
 70
     1
  9
$DIMTOH
 70
     1
  9
$DIMSE1
 70
     0
  9
$DIMSE2
 70
     0
  9
$DIMTAD
 70
     0
  9
$DIMZIN
 70
     0
  9
$DIMBLK
  1

  9
$DIMASO
 70
     1
  9
$DIMSHO
 70
     1
  9
$DIMPOST
  1

  9
$DIMAPOST
  1

  9
$DIMALT
 70
     0
  9
$DIMALTD
 70
     2
  9
$DIMALTF
 40
25.4
  9
$DIMLFAC
 40
1.0
  9
$DIMTOFL
 70
     0
  9
$DIMTVP
 40
0.0
  9
$DIMTIX
 70
     0
  9
$DIMSOXD
 70
     0
  9
$DIMSAH
 70
     0
  9
$DIMBLK1
  1

  9
$DIMBLK2
  1

  9
$DIMSTYLE
  2
Standard
  9
$DIMCLRD
 70
     0
  9
$DIMCLRE
 70
     0
  9
$DIMCLRT
 70
     0
  9
$DIMTFAC
 40
1.0
  9
$DIMGAP
 40
0.09
  9
$DIMJUST
 70
     0
  9
$DIMSD1
 70
     0
  9
$DIMSD2
 70
     0
  9
$DIMTOLJ
 70
     1
  9
$DIMTZIN
 70
     0
  9
$DIMALTZ
 70
     0
  9
$DIMALTTZ
 70
     0
  9
$DIMUPT
 70
     0
  9
$DIMDEC
 70
     4
  9
$DIMTDEC
 70
     4
  9
$DIMALTU
 70
     2
  9
$DIMALTTD
 70
     2
  9
$DIMTXSTY
  7
Standard
  9
$DIMAUNIT
 70
     0
  9
$DIMADEC
 70
     0
  9
$DIMALTRND
 40
0.0
  9
$DIMAZIN
 70
     0
  9
$DIMDSEP
 70
    46
  9
$DIMATFIT
 70
     3
  9
$DIMFRAC
 70
     0
  9
$DIMLDRBLK
  1

  9
$DIMLUNIT
 70
     2
  9
$DIMLWD
 70
    -2
  9
$DIMLWE
 70
    -2
  9
$DIMTMOVE
 70
     0
  9
$LUNITS
 70
     2
  9
$LUPREC
 70
     4
  9
$SKETCHINC
 40
0.1
  9
$FILLETRAD
 40
0.5
  9
$AUNITS
 70
     0
  9
$AUPREC
 70
     0
  9
$MENU
  1
.
  9
$ELEVATION
 40
0.0
  9
$PELEVATION
 40
0.0
  9
$THICKNESS
 40
0.0
  9
$LIMCHECK
 70
     0
  9
$CHAMFERA
 40
0.5
  9
$CHAMFERB
 40
0.5
  9
$CHAMFERC
 40
1.0
  9
$CHAMFERD
 40
0.0
  9
$SKPOLY
 70
     0
  9
$TDCREATE
 40
2459373.52587191
  9
$TDUCREATE
 40
2459373.442538576
  9
$TDUPDATE
 40
2459373.525871921
  9
$TDUUPDATE
 40
2459373.442538588
  9
$TDINDWG
 40
0.0000000116
  9
$TDUSRTIMER
 40
0.0000000116
  9
$USRTIMER
 70
     1
  9
$ANGBASE
 50
0.0
  9
$ANGDIR
 70
     0
  9
$PDMODE
 70
     0
  9
$PDSIZE
 40
0.0
  9
$PLINEWID
 40
0.0
  9
$SPLFRAME
 70
     0
  9
$SPLINETYPE
 70
     6
  9
$SPLINESEGS
 70
     8
  9
$HANDSEED
  5
100
  9
$SURFTAB1
 70
     6
  9
$SURFTAB2
 70
     6
  9
$SURFTYPE
 70
     6
  9
$SURFU
 70
     6
  9
$SURFV
 70
     6
  9
$UCSBASE
  2

  9
$UCSNAME
  2

  9
$UCSORG
 10
0.0
 20
0.0
 30
0.0
  9
$UCSXDIR
 10
1.0
 20
0.0
 30
0.0
  9
$UCSYDIR
 10
0.0
 20
1.0
 30
0.0
  9
$UCSORTHOREF
  2

  9
$UCSORTHOVIEW
 70
     0
  9
$UCSORGTOP
 10
0.0
 20
0.0
 30
0.0
  9
$UCSORGBOTTOM
 10
0.0
 20
0.0
 30
0.0
  9
$UCSORGLEFT
 10
0.0
 20
0.0
 30
0.0
  9
$UCSORGRIGHT
 10
0.0
 20
0.0
 30
0.0
  9
$UCSORGFRONT
 10
0.0
 20
0.0
 30
0.0
  9
$UCSORGBACK
 10
0.0
 20
0.0
 30
0.0
  9
$PUCSBASE
  2

  9
$PUCSNAME
  2

  9
$PUCSORG
 10
0.0
 20
0.0
 30
0.0
  9
$PUCSXDIR
 10
1.0
 20
0.0
 30
0.0
  9
$PUCSYDIR
 10
0.0
 20
1.0
 30
0.0
  9
$PUCSORTHOREF
  2

  9
$PUCSORTHOVIEW
 70
     0
  9
$PUCSORGTOP
 10
0.0
 20
0.0
 30
0.0
  9
$PUCSORGBOTTOM
 10
0.0
 20
0.0
 30
0.0
  9
$PUCSORGLEFT
 10
0.0
 20
0.0
 30
0.0
  9
$PUCSORGRIGHT
 10
0.0
 20
0.0
 30
0.0
  9
$PUCSORGFRONT
 10
0.0
 20
0.0
 30
0.0
  9
$PUCSORGBACK
 10
0.0
 20
0.0
 30
0.0
  9
$USERI1
 70
     0
  9
$USERI2
 70
     0
  9
$USERI3
 70
     0
  9
$USERI4
 70
     0
  9
$USERI5
 70
     0
  9
$USERR1
 40
0.0
  9
$USERR2
 40
0.0
  9
$USERR3
 40
0.0
  9
$USERR4
 40
0.0
  9
$USERR5
 40
0.0
  9
$WORLDVIEW
 70
     1
  9
$SHADEDGE
 70
     3
  9
$SHADEDIF
 70
    70
  9
$TILEMODE
 70
     1
  9
$MAXACTVP
 70
    64
  9
$PINSBASE
 10
0.0
 20
0.0
 30
0.0
  9
$PLIMCHECK
 70
     0
  9
$PEXTMIN
 10
1.000000000000000E+20
 20
1.000000000000000E+20
 30
1.000000000000000E+20
  9
$PEXTMAX
 10
-1.000000000000000E+20
 20
-1.000000000000000E+20
 30
-1.000000000000000E+20
  9
$PLIMMIN
 10
0.0
 20
0.0
  9
$PLIMMAX
 10
12.0
 20
9.0
  9
$UNITMODE
 70
     0
  9
$VISRETAIN
 70
     1
  9
$PLINEGEN
 70
     0
  9
$PSLTSCALE
 70
     1
  9
$TREEDEPTH
 70
  3020
  9
$CMLSTYLE
  2
Standard
  9
$CMLJUST
 70
     0
  9
$CMLSCALE
 40
1.0
  9
$PROXYGRAPHICS
 70
     1
  9
$MEASUREMENT
 70
     0
  9
$CELWEIGHT
370
    -1
  9
$ENDCAPS
280
     0
  9
$JOINSTYLE
280
     0
  9
$LWDISPLAY
290
     0
  9
$INSUNITS
 70
     4
  9
$HYPERLINKBASE
  1

  9
$STYLESHEET
  1

  9
$XEDIT
290
     1
  9
$CEPSNTYPE
380
     0
  9
$PSTYLEMODE
290
     1
  9
$FINGERPRINTGUID
  2
{5CABAB6E-34C2-4F86-B877-560110E46143}
  9
$VERSIONGUID
  2
{FAEB1C32-E019-11D5-929B-00C0DF256EC4}
  9
$EXTNAMES
290
     1
  9
$PSVPSCALE
 40
0.0
  9
$OLESTARTUP
290
     0
  0
ENDSEC
  0
SECTION
  2
CLASSES
  0
CLASS
  1
ACDBDICTIONARYWDFLT
  2
AcDbDictionaryWithDefault
  3
ObjectDBX Classes
 90
        0
280
     0
281
     0
  0
CLASS
  1
VISUALSTYLE
  2
AcDbVisualStyle
  3
ObjectDBX Classes
 90
     4095
280
     0
281
     0
  0
CLASS
  1
MATERIAL
  2
AcDbMaterial
  3
ObjectDBX Classes
 90
     1153
280
     0
281
     0
  0
CLASS
  1
DICTIONARYVAR
  2
AcDbDictionaryVar
  3
ObjectDBX Classes
 90
        0
280
     0
281
     0
  0
CLASS
  1
ACDBPLACEHOLDER
  2
AcDbPlaceHolder
  3
ObjectDBX Classes
 90
        0
280
     0
281
     0
  0
CLASS
  1
LAYOUT
  2
AcDbLayout
  3
ObjectDBX Classes
 90
        0
280
     0
281
     0
  0
ENDSEC
  0
SECTION
  2
TABLES
  0
TABLE
  2
VPORT
  5
8
330
0
100
AcDbSymbolTable
 70
     1
  0
VPORT
  5
29
330
8
100
AcDbSymbolTableRecord
100
AcDbViewportTableRecord
  2
*Active
 70
     0
 10
0.0
 20
0.0
 11
1.0
 21
1.0
 12
10.42990654205607
 22
4.5
 13
0.0
 23
0.0
 14
0.5
 24
0.5
 15
0.5
 25
0.5
 16
0.0
 26
0.0
 36
1.0
 17
0.0
 27
0.0
 37
0.0
 40
9.0
 41
1.972972972850329
 42
50.0
 43
0.0
 44
0.0
 50
0.0
 51
0.0
 71
     0
 72
   100
 73
     1
 74
     3
 75
     0
 76
     0
 77
     0
 78
     0
281
     0
 65
     1
110
0.0
120
0.0
130
0.0
111
1.0
121
0.0
131
0.0
112
0.0
122
1.0
132
0.0
 79
     0
146
0.0
  0
ENDTAB
  0
TABLE
  2
LTYPE
  5
5
330
0
100
AcDbSymbolTable
 70
     4
  0
LTYPE
  5
14
330
5
100
AcDbSymbolTableRecord
100
AcDbLinetypeTableRecord
  2
ByBlock
 70
     0
  3

 72
    65
 73
     0
 40
0.0
  0
LTYPE
  5
15
330
5
100
AcDbSymbolTableRecord
100
AcDbLinetypeTableRecord
  2
ByLayer
 70
     0
  3

 72
    65
 73
     0
 40
0.0
  0
LTYPE
  5
16
330
5
100
AcDbSymbolTableRecord
100
AcDbLinetypeTableRecord
  2
Continuous
 70
     0
  3
Solid line
 72
    65
 73
     0
 40
0.0
  0
LTYPE
  5
98
330
5
100
AcDbSymbolTableRecord
100
AcDbLinetypeTableRecord
  2
New Line1
 70
     0
  3

 72
    65
 73
     4
 40
1.2
 49
0.5
 74
     4
 75
     0
340
0
 46
1.0
 50
0.0
 44
0.0
 45
0.0
 49
-0.3
 74
     4
 75
     0
340
0
 46
1.0
 50
0.0
 44
0.0
 45
0.0
 49
0.1
 74
     4
 75
     0
340
0
 46
1.0
 50
0.0
 44
0.0
 45
0.0
 49
-0.3
 74
     4
 75
     0
340
0
 46
1.0
 50
0.0
 44
0.0
 45
0.0
  0
LTYPE
  5
9A
330
5
100
AcDbSymbolTableRecord
100
AcDbLinetypeTableRecord
  2
New Line2
 70
     0
  3

 72
    65
 73
     4
 40
1.2
 49
0.5
 74
     4
 75
     0
340
0
 46
1.0
 50
0.0
 44
0.0
 45
0.0
 49
-0.3
 74
     4
 75
     0
340
0
 46
1.0
 50
0.0
 44
0.0
 45
0.0
 49
0.1
 74
     4
 75
     0
340
0
 46
1.0
 50
0.0
 44
0.0
 45
0.0
 49
-0.3
 74
     4
 75
     0
340
0
 46
1.0
 50
0.0
 44
0.0
 45
0.0
  0
LTYPE
  5
9C
330
5
100
AcDbSymbolTableRecord
100
AcDbLinetypeTableRecord
  2
New Line3
 70
     0
  3

 72
    65
 73
     4
 40
1.2
 49
0.5
 74
     4
 75
     0
340
0
 46
1.0
 50
0.0
 44
0.0
 45
0.0
 49
-0.3
 74
     4
 75
     0
340
0
 46
1.0
 50
0.0
 44
0.0
 45
0.0
 49
0.1
 74
     4
 75
     0
340
0
 46
1.0
 50
0.0
 44
0.0
 45
0.0
 49
-0.3
 74
     4
 75
     0
340
0
 46
1.0
 50
0.0
 44
0.0
 45
0.0
  0
ENDTAB
  0
TABLE
  2
LAYER
  5
2
330
0
100
AcDbSymbolTable
 70
     2
  0
LAYER
  5
10
330
2
100
AcDbSymbolTableRecord
100
AcDbLayerTableRecord
  2
0
 70
     0
 62
     7
  6
Continuous
370
    -3
390
F
  0
LAYER
  5
40
330
2
100
AcDbSymbolTableRecord
100
AcDbLayerTableRecord
  2
DEFAULT_1
 70
     0
 62
     7
  6
Continuous
370
    -3
390
F
  0
ENDTAB
  0
TABLE
  2
STYLE
  5
3
330
0
100
AcDbSymbolTable
 70
     1
  0
STYLE
  5
11
330
3
100
AcDbSymbolTableRecord
100
AcDbTextStyleTableRecord
  2
Standard
 70
     0
 40
0.0
 41
1.0
 50
0.0
 71
     0
 42
0.2
  3
txt
  4

  0
ENDTAB
  0
TABLE
  2
VIEW
  5
6
330
0
100
AcDbSymbolTable
 70
     0
  0
ENDTAB
  0
TABLE
  2
UCS
  5
7
330
0
100
AcDbSymbolTable
 70
     0
  0
ENDTAB
  0
TABLE
  2
APPID
  5
9
330
0
100
AcDbSymbolTable
 70
     2
  0
APPID
  5
12
330
9
100
AcDbSymbolTableRecord
100
AcDbRegAppTableRecord
  2
ACAD
 70
     0
  0
APPID
  5
3F
330
9
100
AcDbSymbolTableRecord
100
AcDbRegAppTableRecord
  2
ODA
 70
     0
  0
ENDTAB
  0
TABLE
  2
DIMSTYLE
  5
A
330
0
100
AcDbSymbolTable
 70
     1
100
AcDbDimStyleTable
  0
DIMSTYLE
105
27
330
A
100
AcDbSymbolTableRecord
100
AcDbDimStyleTableRecord
  2
Standard
 70
     0
340
11
  0
ENDTAB
  0
TABLE
  2
BLOCK_RECORD
  5
1
330
0
100
AcDbSymbolTable
 70
     1
  0
BLOCK_RECORD
  5
1F
330
1
100
AcDbSymbolTableRecord
100
AcDbBlockTableRecord
  2
*Model_Space
340
22
  0
BLOCK_RECORD
  5
1B
330
1
100
AcDbSymbolTableRecord
100
AcDbBlockTableRecord
  2
*Paper_Space
340
1E
  0
BLOCK_RECORD
  5
23
330
1
100
AcDbSymbolTableRecord
100
AcDbBlockTableRecord
  2
*Paper_Space0
340
26
  0
ENDTAB
  0
ENDSEC
  0
SECTION
  2
BLOCKS
  0
BLOCK
  5
20
330
1F
100
AcDbEntity
  8
0
100
AcDbBlockBegin
  2
*Model_Space
 70
     0
 10
0.0
 20
0.0
 30
0.0
  3
*Model_Space
  1

  0
ENDBLK
  5
21
330
1F
100
AcDbEntity
  8
0
100
AcDbBlockEnd
  0
BLOCK
  5
1C
330
1B
100
AcDbEntity
 67
     1
  8
0
100
AcDbBlockBegin
  2
*Paper_Space
 70
     0
 10
0.0
 20
0.0
 30
0.0
  3
*Paper_Space
  1

  0
ENDBLK
  5
1D
330
1B
100
AcDbEntity
 67
     1
  8
0
100
AcDbBlockEnd
  0
BLOCK
  5
24
330
23
100
AcDbEntity
  8
0
100
AcDbBlockBegin
  2
*Paper_Space0
 70
     0
 10
0.0
 20
0.0
 30
0.0
  3
*Paper_Space0
  1

  0
ENDBLK
  5
25
330
23
100
AcDbEntity
  8
0
100
AcDbBlockEnd
  0
ENDSEC
  0
SECTION
  2
ENTITIES
  0
SPLINE
  5
41
330
1F
100
AcDbEntity
  8
DEFAULT_1
 62
   250
370
    30
100
AcDbSpline
210
0.0
220
0.0
230
1.0
 70
     8
 71
     3
 72
     8
 73
     4
 74
     0
 42
0.0000000001
 43
0.0000000001
 40
0.0
 40
0.0
 40
0.0
 40
0.0
 40
1.0
 40
1.0
 40
1.0
 40
1.0
 10
-43.1579
 20
-20.8038
 30
0.0
 10
-43.1579
 20
-20.9237
 30
0.0
 10
-43.113
 20
-21.0393
 30
0.0
 10
-43.032
 20
-21.1277
 30
0.0
  0
SPLINE
  5
42
330
1F
100
AcDbEntity
  8
DEFAULT_1
 62
   250
370
    30
100
AcDbSpline
210
0.0
220
0.0
230
1.0
 70
     8
 71
     3
 72
     8
 73
     4
 74
     0
 42
0.0000000001
 43
0.0000000001
 40
0.0
 40
0.0
 40
0.0
 40
0.0
 40
1.0
 40
1.0
 40
1.0
 40
1.0
 10
-34.2975
 20
-21.1277
 30
0.0
 10
-34.2166
 20
-21.0393
 30
0.0
 10
-34.1715
 20
-20.9237
 30
0.0
 10
-34.1715
 20
-20.8038
 30
0.0
  0
SPLINE
  5
43
330
1F
100
AcDbEntity
  8
DEFAULT_1
 62
   250
370
    30
100
AcDbSpline
210
0.0
220
0.0
230
1.0
 70
    24
 71
     3
 72
     8
 73
     4
 74
     0
 42
0.0000000001
 43
0.0000000001
 40
0.0
 40
0.0
 40
0.0
 40
0.0
 40
1.0
 40
1.0
 40
1.0
 40
1.0
 10
-34.2975
 20
-21.1277
 30
0.0
 10
-34.2975
 20
-21.1277
 30
0.0
 10
-34.8306
 20
-21.7091
 30
0.0
 10
-34.8306
 20
-21.7091
 30
0.0
  0
SPLINE
  5
44
330
1F
100
AcDbEntity
  8
DEFAULT_1
 62
   250
370
    30
100
AcDbSpline
210
0.0
220
0.0
230
1.0
 70
    24
 71
     3
 72
     8
 73
     4
 74
     0
 42
0.0000000001
 43
0.0000000001
 40
0.0
 40
0.0
 40
0.0
 40
0.0
 40
1.0
 40
1.0
 40
1.0
 40
1.0
 10
-18.6442
 20
-16.6767
 30
0.0
 10
-18.6442
 20
-16.6767
 30
0.0
 10
-18.6442
 20
-20.5109
 30
0.0
 10
-18.6442
 20
-20.5109
 30
0.0
  0
SPLINE
  5
45
330
1F
100
AcDbEntity
  8
DEFAULT_1
 62
   250
370
    30
100
AcDbSpline
210
0.0
220
0.0
230
1.0
 70
    24
 71
     3
 72
     8
 73
     4
 74
     0
 42
0.0000000001
 43
0.0000000001
 40
0.0
 40
0.0
 40
0.0
 40
0.0
 40
1.0
 40
1.0
 40
1.0
 40
1.0
 10
-33.0028
 20
-4.125
 30
0.0
 10
-33.0028
 20
-4.125
 30
0.0
 10
-33.0028
 20
-7.9592
 30
0.0
 10
-33.0028
 20
-7.9592
 30
0.0
  0
SPLINE
  5
46
330
1F
100
AcDbEntity
  8
DEFAULT_1
 62
   250
370
    30
100
AcDbSpline
210
0.0
220
0.0
230
1.0
 70
    24
 71
     3
 72
     8
 73
     4
 74
     0
 42
0.0000000001
 43
0.0000000001
 40
0.0
 40
0.0
 40
0.0
 40
0.0
 40
1.0
 40
1.0
 40
1.0
 40
1.0
 10
-33.0519
 20
28.2373
 30
0.0
 10
-33.0519
 20
28.2373
 30
0.0
 10
-33.0519
 20
24.4031
 30
0.0
 10
-33.0519
 20
24.4031
 30
0.0
  0
SPLINE
  5
47
330
1F
100
AcDbEntity
  8
DEFAULT_1
 62
   250
370
    30
100
AcDbSpline
210
0.0
220
0.0
230
1.0
 70
    24
 71
     3
 72
     8
 73
     4
 74
     0
 42
0.0000000001
 43
0.0000000001
 40
0.0
 40
0.0
 40
0.0
 40
0.0
 40
1.0
 40
1.0
 40
1.0
 40
1.0
 10
-18.6495
 20
-16.6767
 30
0.0
 10
-18.6495
 20
-16.6767
 30
0.0
 10
-18.6495
 20
-20.5109
 30
0.0
 10
-18.6495
 20
-20.5109
 30
0.0
  0
SPLINE
  5
48
330
1F
100
AcDbEntity
  8
DEFAULT_1
 62
   250
370
    30
100
AcDbSpline
210
0.0
220
0.0
230
1.0
 70
    24
 71
     3
 72
     8
 73
     4
 74
     0
 42
0.0000000001
 43
0.0000000001
 40
0.0
 40
0.0
 40
0.0
 40
0.0
 40
1.0
 40
1.0
 40
1.0
 40
1.0
 10
-33.0081
 20
-4.125
 30
0.0
 10
-33.0081
 20
-4.125
 30
0.0
 10
-33.0081
 20
-7.9592
 30
0.0
 10
-33.0081
 20
-7.9592
 30
0.0
  0
SPLINE
  5
49
330
1F
100
AcDbEntity
  8
DEFAULT_1
 62
   250
370
    30
100
AcDbSpline
210
0.0
220
0.0
230
1.0
 70
    24
 71
     3
 72
     8
 73
     4
 74
     0
 42
0.0000000001
 43
0.0000000001
 40
0.0
 40
0.0
 40
0.0
 40
0.0
 40
1.0
 40
1.0
 40
1.0
 40
1.0
 10
-33.0572
 20
28.2373
 30
0.0
 10
-33.0572
 20
28.2373
 30
0.0
 10
-33.0572
 20
24.4031
 30
0.0
 10
-33.0572
 20
24.4031
 30
0.0
  0
SPLINE
  5
4A
330
1F
100
AcDbEntity
  8
DEFAULT_1
 62
   250
370
    30
100
AcDbSpline
210
0.0
220
0.0
230
1.0
 70
    24
 71
     3
 72
     8
 73
     4
 74
     0
 42
0.0000000001
 43
0.0000000001
 40
0.0
 40
0.0
 40
0.0
 40
0.0
 40
1.0
 40
1.0
 40
1.0
 40
1.0
 10
-29.9233
 20
-16.6767
 30
0.0
 10
-29.9233
 20
-16.6767
 30
0.0
 10
-29.9233
 20
-20.5109
 30
0.0
 10
-29.9233
 20
-20.5109
 30
0.0
  0
SPLINE
  5
4B
330
1F
100
AcDbEntity
  8
DEFAULT_1
 62
   250
370
    30
100
AcDbSpline
210
0.0
220
0.0
230
1.0
 70
    24
 71
     3
 72
     8
 73
     4
 74
     0
 42
0.0000000001
 43
0.0000000001
 40
0.0
 40
0.0
 40
0.0
 40
0.0
 40
1.0
 40
1.0
 40
1.0
 40
1.0
 10
-44.2819
 20
-4.125
 30
0.0
 10
-44.2819
 20
-4.125
 30
0.0
 10
-44.2819
 20
-7.9592
 30
0.0
 10
-44.2819
 20
-7.9592
 30
0.0
  0
SPLINE
  5
4C
330
1F
100
AcDbEntity
  8
DEFAULT_1
 62
   250
370
    30
100
AcDbSpline
210
0.0
220
0.0
230
1.0
 70
    24
 71
     3
 72
     8
 73
     4
 74
     0
 42
0.0000000001
 43
0.0000000001
 40
0.0
 40
0.0
 40
0.0
 40
0.0
 40
1.0
 40
1.0
 40
1.0
 40
1.0
 10
-44.331
 20
28.2373
 30
0.0
 10
-44.331
 20
28.2373
 30
0.0
 10
-44.331
 20
24.4031
 30
0.0
 10
-44.331
 20
24.4031
 30
0.0
  0
SPLINE
  5
4D
330
1F
100
AcDbEntity
  8
DEFAULT_1
 62
   250
370
    30
100
AcDbSpline
210
0.0
220
0.0
230
1.0
 70
    24
 71
     3
 72
     8
 73
     4
 74
     0
 42
0.0000000001
 43
0.0000000001
 40
0.0
 40
0.0
 40
0.0
 40
0.0
 40
1.0
 40
1.0
 40
1.0
 40
1.0
 10
-29.9286
 20
-16.6767
 30
0.0
 10
-29.9286
 20
-16.6767
 30
0.0
 10
-29.9286
 20
-20.5109
 30
0.0
 10
-29.9286
 20
-20.5109
 30
0.0
  0
SPLINE
  5
4E
330
1F
100
AcDbEntity
  8
DEFAULT_1
 62
   250
370
    30
100
AcDbSpline
210
0.0
220
0.0
230
1.0
 70
    24
 71
     3
 72
     8
 73
     4
 74
     0
 42
0.0000000001
 43
0.0000000001
 40
0.0
 40
0.0
 40
0.0
 40
0.0
 40
1.0
 40
1.0
 40
1.0
 40
1.0
 10
-44.2872
 20
-4.125
 30
0.0
 10
-44.2872
 20
-4.125
 30
0.0
 10
-44.2872
 20
-7.9592
 30
0.0
 10
-44.2872
 20
-7.9592
 30
0.0
  0
SPLINE
  5
4F
330
1F
100
AcDbEntity
  8
DEFAULT_1
 62
   250
370
    30
100
AcDbSpline
210
0.0
220
0.0
230
1.0
 70
    24
 71
     3
 72
     8
 73
     4
 74
     0
 42
0.0000000001
 43
0.0000000001
 40
0.0
 40
0.0
 40
0.0
 40
0.0
 40
1.0
 40
1.0
 40
1.0
 40
1.0
 10
-44.3363
 20
28.2373
 30
0.0
 10
-44.3363
 20
28.2373
 30
0.0
 10
-44.3363
 20
24.4031
 30
0.0
 10
-44.3363
 20
24.4031
 30
0.0
  0
SPLINE
  5
50
330
1F
100
AcDbEntity
  8
DEFAULT_1
 62
   250
370
    30
100
AcDbSpline
210
0.0
220
0.0
230
1.0
 70
    24
 71
     3
 72
     8
 73
     4
 74
     0
 42
0.0000000001
 43
0.0000000001
 40
0.0
 40
0.0
 40
0.0
 40
0.0
 40
1.0
 40
1.0
 40
1.0
 40
1.0
 10
-34.1715
 20
-8.529
 30
0.0
 10
-34.1715
 20
-8.529
 30
0.0
 10
-34.1715
 20
-20.8038
 30
0.0
 10
-34.1715
 20
-20.8038
 30
0.0
  0
SPLINE
  5
51
330
1F
100
AcDbEntity
  8
DEFAULT_1
 62
   250
370
    30
100
AcDbSpline
210
0.0
220
0.0
230
1.0
 70
    24
 71
     3
 72
     8
 73
     4
 74
     0
 42
0.0000000001
 43
0.0000000001
 40
0.0
 40
0.0
 40
0.0
 40
0.0
 40
1.0
 40
1.0
 40
1.0
 40
1.0
 10
-43.1579
 20
-8.529
 30
0.0
 10
-43.1579
 20
-8.529
 30
0.0
 10
-43.1579
 20
-20.8038
 30
0.0
 10
-43.1579
 20
-20.8038
 30
0.0
  0
SPLINE
  5
52
330
1F
100
AcDbEntity
  8
DEFAULT_1
 62
   250
370
    30
100
AcDbSpline
210
0.0
220
0.0
230
1.0
 70
    24
 71
     3
 72
     8
 73
     4
 74
     0
 42
0.0000000001
 43
0.0000000001
 40
0.0
 40
0.0
 40
0.0
 40
0.0
 40
1.0
 40
1.0
 40
1.0
 40
1.0
 10
-43.032
 20
-21.1277
 30
0.0
 10
-43.032
 20
-21.1277
 30
0.0
 10
-42.4989
 20
-21.7091
 30
0.0
 10
-42.4989
 20
-21.7091
 30
0.0
  0
SPLINE
  5
53
330
1F
100
AcDbEntity
  8
DEFAULT_1
 62
   250
370
    30
100
AcDbSpline
210
0.0
220
0.0
230
1.0
 70
     8
 71
     3
 72
     8
 73
     4
 74
     0
 42
0.0000000001
 43
0.0000000001
 40
0.0
 40
0.0
 40
0.0
 40
0.0
 40
1.0
 40
1.0
 40
1.0
 40
1.0
 10
-13.2631
 20
-11.0691
 30
0.0
 10
-16.624
 20
-11.0691
 30
0.0
 10
-19.5363
 20
-13.3977
 30
0.0
 10
-20.276
 20
-16.6763
 30
0.0
  0
SPLINE
  5
54
330
1F
100
AcDbEntity
  8
DEFAULT_1
 62
   250
370
    30
100
AcDbSpline
210
0.0
220
0.0
230
1.0
 70
    24
 71
     3
 72
     8
 73
     4
 74
     0
 42
0.0000000001
 43
0.0000000001
 40
0.0
 40
0.0
 40
0.0
 40
0.0
 40
1.0
 40
1.0
 40
1.0
 40
1.0
 10
-19.3139
 20
-20.7506
 30
0.0
 10
-19.3139
 20
-20.7506
 30
0.0
 10
-20.4521
 20
-21.7091
 30
0.0
 10
-20.4521
 20
-21.7091
 30
0.0
  0
SPLINE
  5
55
330
1F
100
AcDbEntity
  8
DEFAULT_1
 62
   250
370
    30
100
AcDbSpline
210
0.0
220
0.0
230
1.0
 70
    24
 71
     3
 72
     8
 73
     4
 74
     0
 42
0.0000000001
 43
0.0000000001
 40
0.0
 40
0.0
 40
0.0
 40
0.0
 40
1.0
 40
1.0
 40
1.0
 40
1.0
 10
-43.6373
 20
-8.529
 30
0.0
 10
-43.6373
 20
-8.529
 30
0.0
 10
-33.6922
 20
-8.529
 30
0.0
 10
-33.6922
 20
-8.529
 30
0.0
  0
SPLINE
  5
56
330
1F
100
AcDbEntity
  8
DEFAULT_1
 62
   250
370
    30
100
AcDbSpline
210
0.0
220
0.0
230
1.0
 70
    24
 71
     3
 72
     8
 73
     4
 74
     0
 42
0.0000000001
 43
0.0000000001
 40
0.0
 40
0.0
 40
0.0
 40
0.0
 40
1.0
 40
1.0
 40
1.0
 40
1.0
 10
-19.3139
 20
-20.5109
 30
0.0
 10
-19.3139
 20
-20.5109
 30
0.0
 10
-19.3139
 20
-20.7506
 30
0.0
 10
-19.3139
 20
-20.7506
 30
0.0
  0
SPLINE
  5
57
330
1F
100
AcDbEntity
  8
DEFAULT_1
 62
   250
370
    30
100
AcDbSpline
210
0.0
220
0.0
230
1.0
 70
    24
 71
     3
 72
     8
 73
     4
 74
     0
 42
0.0000000001
 43
0.0000000001
 40
0.0
 40
0.0
 40
0.0
 40
0.0
 40
1.0
 40
1.0
 40
1.0
 40
1.0
 10
-28.1206
 20
-21.7091
 30
0.0
 10
-28.1206
 20
-21.7091
 30
0.0
 10
-20.4521
 20
-21.7091
 30
0.0
 10
-20.4521
 20
-21.7091
 30
0.0
  0
SPLINE
  5
58
330
1F
100
AcDbEntity
  8
DEFAULT_1
 62
   250
370
    30
100
AcDbSpline
210
0.0
220
0.0
230
1.0
 70
    24
 71
     3
 72
     8
 73
     4
 74
     0
 42
0.0000000001
 43
0.0000000001
 40
0.0
 40
0.0
 40
0.0
 40
0.0
 40
1.0
 40
1.0
 40
1.0
 40
1.0
 10
-42.4989
 20
-21.7091
 30
0.0
 10
-42.4989
 20
-21.7091
 30
0.0
 10
-34.8306
 20
-21.7091
 30
0.0
 10
-34.8306
 20
-21.7091
 30
0.0
  0
SPLINE
  5
59
330
1F
100
AcDbEntity
  8
DEFAULT_1
 62
   250
370
    30
100
AcDbSpline
210
0.0
220
0.0
230
1.0
 70
    24
 71
     3
 72
     8
 73
     4
 74
     0
 42
0.0000000001
 43
0.0000000001
 40
0.0
 40
0.0
 40
0.0
 40
0.0
 40
1.0
 40
1.0
 40
1.0
 40
1.0
 10
-20.4521
 20
-22.9075
 30
0.0
 10
-20.4521
 20
-22.9075
 30
0.0
 10
-20.4521
 20
-21.7091
 30
0.0
 10
-20.4521
 20
-21.7091
 30
0.0
  0
SPLINE
  5
5A
330
1F
100
AcDbEntity
  8
DEFAULT_1
 62
   250
370
    30
100
AcDbSpline
210
0.0
220
0.0
230
1.0
 70
    24
 71
     3
 72
     8
 73
     4
 74
     0
 42
0.0000000001
 43
0.0000000001
 40
0.0
 40
0.0
 40
0.0
 40
0.0
 40
1.0
 40
1.0
 40
1.0
 40
1.0
 10
-28.1206
 20
-22.9075
 30
0.0
 10
-28.1206
 20
-22.9075
 30
0.0
 10
-28.1206
 20
-21.7091
 30
0.0
 10
-28.1206
 20
-21.7091
 30
0.0
  0
SPLINE
  5
5B
330
1F
100
AcDbEntity
  8
DEFAULT_1
 62
   250
370
    30
100
AcDbSpline
210
0.0
220
0.0
230
1.0
 70
    24
 71
     3
 72
     8
 73
     4
 74
     0
 42
0.0000000001
 43
0.0000000001
 40
0.0
 40
0.0
 40
0.0
 40
0.0
 40
1.0
 40
1.0
 40
1.0
 40
1.0
 10
-29.2588
 20
-20.5109
 30
0.0
 10
-29.2588
 20
-20.5109
 30
0.0
 10
-29.2588
 20
-20.7506
 30
0.0
 10
-29.2588
 20
-20.7506
 30
0.0
  0
SPLINE
  5
5C
330
1F
100
AcDbEntity
  8
DEFAULT_1
 62
   250
370
    30
100
AcDbSpline
210
0.0
220
0.0
230
1.0
 70
    24
 71
     3
 72
     8
 73
     4
 74
     0
 42
0.0000000001
 43
0.0000000001
 40
0.0
 40
0.0
 40
0.0
 40
0.0
 40
1.0
 40
1.0
 40
1.0
 40
1.0
 10
-33.6922
 20
-7.9298
 30
0.0
 10
-33.6922
 20
-7.9298
 30
0.0
 10
-33.6922
 20
-8.529
 30
0.0
 10
-33.6922
 20
-8.529
 30
0.0
  0
SPLINE
  5
5D
330
1F
100
AcDbEntity
  8
DEFAULT_1
 62
   250
370
    30
100
AcDbSpline
210
0.0
220
0.0
230
1.0
 70
    24
 71
     3
 72
     8
 73
     4
 74
     0
 42
0.0000000001
 43
0.0000000001
 40
0.0
 40
0.0
 40
0.0
 40
0.0
 40
1.0
 40
1.0
 40
1.0
 40
1.0
 10
-34.8306
 20
-21.7091
 30
0.0
 10
-34.8306
 20
-21.7091
 30
0.0
 10
-34.8306
 20
-22.9075
 30
0.0
 10
-34.8306
 20
-22.9075
 30
0.0
  0
SPLINE
  5
5E
330
1F
100
AcDbEntity
  8
DEFAULT_1
 62
   250
370
    30
100
AcDbSpline
210
0.0
220
0.0
230
1.0
 70
    24
 71
     3
 72
     8
 73
     4
 74
     0
 42
0.0000000001
 43
0.0000000001
 40
0.0
 40
0.0
 40
0.0
 40
0.0
 40
1.0
 40
1.0
 40
1.0
 40
1.0
 10
-29.2588
 20
-20.7506
 30
0.0
 10
-29.2588
 20
-20.7506
 30
0.0
 10
-28.1206
 20
-21.7091
 30
0.0
 10
-28.1206
 20
-21.7091
 30
0.0
  0
SPLINE
  5
5F
330
1F
100
AcDbEntity
  8
DEFAULT_1
 62
   250
370
    30
100
AcDbSpline
210
0.0
220
0.0
230
1.0
 70
    24
 71
     3
 72
     8
 73
     4
 74
     0
 42
0.0000000001
 43
0.0000000001
 40
0.0
 40
0.0
 40
0.0
 40
0.0
 40
1.0
 40
1.0
 40
1.0
 40
1.0
 10
-42.4989
 20
-21.7091
 30
0.0
 10
-42.4989
 20
-21.7091
 30
0.0
 10
-42.4989
 20
-22.9075
 30
0.0
 10
-42.4989
 20
-22.9075
 30
0.0
  0
SPLINE
  5
60
330
1F
100
AcDbEntity
  8
DEFAULT_1
 62
   250
370
    30
100
AcDbSpline
210
0.0
220
0.0
230
1.0
 70
    24
 71
     3
 72
     8
 73
     4
 74
     0
 42
0.0000000001
 43
0.0000000001
 40
0.0
 40
0.0
 40
0.0
 40
0.0
 40
1.0
 40
1.0
 40
1.0
 40
1.0
 10
-43.6373
 20
-7.9298
 30
0.0
 10
-43.6373
 20
-7.9298
 30
0.0
 10
-43.6373
 20
-8.529
 30
0.0
 10
-43.6373
 20
-8.529
 30
0.0
  0
SPLINE
  5
61
330
1F
100
AcDbEntity
  8
DEFAULT_1
 62
   250
370
    30
100
AcDbSpline
210
0.0
220
0.0
230
1.0
 70
     8
 71
     3
 72
     8
 73
     4
 74
     0
 42
0.0000000001
 43
0.0000000001
 40
0.0
 40
0.0
 40
0.0
 40
0.0
 40
1.0
 40
1.0
 40
1.0
 40
1.0
 10
28.4342
 20
2.1109
 30
0.0
 10
27.9022
 20
2.1245
 30
0.0
 10
27.3863
 20
1.9293
 30
0.0
 10
26.9963
 20
1.5676
 30
0.0
  0
SPLINE
  5
62
330
1F
100
AcDbEntity
  8
DEFAULT_1
 62
   250
370
    30
100
AcDbSpline
210
0.0
220
0.0
230
1.0
 70
     8
 71
     3
 72
     8
 73
     4
 74
     0
 42
0.0000000001
 43
0.0000000001
 40
0.0
 40
0.0
 40
0.0
 40
0.0
 40
1.0
 40
1.0
 40
1.0
 40
1.0
 10
26.9963
 20
-16.0374
 30
0.0
 10
27.3863
 20
-16.3994
 30
0.0
 10
27.9022
 20
-16.5944
 30
0.0
 10
28.4342
 20
-16.5809
 30
0.0
  0
SPLINE
  5
63
330
1F
100
AcDbEntity
  8
DEFAULT_1
 62
   250
370
    30
100
AcDbSpline
210
0.0
220
0.0
230
1.0
 70
     8
 71
     3
 72
     8
 73
     4
 74
     0
 42
0.0000000001
 43
0.0000000001
 40
0.0
 40
0.0
 40
0.0
 40
0.0
 40
1.0
 40
1.0
 40
1.0
 40
1.0
 10
-31.4755
 20
-26.2623
 30
0.0
 10
-29.6227
 20
-26.2623
 30
0.0
 10
-28.1206
 20
-24.7602
 30
0.0
 10
-28.1206
 20
-22.9075
 30
0.0
  0
SPLINE
  5
64
330
1F
100
AcDbEntity
  8
DEFAULT_1
 62
   250
370
    30
100
AcDbSpline
210
0.0
220
0.0
230
1.0
 70
     8
 71
     3
 72
     8
 73
     4
 74
     0
 42
0.0000000001
 43
0.0000000001
 40
0.0
 40
0.0
 40
0.0
 40
0.0
 40
1.0
 40
1.0
 40
1.0
 40
1.0
 10
-34.8306
 20
-22.9075
 30
0.0
 10
-34.8306
 20
-24.7602
 30
0.0
 10
-33.3285
 20
-26.2623
 30
0.0
 10
-31.4755
 20
-26.2623
 30
0.0
  0
SPLINE
  5
65
330
1F
100
AcDbEntity
  8
DEFAULT_1
 62
   250
370
    30
100
AcDbSpline
210
0.0
220
0.0
230
1.0
 70
     8
 71
     3
 72
     8
 73
     4
 74
     0
 42
0.0000000001
 43
0.0000000001
 40
0.0
 40
0.0
 40
0.0
 40
0.0
 40
1.0
 40
1.0
 40
1.0
 40
1.0
 10
26.9963
 20
1.5676
 30
0.0
 10
25.6212
 20
0.2911
 30
0.0
 10
24.8395
 20
-1.5004
 30
0.0
 10
24.8395
 20
-3.3768
 30
0.0
  0
SPLINE
  5
66
330
1F
100
AcDbEntity
  8
DEFAULT_1
 62
   250
370
    30
100
AcDbSpline
210
0.0
220
0.0
230
1.0
 70
     8
 71
     3
 72
     8
 73
     4
 74
     0
 42
0.0000000001
 43
0.0000000001
 40
0.0
 40
0.0
 40
0.0
 40
0.0
 40
1.0
 40
1.0
 40
1.0
 40
1.0
 10
24.8395
 20
-11.0934
 30
0.0
 10
24.8395
 20
-12.9695
 30
0.0
 10
25.6212
 20
-14.761
 30
0.0
 10
26.9963
 20
-16.0374
 30
0.0
  0
SPLINE
  5
67
330
1F
100
AcDbEntity
  8
DEFAULT_1
 62
   250
370
    30
100
AcDbSpline
210
0.0
220
0.0
230
1.0
 70
     8
 71
     3
 72
     8
 73
     4
 74
     0
 42
0.0000000001
 43
0.0000000001
 40
0.0
 40
0.0
 40
0.0
 40
0.0
 40
1.0
 40
1.0
 40
1.0
 40
1.0
 10
-31.4755
 20
-33.9308
 30
0.0
 10
-25.3876
 20
-33.9308
 30
0.0
 10
-20.4521
 20
-28.9954
 30
0.0
 10
-20.4521
 20
-22.9075
 30
0.0
  0
SPLINE
  5
68
330
1F
100
AcDbEntity
  8
DEFAULT_1
 62
   250
370
    30
100
AcDbSpline
210
0.0
220
0.0
230
1.0
 70
     8
 71
     3
 72
     8
 73
     4
 74
     0
 42
0.0000000001
 43
0.0000000001
 40
0.0
 40
0.0
 40
0.0
 40
0.0
 40
1.0
 40
1.0
 40
1.0
 40
1.0
 10
-42.4989
 20
-22.9075
 30
0.0
 10
-42.4989
 20
-28.9954
 30
0.0
 10
-37.5636
 20
-33.9308
 30
0.0
 10
-31.4755
 20
-33.9308
 30
0.0
  0
SPLINE
  5
69
330
1F
100
AcDbEntity
  8
DEFAULT_1
 62
   250
370
    30
100
AcDbSpline
210
0.0
220
0.0
230
1.0
 70
     8
 71
     3
 72
     8
 73
     4
 74
     0
 42
0.0000000001
 43
0.0000000001
 40
0.0
 40
0.0
 40
0.0
 40
0.0
 40
1.0
 40
1.0
 40
1.0
 40
1.0
 10
-13.2631
 20
-3.4007
 30
0.0
 10
-20.8562
 20
-3.4007
 30
0.0
 10
-27.2276
 20
-9.1264
 30
0.0
 10
-28.0361
 20
-16.6765
 30
0.0
  0
SPLINE
  5
6A
330
1F
100
AcDbEntity
  8
DEFAULT_1
 62
   250
370
    30
100
AcDbSpline
210
0.0
220
0.0
230
1.0
 70
    24
 71
     3
 72
     8
 73
     4
 74
     0
 42
0.0000000001
 43
0.0000000001
 40
0.0
 40
0.0
 40
0.0
 40
0.0
 40
1.0
 40
1.0
 40
1.0
 40
1.0
 10
52.3981
 20
-3.7604
 30
0.0
 10
52.3981
 20
-3.7604
 30
0.0
 10
52.3981
 20
-10.7097
 30
0.0
 10
52.3981
 20
-10.7097
 30
0.0
  0
SPLINE
  5
6B
330
1F
100
AcDbEntity
  8
DEFAULT_1
 62
   250
370
    30
100
AcDbSpline
210
0.0
220
0.0
230
1.0
 70
    24
 71
     3
 72
     8
 73
     4
 74
     0
 42
0.0000000001
 43
0.0000000001
 40
0.0
 40
0.0
 40
0.0
 40
0.0
 40
1.0
 40
1.0
 40
1.0
 40
1.0
 10
52.3981
 20
-10.7097
 30
0.0
 10
52.3981
 20
-10.7097
 30
0.0
 10
52.0386
 20
-11.0691
 30
0.0
 10
52.0386
 20
-11.0691
 30
0.0
  0
SPLINE
  5
6C
330
1F
100
AcDbEntity
  8
DEFAULT_1
 62
   250
370
    30
100
AcDbSpline
210
0.0
220
0.0
230
1.0
 70
    24
 71
     3
 72
     8
 73
     4
 74
     0
 42
0.0000000001
 43
0.0000000001
 40
0.0
 40
0.0
 40
0.0
 40
0.0
 40
1.0
 40
1.0
 40
1.0
 40
1.0
 10
52.3981
 20
-3.7604
 30
0.0
 10
52.3981
 20
-3.7604
 30
0.0
 10
52.0386
 20
-3.4007
 30
0.0
 10
52.0386
 20
-3.4007
 30
0.0
  0
SPLINE
  5
6D
330
1F
100
AcDbEntity
  8
DEFAULT_1
 62
   250
370
    30
100
AcDbSpline
210
0.0
220
0.0
230
1.0
 70
    24
 71
     3
 72
     8
 73
     4
 74
     0
 42
0.0000000001
 43
0.0000000001
 40
0.0
 40
0.0
 40
0.0
 40
0.0
 40
1.0
 40
1.0
 40
1.0
 40
1.0
 10
28.4342
 20
-16.5809
 30
0.0
 10
28.4342
 20
-16.5809
 30
0.0
 10
28.4342
 20
2.1109
 30
0.0
 10
28.4342
 20
2.1109
 30
0.0
  0
SPLINE
  5
6E
330
1F
100
AcDbEntity
  8
DEFAULT_1
 62
   250
370
    30
100
AcDbSpline
210
0.0
220
0.0
230
1.0
 70
    24
 71
     3
 72
     8
 73
     4
 74
     0
 42
0.0000000001
 43
0.0000000001
 40
0.0
 40
0.0
 40
0.0
 40
0.0
 40
1.0
 40
1.0
 40
1.0
 40
1.0
 10
24.8395
 20
-3.3768
 30
0.0
 10
24.8395
 20
-3.3768
 30
0.0
 10
24.8395
 20
-11.0934
 30
0.0
 10
24.8395
 20
-11.0934
 30
0.0
  0
SPLINE
  5
6F
330
1F
100
AcDbEntity
  8
DEFAULT_1
 62
   250
370
    30
100
AcDbSpline
210
0.0
220
0.0
230
1.0
 70
    24
 71
     3
 72
     8
 73
     4
 74
     0
 42
0.0000000001
 43
0.0000000001
 40
0.0
 40
0.0
 40
0.0
 40
0.0
 40
1.0
 40
1.0
 40
1.0
 40
1.0
 10
24.8395
 20
-3.4007
 30
0.0
 10
24.8395
 20
-3.4007
 30
0.0
 10
-13.2631
 20
-3.4007
 30
0.0
 10
-13.2631
 20
-3.4007
 30
0.0
  0
SPLINE
  5
70
330
1F
100
AcDbEntity
  8
DEFAULT_1
 62
   250
370
    30
100
AcDbSpline
210
0.0
220
0.0
230
1.0
 70
    24
 71
     3
 72
     8
 73
     4
 74
     0
 42
0.0000000001
 43
0.0000000001
 40
0.0
 40
0.0
 40
0.0
 40
0.0
 40
1.0
 40
1.0
 40
1.0
 40
1.0
 10
52.0386
 20
-3.4007
 30
0.0
 10
52.0386
 20
-3.4007
 30
0.0
 10
28.4342
 20
-3.4007
 30
0.0
 10
28.4342
 20
-3.4007
 30
0.0
  0
SPLINE
  5
71
330
1F
100
AcDbEntity
  8
DEFAULT_1
 62
   250
370
    30
100
AcDbSpline
210
0.0
220
0.0
230
1.0
 70
    24
 71
     3
 72
     8
 73
     4
 74
     0
 42
0.0000000001
 43
0.0000000001
 40
0.0
 40
0.0
 40
0.0
 40
0.0
 40
1.0
 40
1.0
 40
1.0
 40
1.0
 10
24.8395
 20
-11.0691
 30
0.0
 10
24.8395
 20
-11.0691
 30
0.0
 10
-13.2631
 20
-11.0691
 30
0.0
 10
-13.2631
 20
-11.0691
 30
0.0
  0
SPLINE
  5
72
330
1F
100
AcDbEntity
  8
DEFAULT_1
 62
   250
370
    30
100
AcDbSpline
210
0.0
220
0.0
230
1.0
 70
    24
 71
     3
 72
     8
 73
     4
 74
     0
 42
0.0000000001
 43
0.0000000001
 40
0.0
 40
0.0
 40
0.0
 40
0.0
 40
1.0
 40
1.0
 40
1.0
 40
1.0
 10
52.0386
 20
-11.0691
 30
0.0
 10
52.0386
 20
-11.0691
 30
0.0
 10
28.4342
 20
-11.0691
 30
0.0
 10
28.4342
 20
-11.0691
 30
0.0
  0
SPLINE
  5
73
330
1F
100
AcDbEntity
  8
DEFAULT_1
 62
   250
370
    30
100
AcDbSpline
210
0.0
220
0.0
230
1.0
 70
    24
 71
     3
 72
     8
 73
     4
 74
     0
 42
0.0000000001
 43
0.0000000001
 40
0.0
 40
0.0
 40
0.0
 40
0.0
 40
1.0
 40
1.0
 40
1.0
 40
1.0
 10
-29.9247
 20
-16.6768
 30
0.0
 10
-29.9247
 20
-16.6768
 30
0.0
 10
-18.6453
 20
-16.6768
 30
0.0
 10
-18.6453
 20
-16.6768
 30
0.0
  0
SPLINE
  5
74
330
1F
100
AcDbEntity
  8
DEFAULT_1
 62
   250
370
    30
100
AcDbSpline
210
0.0
220
0.0
230
1.0
 70
    24
 71
     3
 72
     8
 73
     4
 74
     0
 42
0.0000000001
 43
0.0000000001
 40
0.0
 40
0.0
 40
0.0
 40
0.0
 40
1.0
 40
1.0
 40
1.0
 40
1.0
 10
-44.2833
 20
-4.1251
 30
0.0
 10
-44.2833
 20
-4.1251
 30
0.0
 10
-33.0039
 20
-4.1251
 30
0.0
 10
-33.0039
 20
-4.1251
 30
0.0
  0
SPLINE
  5
75
330
1F
100
AcDbEntity
  8
DEFAULT_1
 62
   250
370
    30
100
AcDbSpline
210
0.0
220
0.0
230
1.0
 70
    24
 71
     3
 72
     8
 73
     4
 74
     0
 42
0.0000000001
 43
0.0000000001
 40
0.0
 40
0.0
 40
0.0
 40
0.0
 40
1.0
 40
1.0
 40
1.0
 40
1.0
 10
-44.3324
 20
28.2372
 30
0.0
 10
-44.3324
 20
28.2372
 30
0.0
 10
-33.053
 20
28.2372
 30
0.0
 10
-33.053
 20
28.2372
 30
0.0
  0
SPLINE
  5
76
330
1F
100
AcDbEntity
  8
DEFAULT_1
 62
   250
370
    30
100
AcDbSpline
210
0.0
220
0.0
230
1.0
 70
    24
 71
     3
 72
     8
 73
     4
 74
     0
 42
0.0000000001
 43
0.0000000001
 40
0.0
 40
0.0
 40
0.0
 40
0.0
 40
1.0
 40
1.0
 40
1.0
 40
1.0
 10
-18.9909
 20
-16.6877
 30
0.0
 10
-18.9909
 20
-16.6877
 30
0.0
 10
-18.9909
 20
-20.5219
 30
0.0
 10
-18.9909
 20
-20.5219
 30
0.0
  0
SPLINE
  5
77
330
1F
100
AcDbEntity
  8
DEFAULT_1
 62
   250
370
    30
100
AcDbSpline
210
0.0
220
0.0
230
1.0
 70
    24
 71
     3
 72
     8
 73
     4
 74
     0
 42
0.0000000001
 43
0.0000000001
 40
0.0
 40
0.0
 40
0.0
 40
0.0
 40
1.0
 40
1.0
 40
1.0
 40
1.0
 10
-33.3495
 20
-4.136
 30
0.0
 10
-33.3495
 20
-4.136
 30
0.0
 10
-33.3495
 20
-7.9702
 30
0.0
 10
-33.3495
 20
-7.9702
 30
0.0
  0
SPLINE
  5
78
330
1F
100
AcDbEntity
  8
DEFAULT_1
 62
   250
370
    30
100
AcDbSpline
210
0.0
220
0.0
230
1.0
 70
    24
 71
     3
 72
     8
 73
     4
 74
     0
 42
0.0000000001
 43
0.0000000001
 40
0.0
 40
0.0
 40
0.0
 40
0.0
 40
1.0
 40
1.0
 40
1.0
 40
1.0
 10
-33.3986
 20
28.2263
 30
0.0
 10
-33.3986
 20
28.2263
 30
0.0
 10
-33.3986
 20
24.3921
 30
0.0
 10
-33.3986
 20
24.3921
 30
0.0
  0
SPLINE
  5
79
330
1F
100
AcDbEntity
  8
DEFAULT_1
 62
   250
370
    30
100
AcDbSpline
210
0.0
220
0.0
230
1.0
 70
    24
 71
     3
 72
     8
 73
     4
 74
     0
 42
0.0000000001
 43
0.0000000001
 40
0.0
 40
0.0
 40
0.0
 40
0.0
 40
1.0
 40
1.0
 40
1.0
 40
1.0
 10
-18.6602
 20
-20.511
 30
0.0
 10
-18.6602
 20
-20.511
 30
0.0
 10
-29.9372
 20
-20.511
 30
0.0
 10
-29.9372
 20
-20.511
 30
0.0
  0
SPLINE
  5
7A
330
1F
100
AcDbEntity
  8
DEFAULT_1
 62
   250
370
    30
100
AcDbSpline
210
0.0
220
0.0
230
1.0
 70
    24
 71
     3
 72
     8
 73
     4
 74
     0
 42
0.0000000001
 43
0.0000000001
 40
0.0
 40
0.0
 40
0.0
 40
0.0
 40
1.0
 40
1.0
 40
1.0
 40
1.0
 10
-33.0188
 20
-7.9593
 30
0.0
 10
-33.0188
 20
-7.9593
 30
0.0
 10
-44.2958
 20
-7.9593
 30
0.0
 10
-44.2958
 20
-7.9593
 30
0.0
  0
SPLINE
  5
7B
330
1F
100
AcDbEntity
  8
DEFAULT_1
 62
   250
370
    30
100
AcDbSpline
210
0.0
220
0.0
230
1.0
 70
    24
 71
     3
 72
     8
 73
     4
 74
     0
 42
0.0000000001
 43
0.0000000001
 40
0.0
 40
0.0
 40
0.0
 40
0.0
 40
1.0
 40
1.0
 40
1.0
 40
1.0
 10
-33.0679
 20
24.403
 30
0.0
 10
-33.0679
 20
24.403
 30
0.0
 10
-44.3449
 20
24.403
 30
0.0
 10
-44.3449
 20
24.403
 30
0.0
  0
SPLINE
  5
7C
330
1F
100
AcDbEntity
  8
DEFAULT_1
 62
   250
370
    30
100
AcDbSpline
210
0.0
220
0.0
230
1.0
 70
    24
 71
     3
 72
     8
 73
     4
 74
     0
 42
0.0000000001
 43
0.0000000001
 40
0.0
 40
0.0
 40
0.0
 40
0.0
 40
1.0
 40
1.0
 40
1.0
 40
1.0
 10
-23.7222
 20
-16.6767
 30
0.0
 10
-23.7222
 20
-16.6767
 30
0.0
 10
-23.7222
 20
-20.5109
 30
0.0
 10
-23.7222
 20
-20.5109
 30
0.0
  0
SPLINE
  5
7D
330
1F
100
AcDbEntity
  8
DEFAULT_1
 62
   250
370
    30
100
AcDbSpline
210
0.0
220
0.0
230
1.0
 70
    24
 71
     3
 72
     8
 73
     4
 74
     0
 42
0.0000000001
 43
0.0000000001
 40
0.0
 40
0.0
 40
0.0
 40
0.0
 40
1.0
 40
1.0
 40
1.0
 40
1.0
 10
-38.0808
 20
-4.125
 30
0.0
 10
-38.0808
 20
-4.125
 30
0.0
 10
-38.0808
 20
-7.9592
 30
0.0
 10
-38.0808
 20
-7.9592
 30
0.0
  0
SPLINE
  5
7E
330
1F
100
AcDbEntity
  8
DEFAULT_1
 62
   250
370
    30
100
AcDbSpline
210
0.0
220
0.0
230
1.0
 70
    24
 71
     3
 72
     8
 73
     4
 74
     0
 42
0.0000000001
 43
0.0000000001
 40
0.0
 40
0.0
 40
0.0
 40
0.0
 40
1.0
 40
1.0
 40
1.0
 40
1.0
 10
-38.1299
 20
28.2373
 30
0.0
 10
-38.1299
 20
28.2373
 30
0.0
 10
-38.1299
 20
24.4031
 30
0.0
 10
-38.1299
 20
24.4031
 30
0.0
  0
SPLINE
  5
7F
330
1F
100
AcDbEntity
  8
DEFAULT_1
 62
   250
370
    30
100
AcDbSpline
210
0.0
220
0.0
230
1.0
 70
    24
 71
     3
 72
     8
 73
     4
 74
     0
 42
0.0000000001
 43
0.0000000001
 40
0.0
 40
0.0
 40
0.0
 40
0.0
 40
1.0
 40
1.0
 40
1.0
 40
1.0
 10
-24.3043
 20
-16.6767
 30
0.0
 10
-24.3043
 20
-16.6767
 30
0.0
 10
-24.3043
 20
-20.5109
 30
0.0
 10
-24.3043
 20
-20.5109
 30
0.0
  0
SPLINE
  5
80
330
1F
100
AcDbEntity
  8
DEFAULT_1
 62
   250
370
    30
100
AcDbSpline
210
0.0
220
0.0
230
1.0
 70
    24
 71
     3
 72
     8
 73
     4
 74
     0
 42
0.0000000001
 43
0.0000000001
 40
0.0
 40
0.0
 40
0.0
 40
0.0
 40
1.0
 40
1.0
 40
1.0
 40
1.0
 10
-38.6629
 20
-4.125
 30
0.0
 10
-38.6629
 20
-4.125
 30
0.0
 10
-38.6629
 20
-7.9592
 30
0.0
 10
-38.6629
 20
-7.9592
 30
0.0
  0
SPLINE
  5
81
330
1F
100
AcDbEntity
  8
DEFAULT_1
 62
   250
370
    30
100
AcDbSpline
210
0.0
220
0.0
230
1.0
 70
    24
 71
     3
 72
     8
 73
     4
 74
     0
 42
0.0000000001
 43
0.0000000001
 40
0.0
 40
0.0
 40
0.0
 40
0.0
 40
1.0
 40
1.0
 40
1.0
 40
1.0
 10
-38.712
 20
28.2373
 30
0.0
 10
-38.712
 20
28.2373
 30
0.0
 10
-38.712
 20
24.4031
 30
0.0
 10
-38.712
 20
24.4031
 30
0.0
  0
SPLINE
  5
82
330
1F
100
AcDbEntity
  8
DEFAULT_1
 62
   250
370
    30
100
AcDbSpline
210
0.0
220
0.0
230
1.0
 70
    24
 71
     3
 72
     8
 73
     4
 74
     0
 42
0.0000000001
 43
0.0000000001
 40
0.0
 40
0.0
 40
0.0
 40
0.0
 40
1.0
 40
1.0
 40
1.0
 40
1.0
 10
-24.8506
 20
-16.6767
 30
0.0
 10
-24.8506
 20
-16.6767
 30
0.0
 10
-24.8506
 20
-20.5109
 30
0.0
 10
-24.8506
 20
-20.5109
 30
0.0
  0
SPLINE
  5
83
330
1F
100
AcDbEntity
  8
DEFAULT_1
 62
   250
370
    30
100
AcDbSpline
210
0.0
220
0.0
230
1.0
 70
    24
 71
     3
 72
     8
 73
     4
 74
     0
 42
0.0000000001
 43
0.0000000001
 40
0.0
 40
0.0
 40
0.0
 40
0.0
 40
1.0
 40
1.0
 40
1.0
 40
1.0
 10
-39.2092
 20
-4.125
 30
0.0
 10
-39.2092
 20
-4.125
 30
0.0
 10
-39.2092
 20
-7.9592
 30
0.0
 10
-39.2092
 20
-7.9592
 30
0.0
  0
SPLINE
  5
84
330
1F
100
AcDbEntity
  8
DEFAULT_1
 62
   250
370
    30
100
AcDbSpline
210
0.0
220
0.0
230
1.0
 70
    24
 71
     3
 72
     8
 73
     4
 74
     0
 42
0.0000000001
 43
0.0000000001
 40
0.0
 40
0.0
 40
0.0
 40
0.0
 40
1.0
 40
1.0
 40
1.0
 40
1.0
 10
-39.2583
 20
28.2373
 30
0.0
 10
-39.2583
 20
28.2373
 30
0.0
 10
-39.2583
 20
24.4031
 30
0.0
 10
-39.2583
 20
24.4031
 30
0.0
  0
SPLINE
  5
85
330
1F
100
AcDbEntity
  8
DEFAULT_1
 62
   250
370
    30
100
AcDbSpline
210
0.0
220
0.0
230
1.0
 70
    24
 71
     3
 72
     8
 73
     4
 74
     0
 42
0.0000000001
 43
0.0000000001
 40
0.0
 40
0.0
 40
0.0
 40
0.0
 40
1.0
 40
1.0
 40
1.0
 40
1.0
 10
-29.5818
 20
-16.6822
 30
0.0
 10
-29.5818
 20
-16.6822
 30
0.0
 10
-29.5818
 20
-20.5164
 30
0.0
 10
-29.5818
 20
-20.5164
 30
0.0
  0
SPLINE
  5
86
330
1F
100
AcDbEntity
  8
DEFAULT_1
 62
   250
370
    30
100
AcDbSpline
210
0.0
220
0.0
230
1.0
 70
    24
 71
     3
 72
     8
 73
     4
 74
     0
 42
0.0000000001
 43
0.0000000001
 40
0.0
 40
0.0
 40
0.0
 40
0.0
 40
1.0
 40
1.0
 40
1.0
 40
1.0
 10
-43.9404
 20
-4.1305
 30
0.0
 10
-43.9404
 20
-4.1305
 30
0.0
 10
-43.9404
 20
-7.9647
 30
0.0
 10
-43.9404
 20
-7.9647
 30
0.0
  0
SPLINE
  5
87
330
1F
100
AcDbEntity
  8
DEFAULT_1
 62
   250
370
    30
100
AcDbSpline
210
0.0
220
0.0
230
1.0
 70
    24
 71
     3
 72
     8
 73
     4
 74
     0
 42
0.0000000001
 43
0.0000000001
 40
0.0
 40
0.0
 40
0.0
 40
0.0
 40
1.0
 40
1.0
 40
1.0
 40
1.0
 10
-43.9895
 20
28.2318
 30
0.0
 10
-43.9895
 20
28.2318
 30
0.0
 10
-43.9895
 20
24.3976
 30
0.0
 10
-43.9895
 20
24.3976
 30
0.0
  0
SPLINE
  5
88
330
1F
100
AcDbEntity
  8
DEFAULT_1
 62
   250
370
    30
100
AcDbSpline
210
0.0
220
0.0
230
1.0
 70
    24
 71
     3
 72
     8
 73
     4
 74
     0
 42
0.0000000001
 43
0.0000000001
 40
0.0
 40
0.0
 40
0.0
 40
0.0
 40
1.0
 40
1.0
 40
1.0
 40
1.0
 10
-34.8301
 20
-4.0957
 30
0.0
 10
-34.8301
 20
-4.0957
 30
0.0
 10
-34.8301
 20
24.3974
 30
0.0
 10
-34.8301
 20
24.3974
 30
0.0
  0
SPLINE
  5
89
330
1F
100
AcDbEntity
  8
DEFAULT_1
 62
   250
370
    30
100
AcDbSpline
210
0.0
220
0.0
230
1.0
 70
    24
 71
     3
 72
     8
 73
     4
 74
     0
 42
0.0000000001
 43
0.0000000001
 40
0.0
 40
0.0
 40
0.0
 40
0.0
 40
1.0
 40
1.0
 40
1.0
 40
1.0
 10
-42.499
 20
-4.0957
 30
0.0
 10
-42.499
 20
-4.0957
 30
0.0
 10
-42.499
 20
24.3753
 30
0.0
 10
-42.499
 20
24.3753
 30
0.0
  0
SPLINE
  5
8A
330
1F
100
AcDbEntity
  8
DEFAULT_1
 62
   250
370
    15
100
AcDbSpline
210
0.0
220
0.0
230
1.0
 70
    24
 71
     3
 72
     8
 73
     4
 74
     0
 42
0.0000000001
 43
0.0000000001
 40
0.0
 40
0.0
 40
0.0
 40
0.0
 40
1.0
 40
1.0
 40
1.0
 40
1.0
 10
-43.4532
 20
28.719
 30
0.0
 10
-43.4532
 20
28.719
 30
0.0
 10
-43.4532
 20
30.7698
 30
0.0
 10
-43.4532
 20
30.7698
 30
0.0
  0
SPLINE
  5
8B
330
1F
100
AcDbEntity
  8
DEFAULT_1
 62
   250
370
    15
100
AcDbSpline
210
0.0
220
0.0
230
1.0
 70
    24
 71
     3
 72
     8
 73
     4
 74
     0
 42
0.0000000001
 43
0.0000000001
 40
0.0
 40
0.0
 40
0.0
 40
0.0
 40
1.0
 40
1.0
 40
1.0
 40
1.0
 10
-33.9828
 20
28.5206
 30
0.0
 10
-33.9828
 20
28.5206
 30
0.0
 10
-33.9828
 20
30.8801
 30
0.0
 10
-33.9828
 20
30.8801
 30
0.0
  0
SPLINE
  5
8C
330
1F
100
AcDbEntity
  8
DEFAULT_1
 62
   250
370
    15
100
AcDbSpline
210
0.0
220
0.0
230
1.0
 70
    24
 71
     3
 72
     8
 73
     4
 74
     0
 42
0.0000000001
 43
0.0000000001
 40
0.0
 40
0.0
 40
0.0
 40
0.0
 40
1.0
 40
1.0
 40
1.0
 40
1.0
 10
-31.8696
 20
30.3727
 30
0.0
 10
-31.8696
 20
30.3727
 30
0.0
 10
-45.628
 20
30.3727
 30
0.0
 10
-45.628
 20
30.3727
 30
0.0
  0
SPLINE
  5
8D
330
1F
100
AcDbEntity
  8
DEFAULT_1
 62
   250
370
    15
100
AcDbSpline
210
0.0
220
0.0
230
1.0
 70
    24
 71
     3
 72
     8
 73
     4
 74
     0
 42
0.0000000001
 43
0.0000000001
 40
0.0
 40
0.0
 40
0.0
 40
0.0
 40
1.0
 40
1.0
 40
1.0
 40
1.0
 10
-35.3965
 20
-33.8792
 30
0.0
 10
-35.3965
 20
-33.8792
 30
0.0
 10
-50.6156
 20
-33.8792
 30
0.0
 10
-50.6156
 20
-33.8792
 30
0.0
  0
SPLINE
  5
8E
330
1F
100
AcDbEntity
  8
DEFAULT_1
 62
   250
370
    15
100
AcDbSpline
210
0.0
220
0.0
230
1.0
 70
    24
 71
     3
 72
     8
 73
     4
 74
     0
 42
0.0000000001
 43
0.0000000001
 40
0.0
 40
0.0
 40
0.0
 40
0.0
 40
1.0
 40
1.0
 40
1.0
 40
1.0
 10
-26.7045
 20
-6.7802
 30
0.0
 10
-26.7045
 20
-6.7802
 30
0.0
 10
-50.6597
 20
-6.7802
 30
0.0
 10
-50.6597
 20
-6.7802
 30
0.0
  0
SPLINE
  5
8F
330
1F
100
AcDbEntity
  8
DEFAULT_1
 62
   250
370
    15
100
AcDbSpline
210
0.0
220
0.0
230
1.0
 70
    24
 71
     3
 72
     8
 73
     4
 74
     0
 42
0.0000000001
 43
0.0000000001
 40
0.0
 40
0.0
 40
0.0
 40
0.0
 40
1.0
 40
1.0
 40
1.0
 40
1.0
 10
-49.9423
 20
27.5726
 30
0.0
 10
-49.9423
 20
27.5726
 30
0.0
 10
-49.9423
 20
-33.4361
 30
0.0
 10
-49.9423
 20
-33.4361
 30
0.0
  0
SPLINE
  5
90
330
1F
100
AcDbEntity
  8
DEFAULT_1
 62
   250
370
    15
100
AcDbSpline
210
0.0
220
0.0
230
1.0
 70
    24
 71
     3
 72
     8
 73
     4
 74
     0
 42
0.0000000001
 43
0.0000000001
 40
0.0
 40
0.0
 40
0.0
 40
0.0
 40
1.0
 40
1.0
 40
1.0
 40
1.0
 10
-44.8984
 20
28.1843
 30
0.0
 10
-44.8984
 20
28.1843
 30
0.0
 10
-50.5272
 20
28.1843
 30
0.0
 10
-50.5272
 20
28.1843
 30
0.0
  0
SPLINE
  5
91
330
1F
100
AcDbEntity
  8
DEFAULT_1
 62
   250
370
    15
100
AcDbSpline
210
0.0
220
0.0
230
1.0
 70
    24
 71
     3
 72
     8
 73
     4
 74
     0
 42
0.0000000001
 43
0.0000000001
 40
0.0
 40
0.0
 40
0.0
 40
0.0
 40
1.0
 40
1.0
 40
1.0
 40
1.0
 10
-24.3658
 20
2.8989
 30
0.0
 10
-24.3658
 20
2.8989
 30
0.0
 10
-24.3658
 20
-13.6816
 30
0.0
 10
-24.3658
 20
-13.6816
 30
0.0
  0
SPLINE
  5
92
330
1F
100
AcDbEntity
  8
DEFAULT_1
 62
   250
370
    15
100
AcDbSpline
210
0.0
220
0.0
230
1.0
 70
    24
 71
     3
 72
     8
 73
     4
 74
     0
 42
0.0000000001
 43
0.0000000001
 40
0.0
 40
0.0
 40
0.0
 40
0.0
 40
1.0
 40
1.0
 40
1.0
 40
1.0
 10
52.4303
 20
-2.7515
 30
0.0
 10
52.4303
 20
-2.7515
 30
0.0
 10
52.4303
 20
10.8923
 30
0.0
 10
52.4303
 20
10.8923
 30
0.0
  0
SPLINE
  5
93
330
1F
100
AcDbEntity
  8
DEFAULT_1
 62
   250
370
    15
100
AcDbSpline
210
0.0
220
0.0
230
1.0
 70
    24
 71
     3
 72
     8
 73
     4
 74
     0
 42
0.0000000001
 43
0.0000000001
 40
0.0
 40
0.0
 40
0.0
 40
0.0
 40
1.0
 40
1.0
 40
1.0
 40
1.0
 10
-38.751
 20
10.4107
 30
0.0
 10
-38.751
 20
10.4107
 30
0.0
 10
52.0522
 20
10.4107
 30
0.0
 10
52.0522
 20
10.4107
 30
0.0
  0
SPLINE
  5
94
330
1F
100
AcDbEntity
  8
DEFAULT_1
 62
   250
370
    15
100
AcDbSpline
210
0.0
220
0.0
230
1.0
 70
    24
 71
     3
 72
     8
 73
     4
 74
     0
 42
0.0000000001
 43
0.0000000001
 40
0.0
 40
0.0
 40
0.0
 40
0.0
 40
1.0
 40
1.0
 40
1.0
 40
1.0
 10
-24.7546
 20
2.2983
 30
0.0
 10
-24.7546
 20
2.2983
 30
0.0
 10
-38.1547
 20
2.2983
 30
0.0
 10
-38.1547
 20
2.2983
 30
0.0
  0
SPLINE
  5
95
330
1F
100
AcDbEntity
  8
DEFAULT_1
 62
   250
370
    15
100
AcDbSpline
210
0.0
220
0.0
230
1.0
 70
    24
 71
     3
 72
     8
 73
     4
 74
     0
 42
0.0000000001
 43
0.0000000001
 40
0.0
 40
0.0
 40
0.0
 40
0.0
 40
1.0
 40
1.0
 40
1.0
 40
1.0
 10
-27.7439
 20
18.2743
 30
0.0
 10
-27.7439
 20
18.2743
 30
0.0
 10
-44.3532
 20
18.2743
 30
0.0
 10
-44.3532
 20
18.2743
 30
0.0
  0
SPLINE
  5
96
330
1F
100
AcDbEntity
  8
DEFAULT_1
 62
   250
370
    15
100
AcDbSpline
210
0.0
220
0.0
230
1.0
 70
    24
 71
     3
 72
     8
 73
     4
 74
     0
 42
0.0000000001
 43
0.0000000001
 40
0.0
 40
0.0
 40
0.0
 40
0.0
 40
1.0
 40
1.0
 40
1.0
 40
1.0
 10
11.1294
 20
3.8473
 30
0.0
 10
11.1294
 20
3.8473
 30
0.0
 10
11.1294
 20
-13.0721
 30
0.0
 10
11.1294
 20
-13.0721
 30
0.0
  0
SPLINE
  5
97
330
1F
100
AcDbEntity
  8
DEFAULT_1
  6
New Line1
 62
   250
370
    15
100
AcDbSpline
210
0.0
220
0.0
230
1.0
 70
    24
 71
     3
 72
     8
 73
     4
 74
     0
 42
0.0000000001
 43
0.0000000001
 40
0.0
 40
0.0
 40
0.0
 40
0.0
 40
1.0
 40
1.0
 40
1.0
 40
1.0
 10
-38.6791
 20
-22.7425
 30
0.0
 10
-38.6791
 20
-22.7425
 30
0.0
 10
-38.6791
 20
29.1379
 30
0.0
 10
-38.6791
 20
29.1379
 30
0.0
  0
SPLINE
  5
99
330
1F
100
AcDbEntity
  8
DEFAULT_1
  6
New Line2
 62
   250
370
    15
100
AcDbSpline
210
0.0
220
0.0
230
1.0
 70
    24
 71
     3
 72
     8
 73
     4
 74
     0
 42
0.0000000001
 43
0.0000000001
 40
0.0
 40
0.0
 40
0.0
 40
0.0
 40
1.0
 40
1.0
 40
1.0
 40
1.0
 10
53.2427
 20
-6.8591
 30
0.0
 10
53.2427
 20
-6.8591
 30
0.0
 10
-25.097
 20
-6.8591
 30
0.0
 10
-25.097
 20
-6.8591
 30
0.0
  0
SPLINE
  5
9B
330
1F
100
AcDbEntity
  8
DEFAULT_1
  6
New Line3
 62
   250
370
    15
100
AcDbSpline
210
0.0
220
0.0
230
1.0
 70
    24
 71
     3
 72
     8
 73
     4
 74
     0
 42
0.0000000001
 43
0.0000000001
 40
0.0
 40
0.0
 40
0.0
 40
0.0
 40
1.0
 40
1.0
 40
1.0
 40
1.0
 10
-24.3753
 20
-23.9122
 30
0.0
 10
-24.3753
 20
-23.9122
 30
0.0
 10
-24.3753
 20
-14.3872
 30
0.0
 10
-24.3753
 20
-14.3872
 30
0.0
  0
SPLINE
  5
9D
330
1F
100
AcDbEntity
  8
DEFAULT_1
 62
   250
100
AcDbSpline
210
0.0
220
0.0
230
1.0
 70
    11
 71
     3
 72
   140
 73
   136
 74
     0
 42
0.0000000001
 43
0.0000000001
 40
0.0
 40
0.0
 40
0.0
 40
0.0
 40
0.0285714285714286
 40
0.0285714285714286
 40
0.0285714285714286
 40
0.0285714285714286
 40
0.0571428571428571
 40
0.0571428571428571
 40
0.0571428571428571
 40
0.0571428571428571
 40
0.0857142857142857
 40
0.0857142857142857
 40
0.0857142857142857
 40
0.0857142857142857
 40
0.1142857142857143
 40
0.1142857142857143
 40
0.1142857142857143
 40
0.1142857142857143
 40
0.1428571428571428
 40
0.1428571428571428
 40
0.1428571428571428
 40
0.1428571428571428
 40
0.1714285714285714
 40
0.1714285714285714
 40
0.1714285714285714
 40
0.1714285714285714
 40
0.2
 40
0.2
 40
0.2
 40
0.2
 40
0.2285714285714286
 40
0.2285714285714286
 40
0.2285714285714286
 40
0.2285714285714286
 40
0.2571428571428571
 40
0.2571428571428571
 40
0.2571428571428571
 40
0.2571428571428571
 40
0.2857142857142857
 40
0.2857142857142857
 40
0.2857142857142857
 40
0.2857142857142857
 40
0.3142857142857143
 40
0.3142857142857143
 40
0.3142857142857143
 40
0.3142857142857143
 40
0.3428571428571429
 40
0.3428571428571429
 40
0.3428571428571429
 40
0.3428571428571429
 40
0.3714285714285714
 40
0.3714285714285714
 40
0.3714285714285714
 40
0.3714285714285714
 40
0.4
 40
0.4
 40
0.4
 40
0.4
 40
0.4285714285714285
 40
0.4285714285714285
 40
0.4285714285714285
 40
0.4285714285714285
 40
0.4571428571428571
 40
0.4571428571428571
 40
0.4571428571428571
 40
0.4571428571428571
 40
0.4857142857142857
 40
0.4857142857142857
 40
0.4857142857142857
 40
0.4857142857142857
 40
0.5142857142857142
 40
0.5142857142857142
 40
0.5142857142857142
 40
0.5142857142857142
 40
0.5428571428571428
 40
0.5428571428571428
 40
0.5428571428571428
 40
0.5428571428571428
 40
0.5714285714285714
 40
0.5714285714285714
 40
0.5714285714285714
 40
0.5714285714285714
 40
0.6
 40
0.6
 40
0.6
 40
0.6
 40
0.6285714285714286
 40
0.6285714285714286
 40
0.6285714285714286
 40
0.6285714285714286
 40
0.6571428571428571
 40
0.6571428571428571
 40
0.6571428571428571
 40
0.6571428571428571
 40
0.6857142857142857
 40
0.6857142857142857
 40
0.6857142857142857
 40
0.6857142857142857
 40
0.7142857142857143
 40
0.7142857142857143
 40
0.7142857142857143
 40
0.7142857142857143
 40
0.7428571428571429
 40
0.7428571428571429
 40
0.7428571428571429
 40
0.7428571428571429
 40
0.7714285714285715
 40
0.7714285714285715
 40
0.7714285714285715
 40
0.7714285714285715
 40
0.8
 40
0.8
 40
0.8
 40
0.8
 40
0.8285714285714286
 40
0.8285714285714286
 40
0.8285714285714286
 40
0.8285714285714286
 40
0.8571428571428571
 40
0.8571428571428571
 40
0.8571428571428571
 40
0.8571428571428571
 40
0.8857142857142857
 40
0.8857142857142857
 40
0.8857142857142857
 40
0.8857142857142857
 40
0.9142857142857143
 40
0.9142857142857143
 40
0.9142857142857143
 40
0.9142857142857143
 40
0.9428571428571428
 40
0.9428571428571428
 40
0.9428571428571428
 40
0.9428571428571428
 40
1.0
 40
1.0
 40
1.0
 40
1.0
 10
-40.2703
 20
32.6194
 30
0.0
 10
-40.2703
 20
32.6194
 30
0.0
 10
-41.0279
 20
32.6194
 30
0.0
 10
-41.0279
 20
32.6194
 30
0.0
 10
-41.0279
 20
32.6194
 30
0.0
 10
-41.0279
 20
32.6194
 30
0.0
 10
-41.0279
 20
32.3479
 30
0.0
 10
-41.0279
 20
32.3479
 30
0.0
 10
-41.0279
 20
32.3479
 30
0.0
 10
-41.0279
 20
32.3479
 30
0.0
 10
-40.5637
 20
32.3479
 30
0.0
 10
-40.5637
 20
32.3479
 30
0.0
 10
-40.5637
 20
32.3479
 30
0.0
 10
-40.5637
 20
32.3479
 30
0.0
 10
-40.5637
 20
31.5679
 30
0.0
 10
-40.5637
 20
31.5679
 30
0.0
 10
-40.5637
 20
31.5679
 30
0.0
 10
-40.5979
 20
31.5478
 30
0.0
 10
-40.6479
 20
31.5317
 30
0.0
 10
-40.7145
 20
31.518
 30
0.0
 10
-40.7145
 20
31.518
 30
0.0
 10
-40.7804
 20
31.5051
 30
0.0
 10
-40.8625
 20
31.4987
 30
0.0
 10
-40.9596
 20
31.498
 30
0.0
 10
-40.9596
 20
31.498
 30
0.0
 10
-41.095
 20
31.498
 30
0.0
 10
-41.2168
 20
31.522
 30
0.0
 10
-41.3259
 20
31.5699
 30
0.0
 10
-41.3259
 20
31.5699
 30
0.0
 10
-41.4346
 20
31.617
 30
0.0
 10
-41.528
 20
31.6863
 30
0.0
 10
-41.6059
 20
31.7768
 30
0.0
 10
-41.6059
 20
31.7768
 30
0.0
 10
-41.6832
 20
31.8679
 30
0.0
 10
-41.743
 20
31.9786
 30
0.0
 10
-41.7845
 20
32.1084
 30
0.0
 10
-41.7845
 20
32.1084
 30
0.0
 10
-41.826
 20
32.2392
 30
0.0
 10
-41.8465
 20
32.3873
 30
0.0
 10
-41.8471
 20
32.5534
 30
0.0
 10
-41.8471
 20
32.5534
 30
0.0
 10
-41.8465
 20
32.7177
 30
0.0
 10
-41.8249
 20
32.8645
 30
0.0
 10
-41.781
 20
32.9946
 30
0.0
 10
-41.781
 20
32.9946
 30
0.0
 10
-41.7378
 20
33.1239
 30
0.0
 10
-41.6758
 20
33.2344
 30
0.0
 10
-41.5946
 20
33.3249
 30
0.0
 10
-41.5946
 20
33.3249
 30
0.0
 10
-41.5132
 20
33.4162
 30
0.0
 10
-41.4165
 20
33.4854
 30
0.0
 10
-41.3027
 20
33.5331
 30
0.0
 10
-41.3027
 20
33.5331
 30
0.0
 10
-41.1895
 20
33.5805
 30
0.0
 10
-41.0627
 20
33.6051
 30
0.0
 10
-40.9221
 20
33.6051
 30
0.0
 10
-40.9221
 20
33.6051
 30
0.0
 10
-40.8448
 20
33.6051
 30
0.0
 10
-40.7759
 20
33.5999
 30
0.0
 10
-40.7145
 20
33.5907
 30
0.0
 10
-40.7145
 20
33.5907
 30
0.0
 10
-40.6531
 20
33.581
 30
0.0
 10
-40.5979
 20
33.5681
 30
0.0
 10
-40.5484
 20
33.5512
 30
0.0
 10
-40.5484
 20
33.5512
 30
0.0
 10
-40.4989
 20
33.5346
 30
0.0
 10
-40.4539
 20
33.5145
 30
0.0
 10
-40.4135
 20
33.4924
 30
0.0
 10
-40.4135
 20
33.4924
 30
0.0
 10
-40.4135
 20
33.4924
 30
0.0
 10
-40.3385
 20
33.7679
 30
0.0
 10
-40.3385
 20
33.7679
 30
0.0
 10
-40.3385
 20
33.7679
 30
0.0
 10
-40.3721
 20
33.7867
 30
0.0
 10
-40.4165
 20
33.8048
 30
0.0
 10
-40.4727
 20
33.8237
 30
0.0
 10
-40.4727
 20
33.8237
 30
0.0
 10
-40.529
 20
33.8416
 30
0.0
 10
-40.5945
 20
33.8572
 30
0.0
 10
-40.6696
 20
33.8696
 30
0.0
 10
-40.6696
 20
33.8696
 30
0.0
 10
-40.7442
 20
33.8811
 30
0.0
 10
-40.826
 20
33.8877
 30
0.0
 10
-40.9153
 20
33.8882
 30
0.0
 10
-40.9153
 20
33.8882
 30
0.0
 10
-41.1087
 20
33.8877
 30
0.0
 10
-41.2822
 20
33.8533
 30
0.0
 10
-41.4352
 20
33.7867
 30
0.0
 10
-41.4352
 20
33.7867
 30
0.0
 10
-41.5887
 20
33.7202
 30
0.0
 10
-41.7197
 20
33.6264
 30
0.0
 10
-41.8271
 20
33.5053
 30
0.0
 10
-41.8271
 20
33.5053
 30
0.0
 10
-41.9353
 20
33.3845
 30
0.0
 10
-42.0176
 20
33.2422
 30
0.0
 10
-42.0746
 20
33.078
 30
0.0
 10
-42.0746
 20
33.078
 30
0.0
 10
-42.132
 20
32.9137
 30
0.0
 10
-42.1604
 20
32.7338
 30
0.0
 10
-42.161
 20
32.538
 30
0.0
 10
-42.161
 20
32.538
 30
0.0
 10
-42.1604
 20
32.4015
 30
0.0
 10
-42.1475
 20
32.2734
 30
0.0
 10
-42.1217
 20
32.1526
 30
0.0
 10
-42.1217
 20
32.1526
 30
0.0
 10
-42.0962
 20
32.0322
 30
0.0
 10
-42.0593
 20
31.9223
 30
0.0
 10
-42.0115
 20
31.8227
 30
0.0
 10
-42.0115
 20
31.8227
 30
0.0
 10
-41.9637
 20
31.723
 30
0.0
 10
-41.9067
 20
31.6371
 30
0.0
 10
-41.8402
 20
31.564
 30
0.0
 10
-41.8402
 20
31.564
 30
0.0
 10
-41.7275
 20
31.4424
 30
0.0
 10
-41.5996
 20
31.3545
 30
0.0
 10
-41.4562
 20
31.2994
 30
0.0
 10
-41.4562
 20
31.2994
 30
0.0
 10
-41.313
 20
31.2445
 30
0.0
 10
-41.1541
 20
31.218
 30
0.0
 10
-40.9802
 20
31.2187
 30
0.0
 10
-40.9802
 20
31.2187
 30
0.0
 10
-40.876
 20
31.2193
 30
0.0
 10
-40.7789
 20
31.2277
 30
0.0
 10
-40.6879
 20
31.2433
 30
0.0
 10
-40.6879
 20
31.2433
 30
0.0
 10
-40.5968
 20
31.2587
 30
0.0
 10
-40.5154
 20
31.2775
 30
0.0
 10
-40.4443
 20
31.2989
 30
0.0
 10
-40.4443
 20
31.2989
 30
0.0
 10
-40.3732
 20
31.3208
 30
0.0
 10
-40.3153
 20
31.3421
 30
0.0
 10
-40.2703
 20
31.3622
 30
0.0
 10
-40.2703
 20
31.3622
 30
0.0
 10
-40.2703
 20
31.3622
 30
0.0
 10
-40.2703
 20
32.6194
 30
0.0
 10
-40.2703
 20
32.6194
 30
0.0
  0
SPLINE
  5
9E
330
1F
100
AcDbEntity
  8
DEFAULT_1
 62
   250
100
AcDbSpline
210
0.0
220
0.0
230
1.0
 70
    11
 71
     3
 72
   132
 73
   128
 74
     0
 42
0.0000000001
 43
0.0000000001
 40
0.0
 40
0.0
 40
0.0
 40
0.0
 40
0.0303030303030303
 40
0.0303030303030303
 40
0.0303030303030303
 40
0.0303030303030303
 40
0.0606060606060606
 40
0.0606060606060606
 40
0.0606060606060606
 40
0.0606060606060606
 40
0.0909090909090909
 40
0.0909090909090909
 40
0.0909090909090909
 40
0.0909090909090909
 40
0.1212121212121212
 40
0.1212121212121212
 40
0.1212121212121212
 40
0.1212121212121212
 40
0.1515151515151515
 40
0.1515151515151515
 40
0.1515151515151515
 40
0.1515151515151515
 40
0.1818181818181818
 40
0.1818181818181818
 40
0.1818181818181818
 40
0.1818181818181818
 40
0.2121212121212121
 40
0.2121212121212121
 40
0.2121212121212121
 40
0.2121212121212121
 40
0.2424242424242424
 40
0.2424242424242424
 40
0.2424242424242424
 40
0.2424242424242424
 40
0.2727272727272727
 40
0.2727272727272727
 40
0.2727272727272727
 40
0.2727272727272727
 40
0.303030303030303
 40
0.303030303030303
 40
0.303030303030303
 40
0.303030303030303
 40
0.3333333333333333
 40
0.3333333333333333
 40
0.3333333333333333
 40
0.3333333333333333
 40
0.3636363636363636
 40
0.3636363636363636
 40
0.3636363636363636
 40
0.3636363636363636
 40
0.3939393939393939
 40
0.3939393939393939
 40
0.3939393939393939
 40
0.3939393939393939
 40
0.4242424242424243
 40
0.4242424242424243
 40
0.4242424242424243
 40
0.4242424242424243
 40
0.4545454545454545
 40
0.4545454545454545
 40
0.4545454545454545
 40
0.4545454545454545
 40
0.4848484848484849
 40
0.4848484848484849
 40
0.4848484848484849
 40
0.4848484848484849
 40
0.5151515151515151
 40
0.5151515151515151
 40
0.5151515151515151
 40
0.5151515151515151
 40
0.5454545454545454
 40
0.5454545454545454
 40
0.5454545454545454
 40
0.5454545454545454
 40
0.5757575757575758
 40
0.5757575757575758
 40
0.5757575757575758
 40
0.5757575757575758
 40
0.6060606060606061
 40
0.6060606060606061
 40
0.6060606060606061
 40
0.6060606060606061
 40
0.6363636363636364
 40
0.6363636363636364
 40
0.6363636363636364
 40
0.6363636363636364
 40
0.6666666666666666
 40
0.6666666666666666
 40
0.6666666666666666
 40
0.6666666666666666
 40
0.696969696969697
 40
0.696969696969697
 40
0.696969696969697
 40
0.696969696969697
 40
0.7272727272727273
 40
0.7272727272727273
 40
0.7272727272727273
 40
0.7272727272727273
 40
0.7575757575757576
 40
0.7575757575757576
 40
0.7575757575757576
 40
0.7575757575757576
 40
0.7878787878787878
 40
0.7878787878787878
 40
0.7878787878787878
 40
0.7878787878787878
 40
0.8181818181818182
 40
0.8181818181818182
 40
0.8181818181818182
 40
0.8181818181818182
 40
0.8484848484848485
 40
0.8484848484848485
 40
0.8484848484848485
 40
0.8484848484848485
 40
0.8787878787878788
 40
0.8787878787878788
 40
0.8787878787878788
 40
0.8787878787878788
 40
0.9090909090909091
 40
0.9090909090909091
 40
0.9090909090909091
 40
0.9090909090909091
 40
0.9393939393939394
 40
0.9393939393939394
 40
0.9393939393939394
 40
0.9393939393939394
 40
1.0
 40
1.0
 40
1.0
 40
1.0
 10
-38.6014
 20
33.7679
 30
0.0
 10
-38.6014
 20
33.7679
 30
0.0
 10
-39.6627
 20
33.7679
 30
0.0
 10
-39.6627
 20
33.7679
 30
0.0
 10
-39.6627
 20
33.7679
 30
0.0
 10
-39.6627
 20
33.7679
 30
0.0
 10
-39.8061
 20
32.5573
 30
0.0
 10
-39.8061
 20
32.5573
 30
0.0
 10
-39.8061
 20
32.5573
 30
0.0
 10
-39.7651
 20
32.5638
 30
0.0
 10
-39.7196
 20
32.569
 30
0.0
 10
-39.6684
 20
32.5735
 30
0.0
 10
-39.6684
 20
32.5735
 30
0.0
 10
-39.6179
 20
32.578
 30
0.0
 10
-39.5598
 20
32.5806
 30
0.0
 10
-39.4955
 20
32.5806
 30
0.0
 10
-39.4955
 20
32.5806
 30
0.0
 10
-39.3488
 20
32.5799
 30
0.0
 10
-39.2287
 20
32.5561
 30
0.0
 10
-39.1355
 20
32.5094
 30
0.0
 10
-39.1355
 20
32.5094
 30
0.0
 10
-39.0416
 20
32.4623
 30
0.0
 10
-38.9722
 20
32.3975
 30
0.0
 10
-38.9273
 20
32.3149
 30
0.0
 10
-38.9273
 20
32.3149
 30
0.0
 10
-38.8823
 20
32.2315
 30
0.0
 10
-38.8601
 20
32.135
 30
0.0
 10
-38.8607
 20
32.0258
 30
0.0
 10
-38.8607
 20
32.0258
 30
0.0
 10
-38.8601
 20
31.9409
 30
0.0
 10
-38.8738
 20
31.8654
 30
0.0
 10
-38.9017
 20
31.7982
 30
0.0
 10
-38.9017
 20
31.7982
 30
0.0
 10
-38.929
 20
31.7302
 30
0.0
 10
-38.967
 20
31.6734
 30
0.0
 10
-39.0155
 20
31.6255
 30
0.0
 10
-39.0155
 20
31.6255
 30
0.0
 10
-39.0637
 20
31.5781
 30
0.0
 10
-39.1196
 20
31.5421
 30
0.0
 10
-39.1827
 20
31.5168
 30
0.0
 10
-39.1827
 20
31.5168
 30
0.0
 10
-39.2458
 20
31.4915
 30
0.0
 10
-39.3123
 20
31.4786
 30
0.0
 10
-39.3828
 20
31.4786
 30
0.0
 10
-39.3828
 20
31.4786
 30
0.0
 10
-39.4518
 20
31.4793
 30
0.0
 10
-39.5166
 20
31.4863
 30
0.0
 10
-39.5775
 20
31.5012
 30
0.0
 10
-39.5775
 20
31.5012
 30
0.0
 10
-39.6382
 20
31.5155
 30
0.0
 10
-39.693
 20
31.5329
 30
0.0
 10
-39.7412
 20
31.5543
 30
0.0
 10
-39.7412
 20
31.5543
 30
0.0
 10
-39.7897
 20
31.5756
 30
0.0
 10
-39.8294
 20
31.597
 30
0.0
 10
-39.8606
 20
31.6183
 30
0.0
 10
-39.8606
 20
31.6183
 30
0.0
 10
-39.8606
 20
31.6183
 30
0.0
 10
-39.9357
 20
31.3582
 30
0.0
 10
-39.9357
 20
31.3582
 30
0.0
 10
-39.9357
 20
31.3582
 30
0.0
 10
-39.8988
 20
31.3319
 30
0.0
 10
-39.8528
 20
31.3073
 30
0.0
 10
-39.7976
 20
31.2833
 30
0.0
 10
-39.7976
 20
31.2833
 30
0.0
 10
-39.7423
 20
31.26
 30
0.0
 10
-39.6799
 20
31.2413
 30
0.0
 10
-39.6098
 20
31.2264
 30
0.0
 10
-39.6098
 20
31.2264
 30
0.0
 10
-39.5393
 20
31.2115
 30
0.0
 10
-39.4636
 20
31.2038
 30
0.0
 10
-39.3828
 20
31.2031
 30
0.0
 10
-39.3828
 20
31.2031
 30
0.0
 10
-39.2617
 20
31.2038
 30
0.0
 10
-39.1514
 20
31.2257
 30
0.0
 10
-39.0506
 20
31.2684
 30
0.0
 10
-39.0506
 20
31.2684
 30
0.0
 10
-38.95
 20
31.3111
 30
0.0
 10
-38.8629
 20
31.3713
 30
0.0
 10
-38.7896
 20
31.4488
 30
0.0
 10
-38.7896
 20
31.4488
 30
0.0
 10
-38.7156
 20
31.5265
 30
0.0
 10
-38.6588
 20
31.6176
 30
0.0
 10
-38.6184
 20
31.7218
 30
0.0
 10
-38.6184
 20
31.7218
 30
0.0
 10
-38.578
 20
31.8265
 30
0.0
 10
-38.5575
 20
31.9409
 30
0.0
 10
-38.5569
 20
32.0645
 30
0.0
 10
-38.5569
 20
32.0645
 30
0.0
 10
-38.5575
 20
32.1692
 30
0.0
 10
-38.5724
 20
32.2637
 30
0.0
 10
-38.6008
 20
32.3471
 30
0.0
 10
-38.6008
 20
32.3471
 30
0.0
 10
-38.6291
 20
32.4305
 30
0.0
 10
-38.6667
 20
32.5023
 30
0.0
 10
-38.7145
 20
32.5631
 30
0.0
 10
-38.7145
 20
32.5631
 30
0.0
 10
-38.7623
 20
32.6239
 30
0.0
 10
-38.8158
 20
32.6725
 30
0.0
 10
-38.8743
 20
32.7087
 30
0.0
 10
-38.8743
 20
32.7087
 30
0.0
 10
-38.9432
 20
32.7566
 30
0.0
 10
-39.0177
 20
32.7914
 30
0.0
 10
-39.0991
 20
32.8127
 30
0.0
 10
-39.0991
 20
32.8127
 30
0.0
 10
-39.1805
 20
32.8341
 30
0.0
 10
-39.2645
 20
32.8452
 30
0.0
 10
-39.3522
 20
32.8445
 30
0.0
 10
-39.3522
 20
32.8445
 30
0.0
 10
-39.392
 20
32.8445
 30
0.0
 10
-39.4261
 20
32.8437
 30
0.0
 10
-39.454
 20
32.8419
 30
0.0
 10
-39.454
 20
32.8419
 30
0.0
 10
-39.4819
 20
32.84
 30
0.0
 10
-39.5081
 20
32.8367
 30
0.0
 10
-39.533
 20
32.8328
 30
0.0
 10
-39.533
 20
32.8328
 30
0.0
 10
-39.533
 20
32.8328
 30
0.0
 10
-39.4477
 20
33.4808
 30
0.0
 10
-39.4477
 20
33.4808
 30
0.0
 10
-39.4477
 20
33.4808
 30
0.0
 10
-39.4477
 20
33.4808
 30
0.0
 10
-38.6014
 20
33.4808
 30
0.0
 10
-38.6014
 20
33.4808
 30
0.0
 10
-38.6014
 20
33.4808
 30
0.0
 10
-38.6014
 20
33.4808
 30
0.0
 10
-38.6014
 20
33.7679
 30
0.0
 10
-38.6014
 20
33.7679
 30
0.0
  0
SPLINE
  5
9F
330
1F
100
AcDbEntity
  8
DEFAULT_1
 62
   250
100
AcDbSpline
210
0.0
220
0.0
230
1.0
 70
    11
 71
     3
 72
    20
 73
    16
 74
     0
 42
0.0000000001
 43
0.0000000001
 40
0.0
 40
0.0
 40
0.0
 40
0.0
 40
0.2
 40
0.2
 40
0.2
 40
0.2
 40
0.4
 40
0.4
 40
0.4
 40
0.4
 40
0.6
 40
0.6
 40
0.6
 40
0.6
 40
1.0
 40
1.0
 40
1.0
 40
1.0
 10
-38.1031
 20
31.0944
 30
0.0
 10
-38.1031
 20
31.0944
 30
0.0
 10
-37.1475
 20
33.9076
 30
0.0
 10
-37.1475
 20
33.9076
 30
0.0
 10
-37.1475
 20
33.9076
 30
0.0
 10
-37.1475
 20
33.9076
 30
0.0
 10
-37.383
 20
33.9076
 30
0.0
 10
-37.383
 20
33.9076
 30
0.0
 10
-37.383
 20
33.9076
 30
0.0
 10
-37.383
 20
33.9076
 30
0.0
 10
-38.3318
 20
31.0944
 30
0.0
 10
-38.3318
 20
31.0944
 30
0.0
 10
-38.3318
 20
31.0944
 30
0.0
 10
-38.3318
 20
31.0944
 30
0.0
 10
-38.1031
 20
31.0944
 30
0.0
 10
-38.1031
 20
31.0944
 30
0.0
  0
SPLINE
  5
A0
330
1F
100
AcDbEntity
  8
DEFAULT_1
 62
   250
100
AcDbSpline
210
0.0
220
0.0
230
1.0
 70
    11
 71
     3
 72
    48
 73
    44
 74
     0
 42
0.0000000001
 43
0.0000000001
 40
0.0
 40
0.0
 40
0.0
 40
0.0
 40
0.0833333333333333
 40
0.0833333333333333
 40
0.0833333333333333
 40
0.0833333333333333
 40
0.1666666666666667
 40
0.1666666666666667
 40
0.1666666666666667
 40
0.1666666666666667
 40
0.25
 40
0.25
 40
0.25
 40
0.25
 40
0.3333333333333333
 40
0.3333333333333333
 40
0.3333333333333333
 40
0.3333333333333333
 40
0.4166666666666667
 40
0.4166666666666667
 40
0.4166666666666667
 40
0.4166666666666667
 40
0.5
 40
0.5
 40
0.5
 40
0.5
 40
0.5833333333333334
 40
0.5833333333333334
 40
0.5833333333333334
 40
0.5833333333333334
 40
0.6666666666666666
 40
0.6666666666666666
 40
0.6666666666666666
 40
0.6666666666666666
 40
0.75
 40
0.75
 40
0.75
 40
0.75
 40
0.8333333333333334
 40
0.8333333333333334
 40
0.8333333333333334
 40
0.8333333333333334
 40
1.0
 40
1.0
 40
1.0
 40
1.0
 10
-35.7926
 20
31.2458
 30
0.0
 10
-35.7926
 20
31.2458
 30
0.0
 10
-35.7926
 20
31.9364
 30
0.0
 10
-35.7926
 20
31.9364
 30
0.0
 10
-35.7926
 20
31.9364
 30
0.0
 10
-35.7926
 20
31.9364
 30
0.0
 10
-35.482
 20
31.9364
 30
0.0
 10
-35.482
 20
31.9364
 30
0.0
 10
-35.482
 20
31.9364
 30
0.0
 10
-35.482
 20
31.9364
 30
0.0
 10
-35.482
 20
32.2003
 30
0.0
 10
-35.482
 20
32.2003
 30
0.0
 10
-35.482
 20
32.2003
 30
0.0
 10
-35.482
 20
32.2003
 30
0.0
 10
-35.7926
 20
32.2003
 30
0.0
 10
-35.7926
 20
32.2003
 30
0.0
 10
-35.7926
 20
32.2003
 30
0.0
 10
-35.7926
 20
32.2003
 30
0.0
 10
-35.7926
 20
33.7679
 30
0.0
 10
-35.7926
 20
33.7679
 30
0.0
 10
-35.7926
 20
33.7679
 30
0.0
 10
-35.7926
 20
33.7679
 30
0.0
 10
-36.1168
 20
33.7679
 30
0.0
 10
-36.1168
 20
33.7679
 30
0.0
 10
-36.1168
 20
33.7679
 30
0.0
 10
-36.1168
 20
33.7679
 30
0.0
 10
-37.1065
 20
32.1576
 30
0.0
 10
-37.1065
 20
32.1576
 30
0.0
 10
-37.1065
 20
32.1576
 30
0.0
 10
-37.1065
 20
32.1576
 30
0.0
 10
-37.1065
 20
31.9364
 30
0.0
 10
-37.1065
 20
31.9364
 30
0.0
 10
-37.1065
 20
31.9364
 30
0.0
 10
-37.1065
 20
31.9364
 30
0.0
 10
-36.0758
 20
31.9364
 30
0.0
 10
-36.0758
 20
31.9364
 30
0.0
 10
-36.0758
 20
31.9364
 30
0.0
 10
-36.0758
 20
31.9364
 30
0.0
 10
-36.0758
 20
31.2458
 30
0.0
 10
-36.0758
 20
31.2458
 30
0.0
 10
-36.0758
 20
31.2458
 30
0.0
 10
-36.0758
 20
31.2458
 30
0.0
 10
-35.7926
 20
31.2458
 30
0.0
 10
-35.7926
 20
31.2458
 30
0.0
  0
SPLINE
  5
A1
330
1F
100
AcDbEntity
  8
DEFAULT_1
 62
   250
100
AcDbSpline
210
0.0
220
0.0
230
1.0
 70
    11
 71
     3
 72
    36
 73
    32
 74
     0
 42
0.0000000001
 43
0.0000000001
 40
0.0
 40
0.0
 40
0.0
 40
0.0
 40
0.1111111111111111
 40
0.1111111111111111
 40
0.1111111111111111
 40
0.1111111111111111
 40
0.2222222222222222
 40
0.2222222222222222
 40
0.2222222222222222
 40
0.2222222222222222
 40
0.3333333333333333
 40
0.3333333333333333
 40
0.3333333333333333
 40
0.3333333333333333
 40
0.4444444444444444
 40
0.4444444444444444
 40
0.4444444444444444
 40
0.4444444444444444
 40
0.5555555555555556
 40
0.5555555555555556
 40
0.5555555555555556
 40
0.5555555555555556
 40
0.6666666666666666
 40
0.6666666666666666
 40
0.6666666666666666
 40
0.6666666666666666
 40
0.7777777777777778
 40
0.7777777777777778
 40
0.7777777777777778
 40
0.7777777777777778
 40
1.0
 40
1.0
 40
1.0
 40
1.0
 10
-36.8028
 20
32.2003
 30
0.0
 10
-36.8028
 20
32.2003
 30
0.0
 10
-36.8028
 20
32.2082
 30
0.0
 10
-36.8028
 20
32.2082
 30
0.0
 10
-36.8028
 20
32.2082
 30
0.0
 10
-36.8028
 20
32.2082
 30
0.0
 10
-36.2602
 20
33.0656
 30
0.0
 10
-36.2602
 20
33.0656
 30
0.0
 10
-36.2602
 20
33.0656
 30
0.0
 10
-36.23
 20
33.1232
 30
0.0
 10
-36.1997
 20
33.1814
 30
0.0
 10
-36.1702
 20
33.2403
 30
0.0
 10
-36.1702
 20
33.2403
 30
0.0
 10
-36.1412
 20
33.2998
 30
0.0
 10
-36.1094
 20
33.3656
 30
0.0
 10
-36.0758
 20
33.4381
 30
0.0
 10
-36.0758
 20
33.4381
 30
0.0
 10
-36.0758
 20
33.4381
 30
0.0
 10
-36.0655
 20
33.4381
 30
0.0
 10
-36.0655
 20
33.4381
 30
0.0
 10
-36.0655
 20
33.4381
 30
0.0
 10
-36.0724
 20
33.3063
 30
0.0
 10
-36.0758
 20
33.1743
 30
0.0
 10
-36.0758
 20
33.0423
 30
0.0
 10
-36.0758
 20
33.0423
 30
0.0
 10
-36.0758
 20
33.0423
 30
0.0
 10
-36.0758
 20
32.2003
 30
0.0
 10
-36.0758
 20
32.2003
 30
0.0
 10
-36.0758
 20
32.2003
 30
0.0
 10
-36.0758
 20
32.2003
 30
0.0
 10
-36.8028
 20
32.2003
 30
0.0
 10
-36.8028
 20
32.2003
 30
0.0
  0
SPLINE
  5
A2
330
1F
100
AcDbEntity
  8
DEFAULT_1
 62
   250
100
AcDbSpline
210
0.0
220
0.0
230
1.0
 70
    11
 71
     3
 72
    20
 73
    16
 74
     0
 42
0.0000000001
 43
0.0000000001
 40
0.0
 40
0.0
 40
0.0
 40
0.0
 40
0.2
 40
0.2
 40
0.2
 40
0.2
 40
0.4
 40
0.4
 40
0.4
 40
0.4
 40
0.6
 40
0.6
 40
0.6
 40
0.6
 40
1.0
 40
1.0
 40
1.0
 40
1.0
 10
-35.2329
 20
33.9309
 30
0.0
 10
-35.2329
 20
33.9309
 30
0.0
 10
-35.1782
 20
32.9996
 30
0.0
 10
-35.1782
 20
32.9996
 30
0.0
 10
-35.1782
 20
32.9996
 30
0.0
 10
-35.1782
 20
32.9996
 30
0.0
 10
-34.994
 20
32.9996
 30
0.0
 10
-34.994
 20
32.9996
 30
0.0
 10
-34.994
 20
32.9996
 30
0.0
 10
-34.994
 20
32.9996
 30
0.0
 10
-34.9359
 20
33.9309
 30
0.0
 10
-34.9359
 20
33.9309
 30
0.0
 10
-34.9359
 20
33.9309
 30
0.0
 10
-34.9359
 20
33.9309
 30
0.0
 10
-35.2329
 20
33.9309
 30
0.0
 10
-35.2329
 20
33.9309
 30
0.0
  0
SPLINE
  5
A3
330
1F
100
AcDbEntity
  8
DEFAULT_1
 62
   250
100
AcDbSpline
210
0.0
220
0.0
230
1.0
 70
    11
 71
     3
 72
    20
 73
    16
 74
     0
 42
0.0000000001
 43
0.0000000001
 40
0.0
 40
0.0
 40
0.0
 40
0.0
 40
0.2
 40
0.2
 40
0.2
 40
0.2
 40
0.4
 40
0.4
 40
0.4
 40
0.4
 40
0.6
 40
0.6
 40
0.6
 40
0.6
 40
1.0
 40
1.0
 40
1.0
 40
1.0
 10
-34.7244
 20
33.9309
 30
0.0
 10
-34.7244
 20
33.9309
 30
0.0
 10
-34.6663
 20
32.9996
 30
0.0
 10
-34.6663
 20
32.9996
 30
0.0
 10
-34.6663
 20
32.9996
 30
0.0
 10
-34.6663
 20
32.9996
 30
0.0
 10
-34.4854
 20
32.9996
 30
0.0
 10
-34.4854
 20
32.9996
 30
0.0
 10
-34.4854
 20
32.9996
 30
0.0
 10
-34.4854
 20
32.9996
 30
0.0
 10
-34.4273
 20
33.9309
 30
0.0
 10
-34.4273
 20
33.9309
 30
0.0
 10
-34.4273
 20
33.9309
 30
0.0
 10
-34.4273
 20
33.9309
 30
0.0
 10
-34.7244
 20
33.9309
 30
0.0
 10
-34.7244
 20
33.9309
 30
0.0
  0
SPLINE
  5
A4
330
1F
100
AcDbEntity
  8
DEFAULT_1
 62
   250
100
AcDbSpline
210
0.0
220
0.0
230
1.0
 70
    11
 71
     3
 72
   124
 73
   120
 74
     0
 42
0.0000000001
 43
0.0000000001
 40
0.0
 40
0.0
 40
0.0
 40
0.0
 40
0.032258064516129
 40
0.032258064516129
 40
0.032258064516129
 40
0.032258064516129
 40
0.0645161290322581
 40
0.0645161290322581
 40
0.0645161290322581
 40
0.0645161290322581
 40
0.0967741935483871
 40
0.0967741935483871
 40
0.0967741935483871
 40
0.0967741935483871
 40
0.1290322580645161
 40
0.1290322580645161
 40
0.1290322580645161
 40
0.1290322580645161
 40
0.1612903225806452
 40
0.1612903225806452
 40
0.1612903225806452
 40
0.1612903225806452
 40
0.1935483870967742
 40
0.1935483870967742
 40
0.1935483870967742
 40
0.1935483870967742
 40
0.2258064516129032
 40
0.2258064516129032
 40
0.2258064516129032
 40
0.2258064516129032
 40
0.2580645161290323
 40
0.2580645161290323
 40
0.2580645161290323
 40
0.2580645161290323
 40
0.2903225806451613
 40
0.2903225806451613
 40
0.2903225806451613
 40
0.2903225806451613
 40
0.3225806451612903
 40
0.3225806451612903
 40
0.3225806451612903
 40
0.3225806451612903
 40
0.3548387096774194
 40
0.3548387096774194
 40
0.3548387096774194
 40
0.3548387096774194
 40
0.3870967741935484
 40
0.3870967741935484
 40
0.3870967741935484
 40
0.3870967741935484
 40
0.4193548387096774
 40
0.4193548387096774
 40
0.4193548387096774
 40
0.4193548387096774
 40
0.4516129032258064
 40
0.4516129032258064
 40
0.4516129032258064
 40
0.4516129032258064
 40
0.4838709677419355
 40
0.4838709677419355
 40
0.4838709677419355
 40
0.4838709677419355
 40
0.5161290322580645
 40
0.5161290322580645
 40
0.5161290322580645
 40
0.5161290322580645
 40
0.5483870967741935
 40
0.5483870967741935
 40
0.5483870967741935
 40
0.5483870967741935
 40
0.5806451612903226
 40
0.5806451612903226
 40
0.5806451612903226
 40
0.5806451612903226
 40
0.6129032258064516
 40
0.6129032258064516
 40
0.6129032258064516
 40
0.6129032258064516
 40
0.6451612903225806
 40
0.6451612903225806
 40
0.6451612903225806
 40
0.6451612903225806
 40
0.6774193548387096
 40
0.6774193548387096
 40
0.6774193548387096
 40
0.6774193548387096
 40
0.7096774193548387
 40
0.7096774193548387
 40
0.7096774193548387
 40
0.7096774193548387
 40
0.7419354838709677
 40
0.7419354838709677
 40
0.7419354838709677
 40
0.7419354838709677
 40
0.7741935483870968
 40
0.7741935483870968
 40
0.7741935483870968
 40
0.7741935483870968
 40
0.8064516129032258
 40
0.8064516129032258
 40
0.8064516129032258
 40
0.8064516129032258
 40
0.8387096774193549
 40
0.8387096774193549
 40
0.8387096774193549
 40
0.8387096774193549
 40
0.8709677419354839
 40
0.8709677419354839
 40
0.8709677419354839
 40
0.8709677419354839
 40
0.9032258064516129
 40
0.9032258064516129
 40
0.9032258064516129
 40
0.9032258064516129
 40
0.9354838709677419
 40
0.9354838709677419
 40
0.9354838709677419
 40
0.9354838709677419
 40
1.0
 40
1.0
 40
1.0
 40
1.0
 10
-31.5125
 20
5.3415
 30
0.0
 10
-31.5375
 20
5.3415
 30
0.0
 10
-31.5669
 20
5.3403
 30
0.0
 10
-31.6
 20
5.3376
 30
0.0
 10
-31.6
 20
5.3376
 30
0.0
 10
-31.6336
 20
5.3351
 30
0.0
 10
-31.6709
 20
5.3299
 30
0.0
 10
-31.7112
 20
5.3221
 30
0.0
 10
-31.7112
 20
5.3221
 30
0.0
 10
-31.839
 20
5.3026
 30
0.0
 10
-31.9575
 20
5.2613
 30
0.0
 10
-32.0666
 20
5.1986
 30
0.0
 10
-32.0666
 20
5.1986
 30
0.0
 10
-32.1758
 20
5.1358
 30
0.0
 10
-32.2726
 20
5.0529
 30
0.0
 10
-32.3568
 20
4.9496
 30
0.0
 10
-32.3568
 20
4.9496
 30
0.0
 10
-32.4247
 20
4.8668
 30
0.0
 10
-32.4841
 20
4.7685
 30
0.0
 10
-32.5349
 20
4.6546
 30
0.0
 10
-32.5349
 20
4.6546
 30
0.0
 10
-32.5861
 20
4.5415
 30
0.0
 10
-32.626
 20
4.4141
 30
0.0
 10
-32.6548
 20
4.2732
 30
0.0
 10
-32.6548
 20
4.2732
 30
0.0
 10
-32.6834
 20
4.1322
 30
0.0
 10
-32.6979
 20
3.9781
 30
0.0
 10
-32.6983
 20
3.8126
 30
0.0
 10
-32.6983
 20
3.8126
 30
0.0
 10
-32.6979
 20
3.6483
 30
0.0
 10
-32.6808
 20
3.5002
 30
0.0
 10
-32.6477
 20
3.3684
 30
0.0
 10
-32.6477
 20
3.3684
 30
0.0
 10
-32.6141
 20
3.2359
 30
0.0
 10
-32.5659
 20
3.1232
 30
0.0
 10
-32.5033
 20
3.0294
 30
0.0
 10
-32.5033
 20
3.0294
 30
0.0
 10
-32.4412
 20
2.9356
 30
0.0
 10
-32.3662
 20
2.8634
 30
0.0
 10
-32.2794
 20
2.8135
 30
0.0
 10
-32.2794
 20
2.8135
 30
0.0
 10
-32.1924
 20
2.7636
 30
0.0
 10
-32.0951
 20
2.7385
 30
0.0
 10
-31.9875
 20
2.7378
 30
0.0
 10
-31.9875
 20
2.7378
 30
0.0
 10
-31.8819
 20
2.7391
 30
0.0
 10
-31.7872
 20
2.7636
 30
0.0
 10
-31.704
 20
2.8115
 30
0.0
 10
-31.704
 20
2.8115
 30
0.0
 10
-31.6212
 20
2.8601
 30
0.0
 10
-31.5504
 20
2.9259
 30
0.0
 10
-31.4924
 20
3.0095
 30
0.0
 10
-31.4924
 20
3.0095
 30
0.0
 10
-31.4344
 20
3.0929
 30
0.0
 10
-31.39
 20
3.188
 30
0.0
 10
-31.36
 20
3.2947
 30
0.0
 10
-31.36
 20
3.2947
 30
0.0
 10
-31.3294
 20
3.4007
 30
0.0
 10
-31.3139
 20
3.5126
 30
0.0
 10
-31.3139
 20
3.6302
 30
0.0
 10
-31.3139
 20
3.6302
 30
0.0
 10
-31.3144
 20
3.7531
 30
0.0
 10
-31.3294
 20
3.8644
 30
0.0
 10
-31.3588
 20
3.964
 30
0.0
 10
-31.3588
 20
3.964
 30
0.0
 10
-31.3884
 20
4.0635
 30
0.0
 10
-31.4303
 20
4.1496
 30
0.0
 10
-31.4841
 20
4.2213
 30
0.0
 10
-31.4841
 20
4.2213
 30
0.0
 10
-31.5385
 20
4.2925
 30
0.0
 10
-31.6026
 20
4.3481
 30
0.0
 10
-31.6766
 20
4.3863
 30
0.0
 10
-31.6766
 20
4.3863
 30
0.0
 10
-31.7505
 20
4.4251
 30
0.0
 10
-31.8329
 20
4.4444
 30
0.0
 10
-31.9223
 20
4.4452
 30
0.0
 10
-31.9223
 20
4.4452
 30
0.0
 10
-31.9969
 20
4.4444
 30
0.0
 10
-32.0652
 20
4.431
 30
0.0
 10
-32.1271
 20
4.405
 30
0.0
 10
-32.1271
 20
4.405
 30
0.0
 10
-32.1893
 20
4.3784
 30
0.0
 10
-32.2446
 20
4.3436
 30
0.0
 10
-32.2927
 20
4.299
 30
0.0
 10
-32.2927
 20
4.299
 30
0.0
 10
-32.3403
 20
4.2551
 30
0.0
 10
-32.3807
 20
4.2052
 30
0.0
 10
-32.4128
 20
4.1503
 30
0.0
 10
-32.4128
 20
4.1503
 30
0.0
 10
-32.4128
 20
4.1503
 30
0.0
 10
-32.419
 20
4.1503
 30
0.0
 10
-32.419
 20
4.1503
 30
0.0
 10
-32.419
 20
4.1503
 30
0.0
 10
-32.4076
 20
4.2556
 30
0.0
 10
-32.3848
 20
4.3571
 30
0.0
 10
-32.3502
 20
4.4548
 30
0.0
 10
-32.3502
 20
4.4548
 30
0.0
 10
-32.3161
 20
4.5519
 30
0.0
 10
-32.2705
 20
4.641
 30
0.0
 10
-32.2125
 20
4.7219
 30
0.0
 10
-32.2125
 20
4.7219
 30
0.0
 10
-32.1545
 20
4.802
 30
0.0
 10
-32.0848
 20
4.8707
 30
0.0
 10
-32.0025
 20
4.9263
 30
0.0
 10
-32.0025
 20
4.9263
 30
0.0
 10
-31.9202
 20
4.9819
 30
0.0
 10
-31.825
 20
5.0207
 30
0.0
 10
-31.7174
 20
5.0427
 30
0.0
 10
-31.7174
 20
5.0427
 30
0.0
 10
-31.6786
 20
5.0504
 30
0.0
 10
-31.6413
 20
5.0564
 30
0.0
 10
-31.6068
 20
5.0596
 30
0.0
 10
-31.6068
 20
5.0596
 30
0.0
 10
-31.572
 20
5.0634
 30
0.0
 10
-31.5405
 20
5.0641
 30
0.0
 10
-31.5125
 20
5.0621
 30
0.0
 10
-31.5125
 20
5.0621
 30
0.0
 10
-31.5125
 20
5.0621
 30
0.0
 10
-31.5125
 20
5.3415
 30
0.0
 10
-31.5125
 20
5.3415
 30
0.0
  0
SPLINE
  5
A5
330
1F
100
AcDbEntity
  8
DEFAULT_1
 62
   250
100
AcDbSpline
210
0.0
220
0.0
230
1.0
 70
    11
 71
     3
 72
    64
 73
    60
 74
     0
 42
0.0000000001
 43
0.0000000001
 40
0.0
 40
0.0
 40
0.0
 40
0.0
 40
0.0625
 40
0.0625
 40
0.0625
 40
0.0625
 40
0.125
 40
0.125
 40
0.125
 40
0.125
 40
0.1875
 40
0.1875
 40
0.1875
 40
0.1875
 40
0.25
 40
0.25
 40
0.25
 40
0.25
 40
0.3125
 40
0.3125
 40
0.3125
 40
0.3125
 40
0.375
 40
0.375
 40
0.375
 40
0.375
 40
0.4375
 40
0.4375
 40
0.4375
 40
0.4375
 40
0.5
 40
0.5
 40
0.5
 40
0.5
 40
0.5625
 40
0.5625
 40
0.5625
 40
0.5625
 40
0.625
 40
0.625
 40
0.625
 40
0.625
 40
0.6875
 40
0.6875
 40
0.6875
 40
0.6875
 40
0.75
 40
0.75
 40
0.75
 40
0.75
 40
0.8125
 40
0.8125
 40
0.8125
 40
0.8125
 40
0.875
 40
0.875
 40
0.875
 40
0.875
 40
1.0
 40
1.0
 40
1.0
 40
1.0
 10
-31.9812
 20
3.0016
 30
0.0
 10
-32.0537
 20
3.0023
 30
0.0
 10
-32.1174
 20
3.0205
 30
0.0
 10
-32.1728
 20
3.0567
 30
0.0
 10
-32.1728
 20
3.0567
 30
0.0
 10
-32.2276
 20
3.0929
 30
0.0
 10
-32.2741
 20
3.1433
 30
0.0
 10
-32.3119
 20
3.2086
 30
0.0
 10
-32.3119
 20
3.2086
 30
0.0
 10
-32.3497
 20
3.2739
 30
0.0
 10
-32.3781
 20
3.3508
 30
0.0
 10
-32.3977
 20
3.4389
 30
0.0
 10
-32.3977
 20
3.4389
 30
0.0
 10
-32.4174
 20
3.5267
 30
0.0
 10
-32.4273
 20
3.6232
 30
0.0
 10
-32.4283
 20
3.7272
 30
0.0
 10
-32.4283
 20
3.7272
 30
0.0
 10
-32.4283
 20
3.7583
 30
0.0
 10
-32.4251
 20
3.7855
 30
0.0
 10
-32.42
 20
3.8101
 30
0.0
 10
-32.42
 20
3.8101
 30
0.0
 10
-32.4148
 20
3.834
 30
0.0
 10
-32.4081
 20
3.8553
 30
0.0
 10
-32.4003
 20
3.8747
 30
0.0
 10
-32.4003
 20
3.8747
 30
0.0
 10
-32.3751
 20
3.9374
 30
0.0
 10
-32.3423
 20
3.9918
 30
0.0
 10
-32.3016
 20
4.0384
 30
0.0
 10
-32.3016
 20
4.0384
 30
0.0
 10
-32.2611
 20
4.0843
 30
0.0
 10
-32.2157
 20
4.1205
 30
0.0
 10
-32.165
 20
4.1464
 30
0.0
 10
-32.165
 20
4.1464
 30
0.0
 10
-32.1142
 20
4.1717
 30
0.0
 10
-32.0614
 20
4.1851
 30
0.0
 10
-32.0062
 20
4.1851
 30
0.0
 10
-32.0062
 20
4.1851
 30
0.0
 10
-31.9218
 20
4.1846
 30
0.0
 10
-31.8488
 20
4.1613
 30
0.0
 10
-31.7862
 20
4.1153
 30
0.0
 10
-31.7862
 20
4.1153
 30
0.0
 10
-31.7241
 20
4.0694
 30
0.0
 10
-31.6761
 20
4.0034
 30
0.0
 10
-31.6419
 20
3.9174
 30
0.0
 10
-31.6419
 20
3.9174
 30
0.0
 10
-31.6078
 20
3.8314
 30
0.0
 10
-31.5907
 20
3.728
 30
0.0
 10
-31.5901
 20
3.6069
 30
0.0
 10
-31.5901
 20
3.6069
 30
0.0
 10
-31.5907
 20
3.486
 30
0.0
 10
-31.6072
 20
3.38
 30
0.0
 10
-31.6399
 20
3.2895
 30
0.0
 10
-31.6399
 20
3.2895
 30
0.0
 10
-31.6725
 20
3.1989
 30
0.0
 10
-31.7179
 20
3.1291
 30
0.0
 10
-31.7763
 20
3.0786
 30
0.0
 10
-31.7763
 20
3.0786
 30
0.0
 10
-31.8349
 20
3.0282
 30
0.0
 10
-31.9032
 20
3.0023
 30
0.0
 10
-31.9812
 20
3.0016
 30
0.0
  0
SPLINE
  5
A6
330
1F
100
AcDbEntity
  8
DEFAULT_1
 62
   250
100
AcDbSpline
210
0.0
220
0.0
230
1.0
 70
    11
 71
     3
 72
    56
 73
    52
 74
     0
 42
0.0000000001
 43
0.0000000001
 40
0.0
 40
0.0
 40
0.0
 40
0.0
 40
0.0714285714285714
 40
0.0714285714285714
 40
0.0714285714285714
 40
0.0714285714285714
 40
0.1428571428571428
 40
0.1428571428571428
 40
0.1428571428571428
 40
0.1428571428571428
 40
0.2142857142857143
 40
0.2142857142857143
 40
0.2142857142857143
 40
0.2142857142857143
 40
0.2857142857142857
 40
0.2857142857142857
 40
0.2857142857142857
 40
0.2857142857142857
 40
0.3571428571428572
 40
0.3571428571428572
 40
0.3571428571428572
 40
0.3571428571428572
 40
0.4285714285714285
 40
0.4285714285714285
 40
0.4285714285714285
 40
0.4285714285714285
 40
0.5
 40
0.5
 40
0.5
 40
0.5
 40
0.5714285714285714
 40
0.5714285714285714
 40
0.5714285714285714
 40
0.5714285714285714
 40
0.6428571428571429
 40
0.6428571428571429
 40
0.6428571428571429
 40
0.6428571428571429
 40
0.7142857142857143
 40
0.7142857142857143
 40
0.7142857142857143
 40
0.7142857142857143
 40
0.7857142857142857
 40
0.7857142857142857
 40
0.7857142857142857
 40
0.7857142857142857
 40
0.8571428571428571
 40
0.8571428571428571
 40
0.8571428571428571
 40
0.8571428571428571
 40
1.0
 40
1.0
 40
1.0
 40
1.0
 10
-30.3951
 20
5.3453
 30
0.0
 10
-30.498
 20
5.3453
 30
0.0
 10
-30.5922
 20
5.3169
 30
0.0
 10
-30.678
 20
5.2599
 30
0.0
 10
-30.678
 20
5.2599
 30
0.0
 10
-30.764
 20
5.2031
 30
0.0
 10
-30.8379
 20
5.1197
 30
0.0
 10
-30.901
 20
5.0085
 30
0.0
 10
-30.901
 20
5.0085
 30
0.0
 10
-30.9641
 20
4.8971
 30
0.0
 10
-31.0128
 20
4.7601
 30
0.0
 10
-31.0475
 20
4.5971
 30
0.0
 10
-31.0475
 20
4.5971
 30
0.0
 10
-31.0816
 20
4.4342
 30
0.0
 10
-31.0991
 20
4.2466
 30
0.0
 10
-31.0997
 20
4.0337
 30
0.0
 10
-31.0997
 20
4.0337
 30
0.0
 10
-31.0966
 20
3.755
 30
0.0
 10
-31.0671
 20
3.5197
 30
0.0
 10
-31.0108
 20
3.327
 30
0.0
 10
-31.0108
 20
3.327
 30
0.0
 10
-30.9544
 20
3.1342
 30
0.0
 10
-30.8762
 20
2.9882
 30
0.0
 10
-30.7769
 20
2.8885
 30
0.0
 10
-30.7769
 20
2.8885
 30
0.0
 10
-30.6776
 20
2.7889
 30
0.0
 10
-30.5617
 20
2.7385
 30
0.0
 10
-30.4293
 20
2.7378
 30
0.0
 10
-30.4293
 20
2.7378
 30
0.0
 10
-30.2808
 20
2.7385
 30
0.0
 10
-30.1545
 20
2.7902
 30
0.0
 10
-30.0501
 20
2.8924
 30
0.0
 10
-30.0501
 20
2.8924
 30
0.0
 10
-29.9455
 20
2.9946
 30
0.0
 10
-29.8658
 20
3.1446
 30
0.0
 10
-29.811
 20
3.3426
 30
0.0
 10
-29.811
 20
3.3426
 30
0.0
 10
-29.7557
 20
3.5404
 30
0.0
 10
-29.7282
 20
3.7823
 30
0.0
 10
-29.7277
 20
4.0687
 30
0.0
 10
-29.7277
 20
4.0687
 30
0.0
 10
-29.7282
 20
4.3372
 30
0.0
 10
-29.7546
 20
4.5668
 30
0.0
 10
-29.8069
 20
4.7569
 30
0.0
 10
-29.8069
 20
4.7569
 30
0.0
 10
-29.8591
 20
4.947
 30
0.0
 10
-29.9351
 20
5.0924
 30
0.0
 10
-30.0344
 20
5.1927
 30
0.0
 10
-30.0344
 20
5.1927
 30
0.0
 10
-30.1338
 20
5.2936
 30
0.0
 10
-30.2538
 20
5.3447
 30
0.0
 10
-30.3951
 20
5.3453
 30
0.0
  0
SPLINE
  5
A7
330
1F
100
AcDbEntity
  8
DEFAULT_1
 62
   250
100
AcDbSpline
210
0.0
220
0.0
230
1.0
 70
    11
 71
     3
 72
    56
 73
    52
 74
     0
 42
0.0000000001
 43
0.0000000001
 40
0.0
 40
0.0
 40
0.0
 40
0.0
 40
0.0714285714285714
 40
0.0714285714285714
 40
0.0714285714285714
 40
0.0714285714285714
 40
0.1428571428571428
 40
0.1428571428571428
 40
0.1428571428571428
 40
0.1428571428571428
 40
0.2142857142857143
 40
0.2142857142857143
 40
0.2142857142857143
 40
0.2142857142857143
 40
0.2857142857142857
 40
0.2857142857142857
 40
0.2857142857142857
 40
0.2857142857142857
 40
0.3571428571428572
 40
0.3571428571428572
 40
0.3571428571428572
 40
0.3571428571428572
 40
0.4285714285714285
 40
0.4285714285714285
 40
0.4285714285714285
 40
0.4285714285714285
 40
0.5
 40
0.5
 40
0.5
 40
0.5
 40
0.5714285714285714
 40
0.5714285714285714
 40
0.5714285714285714
 40
0.5714285714285714
 40
0.6428571428571429
 40
0.6428571428571429
 40
0.6428571428571429
 40
0.6428571428571429
 40
0.7142857142857143
 40
0.7142857142857143
 40
0.7142857142857143
 40
0.7142857142857143
 40
0.7857142857142857
 40
0.7857142857142857
 40
0.7857142857142857
 40
0.7857142857142857
 40
0.8571428571428571
 40
0.8571428571428571
 40
0.8571428571428571
 40
0.8571428571428571
 40
1.0
 40
1.0
 40
1.0
 40
1.0
 10
-30.4138
 20
5.0815
 30
0.0
 10
-30.3423
 20
5.0809
 30
0.0
 10
-30.2808
 20
5.0569
 30
0.0
 10
-30.229
 20
5.0085
 30
0.0
 10
-30.229
 20
5.0085
 30
0.0
 10
-30.1773
 20
4.9599
 30
0.0
 10
-30.1349
 20
4.8906
 30
0.0
 10
-30.1017
 20
4.8003
 30
0.0
 10
-30.1017
 20
4.8003
 30
0.0
 10
-30.0686
 20
4.7102
 30
0.0
 10
-30.0437
 20
4.6015
 30
0.0
 10
-30.0277
 20
4.4762
 30
0.0
 10
-30.0277
 20
4.4762
 30
0.0
 10
-30.0118
 20
4.3501
 30
0.0
 10
-30.004
 20
4.2091
 30
0.0
 10
-30.004
 20
4.0533
 30
0.0
 10
-30.004
 20
4.0533
 30
0.0
 10
-30.004
 20
3.8372
 30
0.0
 10
-30.0189
 20
3.651
 30
0.0
 10
-30.0489
 20
3.4945
 30
0.0
 10
-30.0489
 20
3.4945
 30
0.0
 10
-30.0785
 20
3.3374
 30
0.0
 10
-30.1239
 20
3.2163
 30
0.0
 10
-30.1845
 20
3.1309
 30
0.0
 10
-30.1845
 20
3.1309
 30
0.0
 10
-30.245
 20
3.0456
 30
0.0
 10
-30.3217
 20
3.0029
 30
0.0
 10
-30.4138
 20
3.0016
 30
0.0
 10
-30.4138
 20
3.0016
 30
0.0
 10
-30.497
 20
3.0023
 30
0.0
 10
-30.5689
 20
3.0423
 30
0.0
 10
-30.6304
 20
3.1227
 30
0.0
 10
-30.6304
 20
3.1227
 30
0.0
 10
-30.6915
 20
3.2029
 30
0.0
 10
-30.7386
 20
3.3192
 30
0.0
 10
-30.7723
 20
3.4719
 30
0.0
 10
-30.7723
 20
3.4719
 30
0.0
 10
-30.8059
 20
3.625
 30
0.0
 10
-30.823
 20
3.8106
 30
0.0
 10
-30.8235
 20
4.03
 30
0.0
 10
-30.8235
 20
4.03
 30
0.0
 10
-30.823
 20
4.2595
 30
0.0
 10
-30.8049
 20
4.4516
 30
0.0
 10
-30.7696
 20
4.6082
 30
0.0
 10
-30.7696
 20
4.6082
 30
0.0
 10
-30.7344
 20
4.764
 30
0.0
 10
-30.6864
 20
4.8817
 30
0.0
 10
-30.6248
 20
4.9618
 30
0.0
 10
-30.6248
 20
4.9618
 30
0.0
 10
-30.5633
 20
5.0415
 30
0.0
 10
-30.4928
 20
5.0815
 30
0.0
 10
-30.4138
 20
5.0815
 30
0.0
  0
SPLINE
  5
A8
330
1F
100
AcDbEntity
  8
DEFAULT_1
 62
   250
100
AcDbSpline
210
0.0
220
0.0
230
1.0
 70
    11
 71
     3
 72
    36
 73
    32
 74
     0
 42
0.0000000001
 43
0.0000000001
 40
0.0
 40
0.0
 40
0.0
 40
0.0
 40
0.1111111111111111
 40
0.1111111111111111
 40
0.1111111111111111
 40
0.1111111111111111
 40
0.2222222222222222
 40
0.2222222222222222
 40
0.2222222222222222
 40
0.2222222222222222
 40
0.3333333333333333
 40
0.3333333333333333
 40
0.3333333333333333
 40
0.3333333333333333
 40
0.4444444444444444
 40
0.4444444444444444
 40
0.4444444444444444
 40
0.4444444444444444
 40
0.5555555555555556
 40
0.5555555555555556
 40
0.5555555555555556
 40
0.5555555555555556
 40
0.6666666666666666
 40
0.6666666666666666
 40
0.6666666666666666
 40
0.6666666666666666
 40
0.7777777777777778
 40
0.7777777777777778
 40
0.7777777777777778
 40
0.7777777777777778
 40
1.0
 40
1.0
 40
1.0
 40
1.0
 10
-50.4721
 20
-21.2145
 30
0.0
 10
-50.4721
 20
-21.2145
 30
0.0
 10
-50.4721
 20
-20.9507
 30
0.0
 10
-50.4721
 20
-20.9507
 30
0.0
 10
-50.4721
 20
-20.9507
 30
0.0
 10
-50.4721
 20
-20.9507
 30
0.0
 10
-52.9942
 20
-20.9507
 30
0.0
 10
-52.9942
 20
-20.9507
 30
0.0
 10
-52.9942
 20
-20.9507
 30
0.0
 10
-52.9942
 20
-20.9507
 30
0.0
 10
-52.9942
 20
-21.1835
 30
0.0
 10
-52.9942
 20
-21.1835
 30
0.0
 10
-52.9942
 20
-21.1835
 30
0.0
 10
-52.9942
 20
-21.1835
 30
0.0
 10
-52.6994
 20
-21.6243
 30
0.0
 10
-52.6994
 20
-21.6243
 30
0.0
 10
-52.6994
 20
-21.6243
 30
0.0
 10
-52.6994
 20
-21.6243
 30
0.0
 10
-52.4393
 20
-21.5715
 30
0.0
 10
-52.4393
 20
-21.5715
 30
0.0
 10
-52.4393
 20
-21.5715
 30
0.0
 10
-52.4393
 20
-21.5715
 30
0.0
 10
-52.676
 20
-21.2207
 30
0.0
 10
-52.676
 20
-21.2207
 30
0.0
 10
-52.676
 20
-21.2207
 30
0.0
 10
-52.676
 20
-21.2207
 30
0.0
 10
-52.676
 20
-21.2145
 30
0.0
 10
-52.676
 20
-21.2145
 30
0.0
 10
-52.676
 20
-21.2145
 30
0.0
 10
-52.676
 20
-21.2145
 30
0.0
 10
-50.4721
 20
-21.2145
 30
0.0
 10
-50.4721
 20
-21.2145
 30
0.0
  0
SPLINE
  5
A9
330
1F
100
AcDbEntity
  8
DEFAULT_1
 62
   250
100
AcDbSpline
210
0.0
220
0.0
230
1.0
 70
    11
 71
     3
 72
    36
 73
    32
 74
     0
 42
0.0000000001
 43
0.0000000001
 40
0.0
 40
0.0
 40
0.0
 40
0.0
 40
0.1111111111111111
 40
0.1111111111111111
 40
0.1111111111111111
 40
0.1111111111111111
 40
0.2222222222222222
 40
0.2222222222222222
 40
0.2222222222222222
 40
0.2222222222222222
 40
0.3333333333333333
 40
0.3333333333333333
 40
0.3333333333333333
 40
0.3333333333333333
 40
0.4444444444444444
 40
0.4444444444444444
 40
0.4444444444444444
 40
0.4444444444444444
 40
0.5555555555555556
 40
0.5555555555555556
 40
0.5555555555555556
 40
0.5555555555555556
 40
0.6666666666666666
 40
0.6666666666666666
 40
0.6666666666666666
 40
0.6666666666666666
 40
0.7777777777777778
 40
0.7777777777777778
 40
0.7777777777777778
 40
0.7777777777777778
 40
1.0
 40
1.0
 40
1.0
 40
1.0
 10
-50.4721
 20
-19.6221
 30
0.0
 10
-50.4721
 20
-19.6221
 30
0.0
 10
-50.4721
 20
-19.3583
 30
0.0
 10
-50.4721
 20
-19.3583
 30
0.0
 10
-50.4721
 20
-19.3583
 30
0.0
 10
-50.4721
 20
-19.3583
 30
0.0
 10
-52.9942
 20
-19.3583
 30
0.0
 10
-52.9942
 20
-19.3583
 30
0.0
 10
-52.9942
 20
-19.3583
 30
0.0
 10
-52.9942
 20
-19.3583
 30
0.0
 10
-52.9942
 20
-19.5911
 30
0.0
 10
-52.9942
 20
-19.5911
 30
0.0
 10
-52.9942
 20
-19.5911
 30
0.0
 10
-52.9942
 20
-19.5911
 30
0.0
 10
-52.6994
 20
-20.0319
 30
0.0
 10
-52.6994
 20
-20.0319
 30
0.0
 10
-52.6994
 20
-20.0319
 30
0.0
 10
-52.6994
 20
-20.0319
 30
0.0
 10
-52.4393
 20
-19.9791
 30
0.0
 10
-52.4393
 20
-19.9791
 30
0.0
 10
-52.4393
 20
-19.9791
 30
0.0
 10
-52.4393
 20
-19.9791
 30
0.0
 10
-52.676
 20
-19.6283
 30
0.0
 10
-52.676
 20
-19.6283
 30
0.0
 10
-52.676
 20
-19.6283
 30
0.0
 10
-52.676
 20
-19.6283
 30
0.0
 10
-52.676
 20
-19.6221
 30
0.0
 10
-52.676
 20
-19.6221
 30
0.0
 10
-52.676
 20
-19.6221
 30
0.0
 10
-52.676
 20
-19.6221
 30
0.0
 10
-50.4721
 20
-19.6221
 30
0.0
 10
-50.4721
 20
-19.6221
 30
0.0
  0
SPLINE
  5
AA
330
1F
100
AcDbEntity
  8
DEFAULT_1
 62
   250
100
AcDbSpline
210
0.0
220
0.0
230
1.0
 70
    11
 71
     3
 72
   132
 73
   128
 74
     0
 42
0.0000000001
 43
0.0000000001
 40
0.0
 40
0.0
 40
0.0
 40
0.0
 40
0.0303030303030303
 40
0.0303030303030303
 40
0.0303030303030303
 40
0.0303030303030303
 40
0.0606060606060606
 40
0.0606060606060606
 40
0.0606060606060606
 40
0.0606060606060606
 40
0.0909090909090909
 40
0.0909090909090909
 40
0.0909090909090909
 40
0.0909090909090909
 40
0.1212121212121212
 40
0.1212121212121212
 40
0.1212121212121212
 40
0.1212121212121212
 40
0.1515151515151515
 40
0.1515151515151515
 40
0.1515151515151515
 40
0.1515151515151515
 40
0.1818181818181818
 40
0.1818181818181818
 40
0.1818181818181818
 40
0.1818181818181818
 40
0.2121212121212121
 40
0.2121212121212121
 40
0.2121212121212121
 40
0.2121212121212121
 40
0.2424242424242424
 40
0.2424242424242424
 40
0.2424242424242424
 40
0.2424242424242424
 40
0.2727272727272727
 40
0.2727272727272727
 40
0.2727272727272727
 40
0.2727272727272727
 40
0.303030303030303
 40
0.303030303030303
 40
0.303030303030303
 40
0.303030303030303
 40
0.3333333333333333
 40
0.3333333333333333
 40
0.3333333333333333
 40
0.3333333333333333
 40
0.3636363636363636
 40
0.3636363636363636
 40
0.3636363636363636
 40
0.3636363636363636
 40
0.3939393939393939
 40
0.3939393939393939
 40
0.3939393939393939
 40
0.3939393939393939
 40
0.4242424242424243
 40
0.4242424242424243
 40
0.4242424242424243
 40
0.4242424242424243
 40
0.4545454545454545
 40
0.4545454545454545
 40
0.4545454545454545
 40
0.4545454545454545
 40
0.4848484848484849
 40
0.4848484848484849
 40
0.4848484848484849
 40
0.4848484848484849
 40
0.5151515151515151
 40
0.5151515151515151
 40
0.5151515151515151
 40
0.5151515151515151
 40
0.5454545454545454
 40
0.5454545454545454
 40
0.5454545454545454
 40
0.5454545454545454
 40
0.5757575757575758
 40
0.5757575757575758
 40
0.5757575757575758
 40
0.5757575757575758
 40
0.6060606060606061
 40
0.6060606060606061
 40
0.6060606060606061
 40
0.6060606060606061
 40
0.6363636363636364
 40
0.6363636363636364
 40
0.6363636363636364
 40
0.6363636363636364
 40
0.6666666666666666
 40
0.6666666666666666
 40
0.6666666666666666
 40
0.6666666666666666
 40
0.696969696969697
 40
0.696969696969697
 40
0.696969696969697
 40
0.696969696969697
 40
0.7272727272727273
 40
0.7272727272727273
 40
0.7272727272727273
 40
0.7272727272727273
 40
0.7575757575757576
 40
0.7575757575757576
 40
0.7575757575757576
 40
0.7575757575757576
 40
0.7878787878787878
 40
0.7878787878787878
 40
0.7878787878787878
 40
0.7878787878787878
 40
0.8181818181818182
 40
0.8181818181818182
 40
0.8181818181818182
 40
0.8181818181818182
 40
0.8484848484848485
 40
0.8484848484848485
 40
0.8484848484848485
 40
0.8484848484848485
 40
0.8787878787878788
 40
0.8787878787878788
 40
0.8787878787878788
 40
0.8787878787878788
 40
0.9090909090909091
 40
0.9090909090909091
 40
0.9090909090909091
 40
0.9090909090909091
 40
0.9393939393939394
 40
0.9393939393939394
 40
0.9393939393939394
 40
0.9393939393939394
 40
1.0
 40
1.0
 40
1.0
 40
1.0
 10
-52.9942
 20
-17.4182
 30
0.0
 10
-52.9942
 20
-17.4182
 30
0.0
 10
-52.9942
 20
-18.3835
 30
0.0
 10
-52.9942
 20
-18.3835
 30
0.0
 10
-52.9942
 20
-18.3835
 30
0.0
 10
-52.9942
 20
-18.3835
 30
0.0
 10
-51.7836
 20
-18.5139
 30
0.0
 10
-51.7836
 20
-18.5139
 30
0.0
 10
-51.7836
 20
-18.5139
 30
0.0
 10
-51.7901
 20
-18.4766
 30
0.0
 10
-51.7953
 20
-18.4353
 30
0.0
 10
-51.7998
 20
-18.3887
 30
0.0
 10
-51.7998
 20
-18.3887
 30
0.0
 10
-51.8043
 20
-18.3427
 30
0.0
 10
-51.8069
 20
-18.2899
 30
0.0
 10
-51.8069
 20
-18.2314
 30
0.0
 10
-51.8069
 20
-18.2314
 30
0.0
 10
-51.8062
 20
-18.098
 30
0.0
 10
-51.7824
 20
-17.9888
 30
0.0
 10
-51.7357
 20
-17.904
 30
0.0
 10
-51.7357
 20
-17.904
 30
0.0
 10
-51.6886
 20
-17.8186
 30
0.0
 10
-51.6238
 20
-17.7555
 30
0.0
 10
-51.5412
 20
-17.7146
 30
0.0
 10
-51.5412
 20
-17.7146
 30
0.0
 10
-51.4578
 20
-17.6737
 30
0.0
 10
-51.3613
 20
-17.6535
 30
0.0
 10
-51.2521
 20
-17.6541
 30
0.0
 10
-51.2521
 20
-17.6541
 30
0.0
 10
-51.1672
 20
-17.6535
 30
0.0
 10
-51.0917
 20
-17.666
 30
0.0
 10
-51.0245
 20
-17.6914
 30
0.0
 10
-51.0245
 20
-17.6914
 30
0.0
 10
-50.9565
 20
-17.7162
 30
0.0
 10
-50.8997
 20
-17.7508
 30
0.0
 10
-50.8518
 20
-17.7948
 30
0.0
 10
-50.8518
 20
-17.7948
 30
0.0
 10
-50.8044
 20
-17.8387
 30
0.0
 10
-50.7684
 20
-17.8895
 30
0.0
 10
-50.7431
 20
-17.9469
 30
0.0
 10
-50.7431
 20
-17.9469
 30
0.0
 10
-50.7178
 20
-18.0043
 30
0.0
 10
-50.7049
 20
-18.0648
 30
0.0
 10
-50.7049
 20
-18.129
 30
0.0
 10
-50.7049
 20
-18.129
 30
0.0
 10
-50.7056
 20
-18.1917
 30
0.0
 10
-50.7126
 20
-18.2506
 30
0.0
 10
-50.7275
 20
-18.306
 30
0.0
 10
-50.7275
 20
-18.306
 30
0.0
 10
-50.7418
 20
-18.3613
 30
0.0
 10
-50.7592
 20
-18.411
 30
0.0
 10
-50.7806
 20
-18.4549
 30
0.0
 10
-50.7806
 20
-18.4549
 30
0.0
 10
-50.8019
 20
-18.499
 30
0.0
 10
-50.8233
 20
-18.5351
 30
0.0
 10
-50.8446
 20
-18.5636
 30
0.0
 10
-50.8446
 20
-18.5636
 30
0.0
 10
-50.8446
 20
-18.5636
 30
0.0
 10
-50.5845
 20
-18.6318
 30
0.0
 10
-50.5845
 20
-18.6318
 30
0.0
 10
-50.5845
 20
-18.6318
 30
0.0
 10
-50.5582
 20
-18.5983
 30
0.0
 10
-50.5336
 20
-18.5564
 30
0.0
 10
-50.5096
 20
-18.5062
 30
0.0
 10
-50.5096
 20
-18.5062
 30
0.0
 10
-50.4863
 20
-18.4559
 30
0.0
 10
-50.4676
 20
-18.3991
 30
0.0
 10
-50.4527
 20
-18.3354
 30
0.0
 10
-50.4527
 20
-18.3354
 30
0.0
 10
-50.4378
 20
-18.2713
 30
0.0
 10
-50.4301
 20
-18.2024
 30
0.0
 10
-50.4294
 20
-18.129
 30
0.0
 10
-50.4294
 20
-18.129
 30
0.0
 10
-50.4301
 20
-18.0188
 30
0.0
 10
-50.452
 20
-17.9185
 30
0.0
 10
-50.4947
 20
-17.8268
 30
0.0
 10
-50.4947
 20
-17.8268
 30
0.0
 10
-50.5374
 20
-17.7353
 30
0.0
 10
-50.5976
 20
-17.6561
 30
0.0
 10
-50.6751
 20
-17.5894
 30
0.0
 10
-50.6751
 20
-17.5894
 30
0.0
 10
-50.7528
 20
-17.5221
 30
0.0
 10
-50.8439
 20
-17.4704
 30
0.0
 10
-50.9481
 20
-17.4337
 30
0.0
 10
-50.9481
 20
-17.4337
 30
0.0
 10
-51.0528
 20
-17.397
 30
0.0
 10
-51.1672
 20
-17.3783
 30
0.0
 10
-51.2908
 20
-17.3777
 30
0.0
 10
-51.2908
 20
-17.3777
 30
0.0
 10
-51.3955
 20
-17.3783
 30
0.0
 10
-51.49
 20
-17.3918
 30
0.0
 10
-51.5734
 20
-17.4176
 30
0.0
 10
-51.5734
 20
-17.4176
 30
0.0
 10
-51.6568
 20
-17.4435
 30
0.0
 10
-51.7286
 20
-17.4776
 30
0.0
 10
-51.7894
 20
-17.5211
 30
0.0
 10
-51.7894
 20
-17.5211
 30
0.0
 10
-51.8502
 20
-17.5645
 30
0.0
 10
-51.8988
 20
-17.6132
 30
0.0
 10
-51.935
 20
-17.6664
 30
0.0
 10
-51.935
 20
-17.6664
 30
0.0
 10
-51.9829
 20
-17.7291
 30
0.0
 10
-52.0177
 20
-17.7968
 30
0.0
 10
-52.039
 20
-17.8709
 30
0.0
 10
-52.039
 20
-17.8709
 30
0.0
 10
-52.0604
 20
-17.9449
 30
0.0
 10
-52.0715
 20
-18.0214
 30
0.0
 10
-52.0708
 20
-18.1011
 30
0.0
 10
-52.0708
 20
-18.1011
 30
0.0
 10
-52.0708
 20
-18.1373
 30
0.0
 10
-52.07
 20
-18.1683
 30
0.0
 10
-52.0682
 20
-18.1937
 30
0.0
 10
-52.0682
 20
-18.1937
 30
0.0
 10
-52.0663
 20
-18.2191
 30
0.0
 10
-52.063
 20
-18.2429
 30
0.0
 10
-52.0591
 20
-18.2656
 30
0.0
 10
-52.0591
 20
-18.2656
 30
0.0
 10
-52.0591
 20
-18.2656
 30
0.0
 10
-52.7071
 20
-18.1879
 30
0.0
 10
-52.7071
 20
-18.1879
 30
0.0
 10
-52.7071
 20
-18.1879
 30
0.0
 10
-52.7071
 20
-18.1879
 30
0.0
 10
-52.7071
 20
-17.4182
 30
0.0
 10
-52.7071
 20
-17.4182
 30
0.0
 10
-52.7071
 20
-17.4182
 30
0.0
 10
-52.7071
 20
-17.4182
 30
0.0
 10
-52.9942
 20
-17.4182
 30
0.0
 10
-52.9942
 20
-17.4182
 30
0.0
  0
SPLINE
  5
AB
330
1F
100
AcDbEntity
  8
DEFAULT_1
 62
   250
100
AcDbSpline
210
0.0
220
0.0
230
1.0
 70
    11
 71
     3
 72
   188
 73
   184
 74
     0
 42
0.0000000001
 43
0.0000000001
 40
0.0
 40
0.0
 40
0.0
 40
0.0
 40
0.0212765957446809
 40
0.0212765957446809
 40
0.0212765957446809
 40
0.0212765957446809
 40
0.0425531914893617
 40
0.0425531914893617
 40
0.0425531914893617
 40
0.0425531914893617
 40
0.0638297872340425
 40
0.0638297872340425
 40
0.0638297872340425
 40
0.0638297872340425
 40
0.0851063829787234
 40
0.0851063829787234
 40
0.0851063829787234
 40
0.0851063829787234
 40
0.1063829787234043
 40
0.1063829787234043
 40
0.1063829787234043
 40
0.1063829787234043
 40
0.1276595744680851
 40
0.1276595744680851
 40
0.1276595744680851
 40
0.1276595744680851
 40
0.148936170212766
 40
0.148936170212766
 40
0.148936170212766
 40
0.148936170212766
 40
0.1702127659574468
 40
0.1702127659574468
 40
0.1702127659574468
 40
0.1702127659574468
 40
0.1914893617021277
 40
0.1914893617021277
 40
0.1914893617021277
 40
0.1914893617021277
 40
0.2127659574468085
 40
0.2127659574468085
 40
0.2127659574468085
 40
0.2127659574468085
 40
0.2340425531914894
 40
0.2340425531914894
 40
0.2340425531914894
 40
0.2340425531914894
 40
0.2553191489361702
 40
0.2553191489361702
 40
0.2553191489361702
 40
0.2553191489361702
 40
0.2765957446808511
 40
0.2765957446808511
 40
0.2765957446808511
 40
0.2765957446808511
 40
0.2978723404255319
 40
0.2978723404255319
 40
0.2978723404255319
 40
0.2978723404255319
 40
0.3191489361702128
 40
0.3191489361702128
 40
0.3191489361702128
 40
0.3191489361702128
 40
0.3404255319148936
 40
0.3404255319148936
 40
0.3404255319148936
 40
0.3404255319148936
 40
0.3617021276595745
 40
0.3617021276595745
 40
0.3617021276595745
 40
0.3617021276595745
 40
0.3829787234042553
 40
0.3829787234042553
 40
0.3829787234042553
 40
0.3829787234042553
 40
0.4042553191489361
 40
0.4042553191489361
 40
0.4042553191489361
 40
0.4042553191489361
 40
0.425531914893617
 40
0.425531914893617
 40
0.425531914893617
 40
0.425531914893617
 40
0.4468085106382979
 40
0.4468085106382979
 40
0.4468085106382979
 40
0.4468085106382979
 40
0.4680851063829787
 40
0.4680851063829787
 40
0.4680851063829787
 40
0.4680851063829787
 40
0.4893617021276596
 40
0.4893617021276596
 40
0.4893617021276596
 40
0.4893617021276596
 40
0.5106382978723404
 40
0.5106382978723404
 40
0.5106382978723404
 40
0.5106382978723404
 40
0.5319148936170213
 40
0.5319148936170213
 40
0.5319148936170213
 40
0.5319148936170213
 40
0.5531914893617021
 40
0.5531914893617021
 40
0.5531914893617021
 40
0.5531914893617021
 40
0.574468085106383
 40
0.574468085106383
 40
0.574468085106383
 40
0.574468085106383
 40
0.5957446808510638
 40
0.5957446808510638
 40
0.5957446808510638
 40
0.5957446808510638
 40
0.6170212765957447
 40
0.6170212765957447
 40
0.6170212765957447
 40
0.6170212765957447
 40
0.6382978723404256
 40
0.6382978723404256
 40
0.6382978723404256
 40
0.6382978723404256
 40
0.6595744680851063
 40
0.6595744680851063
 40
0.6595744680851063
 40
0.6595744680851063
 40
0.6808510638297872
 40
0.6808510638297872
 40
0.6808510638297872
 40
0.6808510638297872
 40
0.7021276595744681
 40
0.7021276595744681
 40
0.7021276595744681
 40
0.7021276595744681
 40
0.723404255319149
 40
0.723404255319149
 40
0.723404255319149
 40
0.723404255319149
 40
0.7446808510638298
 40
0.7446808510638298
 40
0.7446808510638298
 40
0.7446808510638298
 40
0.7659574468085106
 40
0.7659574468085106
 40
0.7659574468085106
 40
0.7659574468085106
 40
0.7872340425531915
 40
0.7872340425531915
 40
0.7872340425531915
 40
0.7872340425531915
 40
0.8085106382978723
 40
0.8085106382978723
 40
0.8085106382978723
 40
0.8085106382978723
 40
0.8297872340425532
 40
0.8297872340425532
 40
0.8297872340425532
 40
0.8297872340425532
 40
0.851063829787234
 40
0.851063829787234
 40
0.851063829787234
 40
0.851063829787234
 40
0.8723404255319149
 40
0.8723404255319149
 40
0.8723404255319149
 40
0.8723404255319149
 40
0.8936170212765957
 40
0.8936170212765957
 40
0.8936170212765957
 40
0.8936170212765957
 40
0.9148936170212766
 40
0.9148936170212766
 40
0.9148936170212766
 40
0.9148936170212766
 40
0.9361702127659575
 40
0.9361702127659575
 40
0.9361702127659575
 40
0.9361702127659575
 40
0.9574468085106383
 40
0.9574468085106383
 40
0.9574468085106383
 40
0.9574468085106383
 40
1.0
 40
1.0
 40
1.0
 40
1.0
 10
2.5239
 20
11.3747
 30
0.0
 10
2.5239
 20
11.3747
 30
0.0
 10
2.791
 20
11.3747
 30
0.0
 10
2.791
 20
11.3747
 30
0.0
 10
2.791
 20
11.3747
 30
0.0
 10
2.791
 20
11.3747
 30
0.0
 10
2.791
 20
12.5038
 30
0.0
 10
2.791
 20
12.5038
 30
0.0
 10
2.791
 20
12.5038
 30
0.0
 10
2.791
 20
12.5336
 30
0.0
 10
2.7925
 20
12.5627
 30
0.0
 10
2.7961
 20
12.5917
 30
0.0
 10
2.7961
 20
12.5917
 30
0.0
 10
2.7993
 20
12.621
 30
0.0
 10
2.8049
 20
12.6468
 30
0.0
 10
2.8128
 20
12.6706
 30
0.0
 10
2.8128
 20
12.6706
 30
0.0
 10
2.8272
 20
12.7289
 30
0.0
 10
2.8505
 20
12.7833
 30
0.0
 10
2.8825
 20
12.8349
 30
0.0
 10
2.8825
 20
12.8349
 30
0.0
 10
2.9141
 20
12.8867
 30
0.0
 10
2.9529
 20
12.9287
 30
0.0
 10
2.9984
 20
12.9617
 30
0.0
 10
2.9984
 20
12.9617
 30
0.0
 10
3.0439
 20
12.994
 30
0.0
 10
3.0951
 20
13.0116
 30
0.0
 10
3.1511
 20
13.0121
 30
0.0
 10
3.1511
 20
13.0121
 30
0.0
 10
3.2204
 20
13.0116
 30
0.0
 10
3.2783
 20
12.9895
 30
0.0
 10
3.325
 20
12.9456
 30
0.0
 10
3.325
 20
12.9456
 30
0.0
 10
3.3714
 20
12.9022
 30
0.0
 10
3.4062
 20
12.8421
 30
0.0
 10
3.4294
 20
12.7659
 30
0.0
 10
3.4294
 20
12.7659
 30
0.0
 10
3.4527
 20
12.6887
 30
0.0
 10
3.4646
 20
12.6001
 30
0.0
 10
3.4646
 20
12.4999
 30
0.0
 10
3.4646
 20
12.4999
 30
0.0
 10
3.4646
 20
12.4999
 30
0.0
 10
3.4646
 20
11.3747
 30
0.0
 10
3.4646
 20
11.3747
 30
0.0
 10
3.4646
 20
11.3747
 30
0.0
 10
3.4646
 20
11.3747
 30
0.0
 10
3.7316
 20
11.3747
 30
0.0
 10
3.7316
 20
11.3747
 30
0.0
 10
3.7316
 20
11.3747
 30
0.0
 10
3.7316
 20
11.3747
 30
0.0
 10
3.7316
 20
12.5349
 30
0.0
 10
3.7316
 20
12.5349
 30
0.0
 10
3.7316
 20
12.5349
 30
0.0
 10
3.7316
 20
12.5659
 30
0.0
 10
3.7336
 20
12.5957
 30
0.0
 10
3.7377
 20
12.6247
 30
0.0
 10
3.7377
 20
12.6247
 30
0.0
 10
3.7419
 20
12.6532
 30
0.0
 10
3.7471
 20
12.6805
 30
0.0
 10
3.7532
 20
12.7056
 30
0.0
 10
3.7532
 20
12.7056
 30
0.0
 10
3.7699
 20
12.7607
 30
0.0
 10
3.7937
 20
12.8118
 30
0.0
 10
3.8247
 20
12.8577
 30
0.0
 10
3.8247
 20
12.8577
 30
0.0
 10
3.8557
 20
12.9036
 30
0.0
 10
3.8924
 20
12.9411
 30
0.0
 10
3.9354
 20
12.9689
 30
0.0
 10
3.9354
 20
12.9689
 30
0.0
 10
3.9783
 20
12.9972
 30
0.0
 10
4.0264
 20
13.0116
 30
0.0
 10
4.0792
 20
13.0121
 30
0.0
 10
4.0792
 20
13.0121
 30
0.0
 10
4.1517
 20
13.0121
 30
0.0
 10
4.2122
 20
12.989
 30
0.0
 10
4.2603
 20
12.9436
 30
0.0
 10
4.2603
 20
12.9436
 30
0.0
 10
4.3085
 20
12.8977
 30
0.0
 10
4.3452
 20
12.8324
 30
0.0
 10
4.3689
 20
12.7463
 30
0.0
 10
4.3689
 20
12.7463
 30
0.0
 10
4.3933
 20
12.6604
 30
0.0
 10
4.4052
 20
12.5562
 30
0.0
 10
4.4052
 20
12.4341
 30
0.0
 10
4.4052
 20
12.4341
 30
0.0
 10
4.4052
 20
12.4341
 30
0.0
 10
4.4052
 20
11.3747
 30
0.0
 10
4.4052
 20
11.3747
 30
0.0
 10
4.4052
 20
11.3747
 30
0.0
 10
4.4052
 20
11.3747
 30
0.0
 10
4.6722
 20
11.3747
 30
0.0
 10
4.6722
 20
11.3747
 30
0.0
 10
4.6722
 20
11.3747
 30
0.0
 10
4.6722
 20
11.3747
 30
0.0
 10
4.6722
 20
12.4768
 30
0.0
 10
4.6722
 20
12.4768
 30
0.0
 10
4.6722
 20
12.4768
 30
0.0
 10
4.6716
 20
12.6066
 30
0.0
 10
4.6607
 20
12.7185
 30
0.0
 10
4.64
 20
12.8118
 30
0.0
 10
4.64
 20
12.8118
 30
0.0
 10
4.6188
 20
12.9054
 30
0.0
 10
4.5908
 20
12.983
 30
0.0
 10
4.5557
 20
13.0451
 30
0.0
 10
4.5557
 20
13.0451
 30
0.0
 10
4.52
 20
13.1071
 30
0.0
 10
4.4806
 20
13.1565
 30
0.0
 10
4.4377
 20
13.1925
 30
0.0
 10
4.4377
 20
13.1925
 30
0.0
 10
4.3943
 20
13.2287
 30
0.0
 10
4.3498
 20
13.254
 30
0.0
 10
4.3047
 20
13.2696
 30
0.0
 10
4.3047
 20
13.2696
 30
0.0
 10
4.2593
 20
13.2845
 30
0.0
 10
4.2164
 20
13.2922
 30
0.0
 10
4.1755
 20
13.2915
 30
0.0
 10
4.1755
 20
13.2915
 30
0.0
 10
4.105
 20
13.2915
 30
0.0
 10
4.0435
 20
13.2799
 30
0.0
 10
3.9913
 20
13.258
 30
0.0
 10
3.9913
 20
13.258
 30
0.0
 10
3.939
 20
13.2352
 30
0.0
 10
3.8904
 20
13.2024
 30
0.0
 10
3.8463
 20
13.1597
 30
0.0
 10
3.8463
 20
13.1597
 30
0.0
 10
3.8148
 20
13.1305
 30
0.0
 10
3.7848
 20
13.0962
 30
0.0
 10
3.7554
 20
13.0562
 30
0.0
 10
3.7554
 20
13.0562
 30
0.0
 10
3.7258
 20
13.0168
 30
0.0
 10
3.6994
 20
12.9694
 30
0.0
 10
3.6756
 20
12.9151
 30
0.0
 10
3.6756
 20
12.9151
 30
0.0
 10
3.6756
 20
12.9151
 30
0.0
 10
3.6694
 20
12.9151
 30
0.0
 10
3.6694
 20
12.9151
 30
0.0
 10
3.6694
 20
12.9151
 30
0.0
 10
3.6478
 20
12.9895
 30
0.0
 10
3.6162
 20
13.0548
 30
0.0
 10
3.5758
 20
13.1111
 30
0.0
 10
3.5758
 20
13.1111
 30
0.0
 10
3.5354
 20
13.1674
 30
0.0
 10
3.4874
 20
13.2113
 30
0.0
 10
3.432
 20
13.2431
 30
0.0
 10
3.432
 20
13.2431
 30
0.0
 10
3.3766
 20
13.2747
 30
0.0
 10
3.3151
 20
13.291
 30
0.0
 10
3.2473
 20
13.2915
 30
0.0
 10
3.2473
 20
13.2915
 30
0.0
 10
3.164
 20
13.291
 30
0.0
 10
3.0915
 20
13.2741
 30
0.0
 10
3.031
 20
13.2418
 30
0.0
 10
3.031
 20
13.2418
 30
0.0
 10
2.9704
 20
13.2094
 30
0.0
 10
2.9188
 20
13.1674
 30
0.0
 10
2.8769
 20
13.115
 30
0.0
 10
2.8769
 20
13.115
 30
0.0
 10
2.835
 20
13.0632
 30
0.0
 10
2.7997
 20
13.0071
 30
0.0
 10
2.7723
 20
12.9463
 30
0.0
 10
2.7723
 20
12.9463
 30
0.0
 10
2.7723
 20
12.9463
 30
0.0
 10
2.763
 20
12.9463
 30
0.0
 10
2.763
 20
12.9463
 30
0.0
 10
2.763
 20
12.9463
 30
0.0
 10
2.763
 20
12.9463
 30
0.0
 10
2.7506
 20
13.2528
 30
0.0
 10
2.7506
 20
13.2528
 30
0.0
 10
2.7506
 20
13.2528
 30
0.0
 10
2.7506
 20
13.2528
 30
0.0
 10
2.5116
 20
13.2528
 30
0.0
 10
2.5116
 20
13.2528
 30
0.0
 10
2.5116
 20
13.2528
 30
0.0
 10
2.5148
 20
13.1758
 30
0.0
 10
2.5178
 20
13.0969
 30
0.0
 10
2.5204
 20
13.0148
 30
0.0
 10
2.5204
 20
13.0148
 30
0.0
 10
2.5225
 20
12.9326
 30
0.0
 10
2.5239
 20
12.8428
 30
0.0
 10
2.5239
 20
12.7445
 30
0.0
 10
2.5239
 20
12.7445
 30
0.0
 10
2.5239
 20
12.7445
 30
0.0
 10
2.5239
 20
11.3747
 30
0.0
 10
2.5239
 20
11.3747
 30
0.0
  0
SPLINE
  5
AC
330
1F
100
AcDbEntity
  8
DEFAULT_1
 62
   250
100
AcDbSpline
210
0.0
220
0.0
230
1.0
 70
    11
 71
     3
 72
   136
 73
   132
 74
     0
 42
0.0000000001
 43
0.0000000001
 40
0.0
 40
0.0
 40
0.0
 40
0.0
 40
0.0294117647058824
 40
0.0294117647058824
 40
0.0294117647058824
 40
0.0294117647058824
 40
0.0588235294117647
 40
0.0588235294117647
 40
0.0588235294117647
 40
0.0588235294117647
 40
0.0882352941176471
 40
0.0882352941176471
 40
0.0882352941176471
 40
0.0882352941176471
 40
0.1176470588235294
 40
0.1176470588235294
 40
0.1176470588235294
 40
0.1176470588235294
 40
0.1470588235294118
 40
0.1470588235294118
 40
0.1470588235294118
 40
0.1470588235294118
 40
0.1764705882352941
 40
0.1764705882352941
 40
0.1764705882352941
 40
0.1764705882352941
 40
0.2058823529411765
 40
0.2058823529411765
 40
0.2058823529411765
 40
0.2058823529411765
 40
0.2352941176470588
 40
0.2352941176470588
 40
0.2352941176470588
 40
0.2352941176470588
 40
0.2647058823529412
 40
0.2647058823529412
 40
0.2647058823529412
 40
0.2647058823529412
 40
0.2941176470588235
 40
0.2941176470588235
 40
0.2941176470588235
 40
0.2941176470588235
 40
0.3235294117647059
 40
0.3235294117647059
 40
0.3235294117647059
 40
0.3235294117647059
 40
0.3529411764705883
 40
0.3529411764705883
 40
0.3529411764705883
 40
0.3529411764705883
 40
0.3823529411764706
 40
0.3823529411764706
 40
0.3823529411764706
 40
0.3823529411764706
 40
0.4117647058823529
 40
0.4117647058823529
 40
0.4117647058823529
 40
0.4117647058823529
 40
0.4411764705882353
 40
0.4411764705882353
 40
0.4411764705882353
 40
0.4411764705882353
 40
0.4705882352941176
 40
0.4705882352941176
 40
0.4705882352941176
 40
0.4705882352941176
 40
0.5
 40
0.5
 40
0.5
 40
0.5
 40
0.5294117647058824
 40
0.5294117647058824
 40
0.5294117647058824
 40
0.5294117647058824
 40
0.5588235294117647
 40
0.5588235294117647
 40
0.5588235294117647
 40
0.5588235294117647
 40
0.5882352941176471
 40
0.5882352941176471
 40
0.5882352941176471
 40
0.5882352941176471
 40
0.6176470588235294
 40
0.6176470588235294
 40
0.6176470588235294
 40
0.6176470588235294
 40
0.6470588235294118
 40
0.6470588235294118
 40
0.6470588235294118
 40
0.6470588235294118
 40
0.6764705882352942
 40
0.6764705882352942
 40
0.6764705882352942
 40
0.6764705882352942
 40
0.7058823529411765
 40
0.7058823529411765
 40
0.7058823529411765
 40
0.7058823529411765
 40
0.7352941176470589
 40
0.7352941176470589
 40
0.7352941176470589
 40
0.7352941176470589
 40
0.7647058823529411
 40
0.7647058823529411
 40
0.7647058823529411
 40
0.7647058823529411
 40
0.7941176470588235
 40
0.7941176470588235
 40
0.7941176470588235
 40
0.7941176470588235
 40
0.8235294117647058
 40
0.8235294117647058
 40
0.8235294117647058
 40
0.8235294117647058
 40
0.8529411764705882
 40
0.8529411764705882
 40
0.8529411764705882
 40
0.8529411764705882
 40
0.8823529411764706
 40
0.8823529411764706
 40
0.8823529411764706
 40
0.8823529411764706
 40
0.9117647058823529
 40
0.9117647058823529
 40
0.9117647058823529
 40
0.9117647058823529
 40
0.9411764705882353
 40
0.9411764705882353
 40
0.9411764705882353
 40
0.9411764705882353
 40
1.0
 40
1.0
 40
1.0
 40
1.0
 10
6.1683
 20
12.5272
 30
0.0
 10
6.1688
 20
12.6215
 30
0.0
 10
6.1606
 20
12.7133
 30
0.0
 10
6.1435
 20
12.8039
 30
0.0
 10
6.1435
 20
12.8039
 30
0.0
 10
6.1264
 20
12.8937
 30
0.0
 10
6.0969
 20
12.9759
 30
0.0
 10
6.055
 20
13.049
 30
0.0
 10
6.055
 20
13.049
 30
0.0
 10
6.0131
 20
13.122
 30
0.0
 10
5.9546
 20
13.181
 30
0.0
 10
5.8801
 20
13.2243
 30
0.0
 10
5.8801
 20
13.2243
 30
0.0
 10
5.8056
 20
13.2682
 30
0.0
 10
5.7115
 20
13.2903
 30
0.0
 10
5.5972
 20
13.2915
 30
0.0
 10
5.5972
 20
13.2915
 30
0.0
 10
5.5335
 20
13.2915
 30
0.0
 10
5.4719
 20
13.2845
 30
0.0
 10
5.4119
 20
13.2709
 30
0.0
 10
5.4119
 20
13.2709
 30
0.0
 10
5.3518
 20
13.2573
 30
0.0
 10
5.295
 20
13.2384
 30
0.0
 10
5.2422
 20
13.2139
 30
0.0
 10
5.2422
 20
13.2139
 30
0.0
 10
5.1894
 20
13.1893
 30
0.0
 10
5.1423
 20
13.161
 30
0.0
 10
5.1005
 20
13.1285
 30
0.0
 10
5.1005
 20
13.1285
 30
0.0
 10
5.1005
 20
13.1285
 30
0.0
 10
5.1626
 20
12.8996
 30
0.0
 10
5.1626
 20
12.8996
 30
0.0
 10
5.1626
 20
12.8996
 30
0.0
 10
5.1982
 20
12.9294
 30
0.0
 10
5.237
 20
12.9545
 30
0.0
 10
5.2799
 20
12.9753
 30
0.0
 10
5.2799
 20
12.9753
 30
0.0
 10
5.3228
 20
12.9967
 30
0.0
 10
5.3675
 20
13.0121
 30
0.0
 10
5.4145
 20
13.0232
 30
0.0
 10
5.4145
 20
13.0232
 30
0.0
 10
5.4616
 20
13.0342
 30
0.0
 10
5.5092
 20
13.0394
 30
0.0
 10
5.5567
 20
13.0394
 30
0.0
 10
5.5567
 20
13.0394
 30
0.0
 10
5.6178
 20
13.0394
 30
0.0
 10
5.669
 20
13.0302
 30
0.0
 10
5.7104
 20
13.0108
 30
0.0
 10
5.7104
 20
13.0108
 30
0.0
 10
5.7512
 20
12.9915
 30
0.0
 10
5.785
 20
12.9656
 30
0.0
 10
5.8098
 20
12.9332
 30
0.0
 10
5.8098
 20
12.9332
 30
0.0
 10
5.835
 20
12.9009
 30
0.0
 10
5.8537
 20
12.8654
 30
0.0
 10
5.8666
 20
12.8265
 30
0.0
 10
5.8666
 20
12.8265
 30
0.0
 10
5.8797
 20
12.7885
 30
0.0
 10
5.8878
 20
12.7503
 30
0.0
 10
5.8926
 20
12.7121
 30
0.0
 10
5.8926
 20
12.7121
 30
0.0
 10
5.8967
 20
12.6739
 30
0.0
 10
5.8987
 20
12.6396
 30
0.0
 10
5.8982
 20
12.6086
 30
0.0
 10
5.8982
 20
12.6086
 30
0.0
 10
5.8982
 20
12.6086
 30
0.0
 10
5.8982
 20
12.5698
 30
0.0
 10
5.8982
 20
12.5698
 30
0.0
 10
5.8982
 20
12.5698
 30
0.0
 10
5.7042
 20
12.5711
 30
0.0
 10
5.5402
 20
12.5446
 30
0.0
 10
5.4062
 20
12.4916
 30
0.0
 10
5.4062
 20
12.4916
 30
0.0
 10
5.2716
 20
12.4378
 30
0.0
 10
5.1697
 20
12.3589
 30
0.0
 10
5.0999
 20
12.2549
 30
0.0
 10
5.0999
 20
12.2549
 30
0.0
 10
5.0306
 20
12.1507
 30
0.0
 10
4.9954
 20
12.0227
 30
0.0
 10
4.9949
 20
11.8713
 30
0.0
 10
4.9949
 20
11.8713
 30
0.0
 10
4.9949
 20
11.8028
 30
0.0
 10
5.0048
 20
11.7363
 30
0.0
 10
5.0238
 20
11.6722
 30
0.0
 10
5.0238
 20
11.6722
 30
0.0
 10
5.0431
 20
11.6087
 30
0.0
 10
5.072
 20
11.5512
 30
0.0
 10
5.1108
 20
11.5002
 30
0.0
 10
5.1108
 20
11.5002
 30
0.0
 10
5.1491
 20
11.4484
 30
0.0
 10
5.1967
 20
11.4084
 30
0.0
 10
5.2541
 20
11.3779
 30
0.0
 10
5.2541
 20
11.3779
 30
0.0
 10
5.3115
 20
11.3482
 30
0.0
 10
5.3782
 20
11.3327
 30
0.0
 10
5.4543
 20
11.332
 30
0.0
 10
5.4543
 20
11.332
 30
0.0
 10
5.5257
 20
11.3327
 30
0.0
 10
5.5908
 20
11.3462
 30
0.0
 10
5.6498
 20
11.3715
 30
0.0
 10
5.6498
 20
11.3715
 30
0.0
 10
5.7089
 20
11.3973
 30
0.0
 10
5.7606
 20
11.4316
 30
0.0
 10
5.8051
 20
11.4737
 30
0.0
 10
5.8051
 20
11.4737
 30
0.0
 10
5.8495
 20
11.5157
 30
0.0
 10
5.8858
 20
11.5616
 30
0.0
 10
5.9138
 20
11.6114
 30
0.0
 10
5.9138
 20
11.6114
 30
0.0
 10
5.9138
 20
11.6114
 30
0.0
 10
5.923
 20
11.6114
 30
0.0
 10
5.923
 20
11.6114
 30
0.0
 10
5.923
 20
11.6114
 30
0.0
 10
5.923
 20
11.6114
 30
0.0
 10
5.9448
 20
11.3747
 30
0.0
 10
5.9448
 20
11.3747
 30
0.0
 10
5.9448
 20
11.3747
 30
0.0
 10
5.9448
 20
11.3747
 30
0.0
 10
6.19
 20
11.3747
 30
0.0
 10
6.19
 20
11.3747
 30
0.0
 10
6.19
 20
11.3747
 30
0.0
 10
6.1822
 20
11.4394
 30
0.0
 10
6.1765
 20
11.5099
 30
0.0
 10
6.1735
 20
11.5869
 30
0.0
 10
6.1735
 20
11.5869
 30
0.0
 10
6.1698
 20
11.6631
 30
0.0
 10
6.1683
 20
11.7427
 30
0.0
 10
6.1683
 20
11.8248
 30
0.0
 10
6.1683
 20
11.8248
 30
0.0
 10
6.1683
 20
11.8248
 30
0.0
 10
6.1683
 20
12.5272
 30
0.0
 10
6.1683
 20
12.5272
 30
0.0
  0
SPLINE
  5
AD
330
1F
100
AcDbEntity
  8
DEFAULT_1
 62
   250
100
AcDbSpline
210
0.0
220
0.0
230
1.0
 70
    11
 71
     3
 72
    60
 73
    56
 74
     0
 42
0.0000000001
 43
0.0000000001
 40
0.0
 40
0.0
 40
0.0
 40
0.0
 40
0.0666666666666667
 40
0.0666666666666667
 40
0.0666666666666667
 40
0.0666666666666667
 40
0.1333333333333333
 40
0.1333333333333333
 40
0.1333333333333333
 40
0.1333333333333333
 40
0.2
 40
0.2
 40
0.2
 40
0.2
 40
0.2666666666666667
 40
0.2666666666666667
 40
0.2666666666666667
 40
0.2666666666666667
 40
0.3333333333333333
 40
0.3333333333333333
 40
0.3333333333333333
 40
0.3333333333333333
 40
0.4
 40
0.4
 40
0.4
 40
0.4
 40
0.4666666666666667
 40
0.4666666666666667
 40
0.4666666666666667
 40
0.4666666666666667
 40
0.5333333333333333
 40
0.5333333333333333
 40
0.5333333333333333
 40
0.5333333333333333
 40
0.6
 40
0.6
 40
0.6
 40
0.6
 40
0.6666666666666666
 40
0.6666666666666666
 40
0.6666666666666666
 40
0.6666666666666666
 40
0.7333333333333333
 40
0.7333333333333333
 40
0.7333333333333333
 40
0.7333333333333333
 40
0.8
 40
0.8
 40
0.8
 40
0.8
 40
0.8666666666666667
 40
0.8666666666666667
 40
0.8666666666666667
 40
0.8666666666666667
 40
1.0
 40
1.0
 40
1.0
 40
1.0
 10
5.9045
 20
12.0072
 30
0.0
 10
5.9045
 20
11.9916
 30
0.0
 10
5.9033
 20
11.9742
 30
0.0
 10
5.9019
 20
11.9561
 30
0.0
 10
5.9019
 20
11.9561
 30
0.0
 10
5.8997
 20
11.9373
 30
0.0
 10
5.8967
 20
11.9179
 30
0.0
 10
5.892
 20
11.8986
 30
0.0
 10
5.892
 20
11.8986
 30
0.0
 10
5.8775
 20
11.8449
 30
0.0
 10
5.8537
 20
11.7938
 30
0.0
 10
5.8211
 20
11.7465
 30
0.0
 10
5.8211
 20
11.7465
 30
0.0
 10
5.7886
 20
11.6988
 30
0.0
 10
5.7471
 20
11.6599
 30
0.0
 10
5.697
 20
11.6301
 30
0.0
 10
5.697
 20
11.6301
 30
0.0
 10
5.6472
 20
11.6003
 30
0.0
 10
5.5888
 20
11.5849
 30
0.0
 10
5.5226
 20
11.5842
 30
0.0
 10
5.5226
 20
11.5842
 30
0.0
 10
5.4765
 20
11.5842
 30
0.0
 10
5.4342
 20
11.5958
 30
0.0
 10
5.3959
 20
11.6184
 30
0.0
 10
5.3959
 20
11.6184
 30
0.0
 10
5.3576
 20
11.6417
 30
0.0
 10
5.327
 20
11.6774
 30
0.0
 10
5.3038
 20
11.7259
 30
0.0
 10
5.3038
 20
11.7259
 30
0.0
 10
5.2805
 20
11.7737
 30
0.0
 10
5.2686
 20
11.8351
 30
0.0
 10
5.268
 20
11.9102
 30
0.0
 10
5.268
 20
11.9102
 30
0.0
 10
5.2686
 20
11.9827
 30
0.0
 10
5.2809
 20
12.0447
 30
0.0
 10
5.3058
 20
12.0951
 30
0.0
 10
5.3058
 20
12.0951
 30
0.0
 10
5.3302
 20
12.1455
 30
0.0
 10
5.3637
 20
12.1869
 30
0.0
 10
5.4062
 20
12.2187
 30
0.0
 10
5.4062
 20
12.2187
 30
0.0
 10
5.4487
 20
12.251
 30
0.0
 10
5.4973
 20
12.2755
 30
0.0
 10
5.5515
 20
12.2931
 30
0.0
 10
5.5515
 20
12.2931
 30
0.0
 10
5.6059
 20
12.3098
 30
0.0
 10
5.6633
 20
12.3214
 30
0.0
 10
5.7238
 20
12.3274
 30
0.0
 10
5.7238
 20
12.3274
 30
0.0
 10
5.7844
 20
12.3331
 30
0.0
 10
5.8444
 20
12.3351
 30
0.0
 10
5.9045
 20
12.3331
 30
0.0
 10
5.9045
 20
12.3331
 30
0.0
 10
5.9045
 20
12.3331
 30
0.0
 10
5.9045
 20
12.0072
 30
0.0
 10
5.9045
 20
12.0072
 30
0.0
  0
SPLINE
  5
AE
330
1F
100
AcDbEntity
  8
DEFAULT_1
 62
   250
100
AcDbSpline
210
0.0
220
0.0
230
1.0
 70
    11
 71
     3
 72
    92
 73
    88
 74
     0
 42
0.0000000001
 43
0.0000000001
 40
0.0
 40
0.0
 40
0.0
 40
0.0
 40
0.0434782608695652
 40
0.0434782608695652
 40
0.0434782608695652
 40
0.0434782608695652
 40
0.0869565217391304
 40
0.0869565217391304
 40
0.0869565217391304
 40
0.0869565217391304
 40
0.1304347826086956
 40
0.1304347826086956
 40
0.1304347826086956
 40
0.1304347826086956
 40
0.1739130434782609
 40
0.1739130434782609
 40
0.1739130434782609
 40
0.1739130434782609
 40
0.2173913043478261
 40
0.2173913043478261
 40
0.2173913043478261
 40
0.2173913043478261
 40
0.2608695652173913
 40
0.2608695652173913
 40
0.2608695652173913
 40
0.2608695652173913
 40
0.3043478260869565
 40
0.3043478260869565
 40
0.3043478260869565
 40
0.3043478260869565
 40
0.3478260869565217
 40
0.3478260869565217
 40
0.3478260869565217
 40
0.3478260869565217
 40
0.391304347826087
 40
0.391304347826087
 40
0.391304347826087
 40
0.391304347826087
 40
0.4347826086956522
 40
0.4347826086956522
 40
0.4347826086956522
 40
0.4347826086956522
 40
0.4782608695652174
 40
0.4782608695652174
 40
0.4782608695652174
 40
0.4782608695652174
 40
0.5217391304347826
 40
0.5217391304347826
 40
0.5217391304347826
 40
0.5217391304347826
 40
0.5652173913043478
 40
0.5652173913043478
 40
0.5652173913043478
 40
0.5652173913043478
 40
0.6086956521739131
 40
0.6086956521739131
 40
0.6086956521739131
 40
0.6086956521739131
 40
0.6521739130434783
 40
0.6521739130434783
 40
0.6521739130434783
 40
0.6521739130434783
 40
0.6956521739130435
 40
0.6956521739130435
 40
0.6956521739130435
 40
0.6956521739130435
 40
0.7391304347826086
 40
0.7391304347826086
 40
0.7391304347826086
 40
0.7391304347826086
 40
0.782608695652174
 40
0.782608695652174
 40
0.782608695652174
 40
0.782608695652174
 40
0.8260869565217391
 40
0.8260869565217391
 40
0.8260869565217391
 40
0.8260869565217391
 40
0.8695652173913043
 40
0.8695652173913043
 40
0.8695652173913043
 40
0.8695652173913043
 40
0.9130434782608695
 40
0.9130434782608695
 40
0.9130434782608695
 40
0.9130434782608695
 40
1.0
 40
1.0
 40
1.0
 40
1.0
 10
6.4322
 20
13.2528
 30
0.0
 10
6.4322
 20
13.2528
 30
0.0
 10
6.9412
 20
12.3331
 30
0.0
 10
6.9412
 20
12.3331
 30
0.0
 10
6.9412
 20
12.3331
 30
0.0
 10
6.9412
 20
12.3331
 30
0.0
 10
6.4074
 20
11.3747
 30
0.0
 10
6.4074
 20
11.3747
 30
0.0
 10
6.4074
 20
11.3747
 30
0.0
 10
6.4074
 20
11.3747
 30
0.0
 10
6.7085
 20
11.3747
 30
0.0
 10
6.7085
 20
11.3747
 30
0.0
 10
6.7085
 20
11.3747
 30
0.0
 10
6.7085
 20
11.3747
 30
0.0
 10
6.9257
 20
11.7976
 30
0.0
 10
6.9257
 20
11.7976
 30
0.0
 10
6.9257
 20
11.7976
 30
0.0
 10
6.9553
 20
11.8532
 30
0.0
 10
6.9827
 20
11.9075
 30
0.0
 10
7.0085
 20
11.9606
 30
0.0
 10
7.0085
 20
11.9606
 30
0.0
 10
7.0345
 20
12.0137
 30
0.0
 10
7.0593
 20
12.068
 30
0.0
 10
7.0841
 20
12.1236
 30
0.0
 10
7.0841
 20
12.1236
 30
0.0
 10
7.0841
 20
12.1236
 30
0.0
 10
7.0903
 20
12.1236
 30
0.0
 10
7.0903
 20
12.1236
 30
0.0
 10
7.0903
 20
12.1236
 30
0.0
 10
7.1167
 20
12.0673
 30
0.0
 10
7.1425
 20
12.013
 30
0.0
 10
7.1689
 20
11.9594
 30
0.0
 10
7.1689
 20
11.9594
 30
0.0
 10
7.1947
 20
11.9057
 30
0.0
 10
7.2227
 20
11.8519
 30
0.0
 10
7.2517
 20
11.7976
 30
0.0
 10
7.2517
 20
11.7976
 30
0.0
 10
7.2517
 20
11.7976
 30
0.0
 10
7.4752
 20
11.3747
 30
0.0
 10
7.4752
 20
11.3747
 30
0.0
 10
7.4752
 20
11.3747
 30
0.0
 10
7.4752
 20
11.3747
 30
0.0
 10
7.7826
 20
11.3747
 30
0.0
 10
7.7826
 20
11.3747
 30
0.0
 10
7.7826
 20
11.3747
 30
0.0
 10
7.7826
 20
11.3747
 30
0.0
 10
7.2579
 20
12.3448
 30
0.0
 10
7.2579
 20
12.3448
 30
0.0
 10
7.2579
 20
12.3448
 30
0.0
 10
7.2579
 20
12.3448
 30
0.0
 10
7.7701
 20
13.2528
 30
0.0
 10
7.7701
 20
13.2528
 30
0.0
 10
7.7701
 20
13.2528
 30
0.0
 10
7.7701
 20
13.2528
 30
0.0
 10
7.4721
 20
13.2528
 30
0.0
 10
7.4721
 20
13.2528
 30
0.0
 10
7.4721
 20
13.2528
 30
0.0
 10
7.4721
 20
13.2528
 30
0.0
 10
7.2642
 20
12.853
 30
0.0
 10
7.2642
 20
12.853
 30
0.0
 10
7.2642
 20
12.853
 30
0.0
 10
7.2378
 20
12.8033
 30
0.0
 10
7.2118
 20
12.7528
 30
0.0
 10
7.187
 20
12.7031
 30
0.0
 10
7.187
 20
12.7031
 30
0.0
 10
7.1617
 20
12.6525
 30
0.0
 10
7.1369
 20
12.6001
 30
0.0
 10
7.112
 20
12.5465
 30
0.0
 10
7.112
 20
12.5465
 30
0.0
 10
7.112
 20
12.5465
 30
0.0
 10
7.1058
 20
12.5465
 30
0.0
 10
7.1058
 20
12.5465
 30
0.0
 10
7.1058
 20
12.5465
 30
0.0
 10
7.0815
 20
12.5984
 30
0.0
 10
7.0567
 20
12.6487
 30
0.0
 10
7.0319
 20
12.6979
 30
0.0
 10
7.0319
 20
12.6979
 30
0.0
 10
7.0069
 20
12.747
 30
0.0
 10
6.9795
 20
12.7974
 30
0.0
 10
6.9505
 20
12.8493
 30
0.0
 10
6.9505
 20
12.8493
 30
0.0
 10
6.9505
 20
12.8493
 30
0.0
 10
6.7365
 20
13.2528
 30
0.0
 10
6.7365
 20
13.2528
 30
0.0
 10
6.7365
 20
13.2528
 30
0.0
 10
6.7365
 20
13.2528
 30
0.0
 10
6.4322
 20
13.2528
 30
0.0
 10
6.4322
 20
13.2528
 30
0.0
  0
SPLINE
  5
AF
330
1F
100
AcDbEntity
  8
DEFAULT_1
 62
   250
100
AcDbSpline
210
0.0
220
0.0
230
1.0
 70
    11
 71
     3
 72
   196
 73
   192
 74
     0
 42
0.0000000001
 43
0.0000000001
 40
0.0
 40
0.0
 40
0.0
 40
0.0
 40
0.0204081632653061
 40
0.0204081632653061
 40
0.0204081632653061
 40
0.0204081632653061
 40
0.0408163265306122
 40
0.0408163265306122
 40
0.0408163265306122
 40
0.0408163265306122
 40
0.0612244897959184
 40
0.0612244897959184
 40
0.0612244897959184
 40
0.0612244897959184
 40
0.0816326530612245
 40
0.0816326530612245
 40
0.0816326530612245
 40
0.0816326530612245
 40
0.1020408163265306
 40
0.1020408163265306
 40
0.1020408163265306
 40
0.1020408163265306
 40
0.1224489795918367
 40
0.1224489795918367
 40
0.1224489795918367
 40
0.1224489795918367
 40
0.1428571428571428
 40
0.1428571428571428
 40
0.1428571428571428
 40
0.1428571428571428
 40
0.163265306122449
 40
0.163265306122449
 40
0.163265306122449
 40
0.163265306122449
 40
0.1836734693877551
 40
0.1836734693877551
 40
0.1836734693877551
 40
0.1836734693877551
 40
0.2040816326530612
 40
0.2040816326530612
 40
0.2040816326530612
 40
0.2040816326530612
 40
0.2244897959183673
 40
0.2244897959183673
 40
0.2244897959183673
 40
0.2244897959183673
 40
0.2448979591836735
 40
0.2448979591836735
 40
0.2448979591836735
 40
0.2448979591836735
 40
0.2653061224489796
 40
0.2653061224489796
 40
0.2653061224489796
 40
0.2653061224489796
 40
0.2857142857142857
 40
0.2857142857142857
 40
0.2857142857142857
 40
0.2857142857142857
 40
0.3061224489795918
 40
0.3061224489795918
 40
0.3061224489795918
 40
0.3061224489795918
 40
0.3265306122448979
 40
0.3265306122448979
 40
0.3265306122448979
 40
0.3265306122448979
 40
0.3469387755102041
 40
0.3469387755102041
 40
0.3469387755102041
 40
0.3469387755102041
 40
0.3673469387755102
 40
0.3673469387755102
 40
0.3673469387755102
 40
0.3673469387755102
 40
0.3877551020408163
 40
0.3877551020408163
 40
0.3877551020408163
 40
0.3877551020408163
 40
0.4081632653061225
 40
0.4081632653061225
 40
0.4081632653061225
 40
0.4081632653061225
 40
0.4285714285714285
 40
0.4285714285714285
 40
0.4285714285714285
 40
0.4285714285714285
 40
0.4489795918367347
 40
0.4489795918367347
 40
0.4489795918367347
 40
0.4489795918367347
 40
0.4693877551020408
 40
0.4693877551020408
 40
0.4693877551020408
 40
0.4693877551020408
 40
0.4897959183673469
 40
0.4897959183673469
 40
0.4897959183673469
 40
0.4897959183673469
 40
0.5102040816326531
 40
0.5102040816326531
 40
0.5102040816326531
 40
0.5102040816326531
 40
0.5306122448979592
 40
0.5306122448979592
 40
0.5306122448979592
 40
0.5306122448979592
 40
0.5510204081632653
 40
0.5510204081632653
 40
0.5510204081632653
 40
0.5510204081632653
 40
0.5714285714285714
 40
0.5714285714285714
 40
0.5714285714285714
 40
0.5714285714285714
 40
0.5918367346938775
 40
0.5918367346938775
 40
0.5918367346938775
 40
0.5918367346938775
 40
0.6122448979591837
 40
0.6122448979591837
 40
0.6122448979591837
 40
0.6122448979591837
 40
0.6326530612244898
 40
0.6326530612244898
 40
0.6326530612244898
 40
0.6326530612244898
 40
0.6530612244897959
 40
0.6530612244897959
 40
0.6530612244897959
 40
0.6530612244897959
 40
0.673469387755102
 40
0.673469387755102
 40
0.673469387755102
 40
0.673469387755102
 40
0.6938775510204082
 40
0.6938775510204082
 40
0.6938775510204082
 40
0.6938775510204082
 40
0.7142857142857143
 40
0.7142857142857143
 40
0.7142857142857143
 40
0.7142857142857143
 40
0.7346938775510204
 40
0.7346938775510204
 40
0.7346938775510204
 40
0.7346938775510204
 40
0.7551020408163265
 40
0.7551020408163265
 40
0.7551020408163265
 40
0.7551020408163265
 40
0.7755102040816326
 40
0.7755102040816326
 40
0.7755102040816326
 40
0.7755102040816326
 40
0.7959183673469388
 40
0.7959183673469388
 40
0.7959183673469388
 40
0.7959183673469388
 40
0.8163265306122449
 40
0.8163265306122449
 40
0.8163265306122449
 40
0.8163265306122449
 40
0.8367346938775511
 40
0.8367346938775511
 40
0.8367346938775511
 40
0.8367346938775511
 40
0.8571428571428571
 40
0.8571428571428571
 40
0.8571428571428571
 40
0.8571428571428571
 40
0.8775510204081632
 40
0.8775510204081632
 40
0.8775510204081632
 40
0.8775510204081632
 40
0.8979591836734694
 40
0.8979591836734694
 40
0.8979591836734694
 40
0.8979591836734694
 40
0.9183673469387755
 40
0.9183673469387755
 40
0.9183673469387755
 40
0.9183673469387755
 40
0.9387755102040817
 40
0.9387755102040817
 40
0.9387755102040817
 40
0.9387755102040817
 40
0.9591836734693877
 40
0.9591836734693877
 40
0.9591836734693877
 40
0.9591836734693877
 40
1.0
 40
1.0
 40
1.0
 40
1.0
 10
8.6082
 20
11.5028
 30
0.0
 10
8.6418
 20
11.475
 30
0.0
 10
8.6853
 20
11.4484
 30
0.0
 10
8.7381
 20
11.4226
 30
0.0
 10
8.7381
 20
11.4226
 30
0.0
 10
8.7909
 20
11.3968
 30
0.0
 10
8.8509
 20
11.3754
 30
0.0
 10
8.9182
 20
11.3578
 30
0.0
 10
8.9182
 20
11.3578
 30
0.0
 10
8.9853
 20
11.341
 30
0.0
 10
9.0567
 20
11.3327
 30
0.0
 10
9.1328
 20
11.332
 30
0.0
 10
9.1328
 20
11.332
 30
0.0
 10
9.2533
 20
11.3327
 30
0.0
 10
9.3595
 20
11.3534
 30
0.0
 10
9.451
 20
11.3935
 30
0.0
 10
9.451
 20
11.3935
 30
0.0
 10
9.5425
 20
11.4335
 30
0.0
 10
9.6192
 20
11.4891
 30
0.0
 10
9.6813
 20
11.5591
 30
0.0
 10
9.6813
 20
11.5591
 30
0.0
 10
9.7433
 20
11.6288
 30
0.0
 10
9.7899
 20
11.7097
 30
0.0
 10
9.8215
 20
11.8003
 30
0.0
 10
9.8215
 20
11.8003
 30
0.0
 10
9.8525
 20
11.8908
 30
0.0
 10
9.8685
 20
11.9872
 30
0.0
 10
9.8685
 20
12.0887
 30
0.0
 10
9.8685
 20
12.0887
 30
0.0
 10
9.8675
 20
12.1773
 30
0.0
 10
9.855
 20
12.2574
 30
0.0
 10
9.8318
 20
12.3299
 30
0.0
 10
9.8318
 20
12.3299
 30
0.0
 10
9.8086
 20
12.4031
 30
0.0
 10
9.7764
 20
12.4664
 30
0.0
 10
9.7355
 20
12.5212
 30
0.0
 10
9.7355
 20
12.5212
 30
0.0
 10
9.6946
 20
12.5763
 30
0.0
 10
9.6471
 20
12.6215
 30
0.0
 10
9.5933
 20
12.6572
 30
0.0
 10
9.5933
 20
12.6572
 30
0.0
 10
9.539
 20
12.6927
 30
0.0
 10
9.481
 20
12.718
 30
0.0
 10
9.4184
 20
12.7329
 30
0.0
 10
9.4184
 20
12.7329
 30
0.0
 10
9.4184
 20
12.7329
 30
0.0
 10
9.4184
 20
12.7406
 30
0.0
 10
9.4184
 20
12.7406
 30
0.0
 10
9.4184
 20
12.7406
 30
0.0
 10
9.5001
 20
12.7788
 30
0.0
 10
9.5689
 20
12.8272
 30
0.0
 10
9.6238
 20
12.8867
 30
0.0
 10
9.6238
 20
12.8867
 30
0.0
 10
9.6791
 20
12.9463
 30
0.0
 10
9.721
 20
13.0148
 30
0.0
 10
9.749
 20
13.091
 30
0.0
 10
9.749
 20
13.091
 30
0.0
 10
9.777
 20
13.1674
 30
0.0
 10
9.7909
 20
13.2495
 30
0.0
 10
9.7909
 20
13.3381
 30
0.0
 10
9.7909
 20
13.3381
 30
0.0
 10
9.7909
 20
13.4158
 30
0.0
 10
9.7796
 20
13.49
 30
0.0
 10
9.7568
 20
13.5612
 30
0.0
 10
9.7568
 20
13.5612
 30
0.0
 10
9.7335
 20
13.633
 30
0.0
 10
9.6984
 20
13.697
 30
0.0
 10
9.6512
 20
13.7539
 30
0.0
 10
9.6512
 20
13.7539
 30
0.0
 10
9.6041
 20
13.8109
 30
0.0
 10
9.5441
 20
13.8555
 30
0.0
 10
9.4712
 20
13.8885
 30
0.0
 10
9.4712
 20
13.8885
 30
0.0
 10
9.3988
 20
13.9221
 30
0.0
 10
9.3128
 20
13.9389
 30
0.0
 10
9.2136
 20
13.9395
 30
0.0
 10
9.2136
 20
13.9395
 30
0.0
 10
9.1405
 20
13.9389
 30
0.0
 10
9.0707
 20
13.9293
 30
0.0
 10
9.0035
 20
13.9111
 30
0.0
 10
9.0035
 20
13.9111
 30
0.0
 10
8.9362
 20
13.8923
 30
0.0
 10
8.8751
 20
13.8685
 30
0.0
 10
8.8203
 20
13.8392
 30
0.0
 10
8.8203
 20
13.8392
 30
0.0
 10
8.7655
 20
13.8096
 30
0.0
 10
8.7194
 20
13.7786
 30
0.0
 10
8.6827
 20
13.7456
 30
0.0
 10
8.6827
 20
13.7456
 30
0.0
 10
8.6827
 20
13.7456
 30
0.0
 10
8.7572
 20
13.4972
 30
0.0
 10
8.7572
 20
13.4972
 30
0.0
 10
8.7572
 20
13.4972
 30
0.0
 10
8.7867
 20
13.5238
 30
0.0
 10
8.8225
 20
13.5496
 30
0.0
 10
8.8648
 20
13.5749
 30
0.0
 10
8.8648
 20
13.5749
 30
0.0
 10
8.9067
 20
13.6007
 30
0.0
 10
8.9533
 20
13.6213
 30
0.0
 10
9.0039
 20
13.6382
 30
0.0
 10
9.0039
 20
13.6382
 30
0.0
 10
9.0542
 20
13.655
 30
0.0
 10
9.1064
 20
13.6635
 30
0.0
 10
9.1608
 20
13.664
 30
0.0
 10
9.1608
 20
13.664
 30
0.0
 10
9.2446
 20
13.6635
 30
0.0
 10
9.3123
 20
13.6454
 30
0.0
 10
9.3641
 20
13.6104
 30
0.0
 10
9.3641
 20
13.6104
 30
0.0
 10
9.4163
 20
13.5754
 30
0.0
 10
9.4546
 20
13.5295
 30
0.0
 10
9.479
 20
13.4719
 30
0.0
 10
9.479
 20
13.4719
 30
0.0
 10
9.5032
 20
13.4151
 30
0.0
 10
9.5151
 20
13.3523
 30
0.0
 10
9.5146
 20
13.2838
 30
0.0
 10
9.5146
 20
13.2838
 30
0.0
 10
9.5141
 20
13.2094
 30
0.0
 10
9.4997
 20
13.1448
 30
0.0
 10
9.4722
 20
13.091
 30
0.0
 10
9.4722
 20
13.091
 30
0.0
 10
9.4448
 20
13.0374
 30
0.0
 10
9.4085
 20
12.9927
 30
0.0
 10
9.3641
 20
12.9585
 30
0.0
 10
9.3641
 20
12.9585
 30
0.0
 10
9.3196
 20
12.9235
 30
0.0
 10
9.271
 20
12.8984
 30
0.0
 10
9.2187
 20
12.8815
 30
0.0
 10
9.2187
 20
12.8815
 30
0.0
 10
9.1665
 20
12.8654
 30
0.0
 10
9.1153
 20
12.857
 30
0.0
 10
9.0645
 20
12.857
 30
0.0
 10
9.0645
 20
12.857
 30
0.0
 10
9.0645
 20
12.857
 30
0.0
 10
8.9124
 20
12.857
 30
0.0
 10
8.9124
 20
12.857
 30
0.0
 10
8.9124
 20
12.857
 30
0.0
 10
8.9124
 20
12.857
 30
0.0
 10
8.9124
 20
12.6009
 30
0.0
 10
8.9124
 20
12.6009
 30
0.0
 10
8.9124
 20
12.6009
 30
0.0
 10
8.9124
 20
12.6009
 30
0.0
 10
9.0645
 20
12.6009
 30
0.0
 10
9.0645
 20
12.6009
 30
0.0
 10
9.0645
 20
12.6009
 30
0.0
 10
9.1312
 20
12.6009
 30
0.0
 10
9.1955
 20
12.5912
 30
0.0
 10
9.257
 20
12.5718
 30
0.0
 10
9.257
 20
12.5718
 30
0.0
 10
9.3186
 20
12.5524
 30
0.0
 10
9.374
 20
12.522
 30
0.0
 10
9.423
 20
12.4812
 30
0.0
 10
9.423
 20
12.4812
 30
0.0
 10
9.4722
 20
12.4405
 30
0.0
 10
9.5116
 20
12.3882
 30
0.0
 10
9.5405
 20
12.3241
 30
0.0
 10
9.5405
 20
12.3241
 30
0.0
 10
9.5695
 20
12.2607
 30
0.0
 10
9.5844
 20
12.1844
 30
0.0
 10
9.586
 20
12.0964
 30
0.0
 10
9.586
 20
12.0964
 30
0.0
 10
9.587
 20
12.042
 30
0.0
 10
9.5803
 20
11.9864
 30
0.0
 10
9.5648
 20
11.9303
 30
0.0
 10
9.5648
 20
11.9303
 30
0.0
 10
9.5499
 20
11.8733
 30
0.0
 10
9.5245
 20
11.8204
 30
0.0
 10
9.4893
 20
11.7718
 30
0.0
 10
9.4893
 20
11.7718
 30
0.0
 10
9.4542
 20
11.7233
 30
0.0
 10
9.407
 20
11.6839
 30
0.0
 10
9.348
 20
11.6541
 30
0.0
 10
9.348
 20
11.6541
 30
0.0
 10
9.289
 20
11.6236
 30
0.0
 10
9.2166
 20
11.6082
 30
0.0
 10
9.1298
 20
11.6075
 30
0.0
 10
9.1298
 20
11.6075
 30
0.0
 10
9.0651
 20
11.6082
 30
0.0
 10
9.0035
 20
11.6172
 30
0.0
 10
8.9456
 20
11.6347
 30
0.0
 10
8.9456
 20
11.6347
 30
0.0
 10
8.8876
 20
11.6521
 30
0.0
 10
8.8358
 20
11.6728
 30
0.0
 10
8.7903
 20
11.6968
 30
0.0
 10
8.7903
 20
11.6968
 30
0.0
 10
8.7448
 20
11.7207
 30
0.0
 10
8.7091
 20
11.7427
 30
0.0
 10
8.6827
 20
11.7628
 30
0.0
 10
8.6827
 20
11.7628
 30
0.0
 10
8.6827
 20
11.7628
 30
0.0
 10
8.6082
 20
11.5028
 30
0.0
 10
8.6082
 20
11.5028
 30
0.0
  0
SPLINE
  5
B0
330
1F
100
AcDbEntity
  8
DEFAULT_1
 62
   250
100
AcDbSpline
210
0.0
220
0.0
230
1.0
 70
    11
 71
     3
 72
   124
 73
   120
 74
     0
 42
0.0000000001
 43
0.0000000001
 40
0.0
 40
0.0
 40
0.0
 40
0.0
 40
0.032258064516129
 40
0.032258064516129
 40
0.032258064516129
 40
0.032258064516129
 40
0.0645161290322581
 40
0.0645161290322581
 40
0.0645161290322581
 40
0.0645161290322581
 40
0.0967741935483871
 40
0.0967741935483871
 40
0.0967741935483871
 40
0.0967741935483871
 40
0.1290322580645161
 40
0.1290322580645161
 40
0.1290322580645161
 40
0.1290322580645161
 40
0.1612903225806452
 40
0.1612903225806452
 40
0.1612903225806452
 40
0.1612903225806452
 40
0.1935483870967742
 40
0.1935483870967742
 40
0.1935483870967742
 40
0.1935483870967742
 40
0.2258064516129032
 40
0.2258064516129032
 40
0.2258064516129032
 40
0.2258064516129032
 40
0.2580645161290323
 40
0.2580645161290323
 40
0.2580645161290323
 40
0.2580645161290323
 40
0.2903225806451613
 40
0.2903225806451613
 40
0.2903225806451613
 40
0.2903225806451613
 40
0.3225806451612903
 40
0.3225806451612903
 40
0.3225806451612903
 40
0.3225806451612903
 40
0.3548387096774194
 40
0.3548387096774194
 40
0.3548387096774194
 40
0.3548387096774194
 40
0.3870967741935484
 40
0.3870967741935484
 40
0.3870967741935484
 40
0.3870967741935484
 40
0.4193548387096774
 40
0.4193548387096774
 40
0.4193548387096774
 40
0.4193548387096774
 40
0.4516129032258064
 40
0.4516129032258064
 40
0.4516129032258064
 40
0.4516129032258064
 40
0.4838709677419355
 40
0.4838709677419355
 40
0.4838709677419355
 40
0.4838709677419355
 40
0.5161290322580645
 40
0.5161290322580645
 40
0.5161290322580645
 40
0.5161290322580645
 40
0.5483870967741935
 40
0.5483870967741935
 40
0.5483870967741935
 40
0.5483870967741935
 40
0.5806451612903226
 40
0.5806451612903226
 40
0.5806451612903226
 40
0.5806451612903226
 40
0.6129032258064516
 40
0.6129032258064516
 40
0.6129032258064516
 40
0.6129032258064516
 40
0.6451612903225806
 40
0.6451612903225806
 40
0.6451612903225806
 40
0.6451612903225806
 40
0.6774193548387096
 40
0.6774193548387096
 40
0.6774193548387096
 40
0.6774193548387096
 40
0.7096774193548387
 40
0.7096774193548387
 40
0.7096774193548387
 40
0.7096774193548387
 40
0.7419354838709677
 40
0.7419354838709677
 40
0.7419354838709677
 40
0.7419354838709677
 40
0.7741935483870968
 40
0.7741935483870968
 40
0.7741935483870968
 40
0.7741935483870968
 40
0.8064516129032258
 40
0.8064516129032258
 40
0.8064516129032258
 40
0.8064516129032258
 40
0.8387096774193549
 40
0.8387096774193549
 40
0.8387096774193549
 40
0.8387096774193549
 40
0.8709677419354839
 40
0.8709677419354839
 40
0.8709677419354839
 40
0.8709677419354839
 40
0.9032258064516129
 40
0.9032258064516129
 40
0.9032258064516129
 40
0.9032258064516129
 40
0.9354838709677419
 40
0.9354838709677419
 40
0.9354838709677419
 40
0.9354838709677419
 40
1.0
 40
1.0
 40
1.0
 40
1.0
 10
10.5856
 20
12.6902
 30
0.0
 10
10.5022
 20
12.6461
 30
0.0
 10
10.4308
 20
12.5912
 30
0.0
 10
10.3714
 20
12.5264
 30
0.0
 10
10.3714
 20
12.5264
 30
0.0
 10
10.3119
 20
12.4612
 30
0.0
 10
10.2658
 20
12.3855
 30
0.0
 10
10.2337
 20
12.2996
 30
0.0
 10
10.2337
 20
12.2996
 30
0.0
 10
10.2017
 20
12.2135
 30
0.0
 10
10.1856
 20
12.1172
 30
0.0
 10
10.1852
 20
12.011
 30
0.0
 10
10.1852
 20
12.011
 30
0.0
 10
10.1856
 20
11.9179
 30
0.0
 10
10.2007
 20
11.8313
 30
0.0
 10
10.2317
 20
11.7492
 30
0.0
 10
10.2317
 20
11.7492
 30
0.0
 10
10.2622
 20
11.6677
 30
0.0
 10
10.3067
 20
11.5958
 30
0.0
 10
10.3651
 20
11.5331
 30
0.0
 10
10.3651
 20
11.5331
 30
0.0
 10
10.4236
 20
11.471
 30
0.0
 10
10.4945
 20
11.4219
 30
0.0
 10
10.5777
 20
11.3864
 30
0.0
 10
10.5777
 20
11.3864
 30
0.0
 10
10.6616
 20
11.3508
 30
0.0
 10
10.7563
 20
11.3327
 30
0.0
 10
10.8618
 20
11.332
 30
0.0
 10
10.8618
 20
11.332
 30
0.0
 10
10.9586
 20
11.3327
 30
0.0
 10
11.0486
 20
11.3501
 30
0.0
 10
11.1314
 20
11.3844
 30
0.0
 10
11.1314
 20
11.3844
 30
0.0
 10
11.2142
 20
11.4186
 30
0.0
 10
11.287
 20
11.4685
 30
0.0
 10
11.3492
 20
11.5331
 30
0.0
 10
11.3492
 20
11.5331
 30
0.0
 10
11.4113
 20
11.5971
 30
0.0
 10
11.4599
 20
11.6742
 30
0.0
 10
11.4945
 20
11.7641
 30
0.0
 10
11.4945
 20
11.7641
 30
0.0
 10
11.5298
 20
11.8539
 30
0.0
 10
11.5473
 20
11.9542
 30
0.0
 10
11.5479
 20
12.0653
 30
0.0
 10
11.5479
 20
12.0653
 30
0.0
 10
11.5473
 20
12.1663
 30
0.0
 10
11.5308
 20
12.2581
 30
0.0
 10
11.4982
 20
12.3415
 30
0.0
 10
11.4982
 20
12.3415
 30
0.0
 10
11.4655
 20
12.4244
 30
0.0
 10
11.419
 20
12.4974
 30
0.0
 10
11.3585
 20
12.5602
 30
0.0
 10
11.3585
 20
12.5602
 30
0.0
 10
11.298
 20
12.6235
 30
0.0
 10
11.2255
 20
12.6758
 30
0.0
 10
11.1411
 20
12.7173
 30
0.0
 10
11.1411
 20
12.7173
 30
0.0
 10
11.1411
 20
12.7173
 30
0.0
 10
11.1411
 20
12.7289
 30
0.0
 10
11.1411
 20
12.7289
 30
0.0
 10
11.1411
 20
12.7289
 30
0.0
 10
11.2235
 20
12.7773
 30
0.0
 10
11.2892
 20
12.8337
 30
0.0
 10
11.3383
 20
12.8984
 30
0.0
 10
11.3383
 20
12.8984
 30
0.0
 10
11.3875
 20
12.9624
 30
0.0
 10
11.4232
 20
13.0309
 30
0.0
 10
11.4449
 20
13.1027
 30
0.0
 10
11.4449
 20
13.1027
 30
0.0
 10
11.4661
 20
13.1751
 30
0.0
 10
11.477
 20
13.2469
 30
0.0
 10
11.4764
 20
13.3188
 30
0.0
 10
11.4764
 20
13.3188
 30
0.0
 10
11.4764
 20
13.3989
 30
0.0
 10
11.4641
 20
13.4764
 30
0.0
 10
11.4391
 20
13.5503
 30
0.0
 10
11.4391
 20
13.5503
 30
0.0
 10
11.4143
 20
13.624
 30
0.0
 10
11.3776
 20
13.6898
 30
0.0
 10
11.3285
 20
13.7488
 30
0.0
 10
11.3285
 20
13.7488
 30
0.0
 10
11.2789
 20
13.8069
 30
0.0
 10
11.2173
 20
13.8536
 30
0.0
 10
11.1437
 20
13.8871
 30
0.0
 10
11.1437
 20
13.8871
 30
0.0
 10
11.0703
 20
13.9214
 30
0.0
 10
10.9845
 20
13.9389
 30
0.0
 10
10.8866
 20
13.9395
 30
0.0
 10
10.8866
 20
13.9395
 30
0.0
 10
10.7971
 20
13.9389
 30
0.0
 10
10.7139
 20
13.9228
 30
0.0
 10
10.6383
 20
13.8911
 30
0.0
 10
10.6383
 20
13.8911
 30
0.0
 10
10.5622
 20
13.8588
 30
0.0
 10
10.4961
 20
13.8134
 30
0.0
 10
10.4391
 20
13.7539
 30
0.0
 10
10.4391
 20
13.7539
 30
0.0
 10
10.3827
 20
13.6945
 30
0.0
 10
10.3388
 20
13.624
 30
0.0
 10
10.3073
 20
13.5419
 30
0.0
 10
10.3073
 20
13.5419
 30
0.0
 10
10.2761
 20
13.4597
 30
0.0
 10
10.2601
 20
13.3685
 30
0.0
 10
10.2596
 20
13.2682
 30
0.0
 10
10.2596
 20
13.2682
 30
0.0
 10
10.2596
 20
13.1952
 30
0.0
 10
10.2705
 20
13.124
 30
0.0
 10
10.2932
 20
13.0542
 30
0.0
 10
10.2932
 20
13.0542
 30
0.0
 10
10.3154
 20
12.9843
 30
0.0
 10
10.3506
 20
12.919
 30
0.0
 10
10.3982
 20
12.8589
 30
0.0
 10
10.3982
 20
12.8589
 30
0.0
 10
10.4459
 20
12.7987
 30
0.0
 10
10.5068
 20
12.7463
 30
0.0
 10
10.5824
 20
12.7018
 30
0.0
 10
10.5824
 20
12.7018
 30
0.0
 10
10.5824
 20
12.7018
 30
0.0
 10
10.5856
 20
12.6902
 30
0.0
 10
10.5856
 20
12.6902
 30
0.0
  0
SPLINE
  5
B1
330
1F
100
AcDbEntity
  8
DEFAULT_1
 62
   250
100
AcDbSpline
210
0.0
220
0.0
230
1.0
 70
    11
 71
     3
 72
    56
 73
    52
 74
     0
 42
0.0000000001
 43
0.0000000001
 40
0.0
 40
0.0
 40
0.0
 40
0.0
 40
0.0714285714285714
 40
0.0714285714285714
 40
0.0714285714285714
 40
0.0714285714285714
 40
0.1428571428571428
 40
0.1428571428571428
 40
0.1428571428571428
 40
0.1428571428571428
 40
0.2142857142857143
 40
0.2142857142857143
 40
0.2142857142857143
 40
0.2142857142857143
 40
0.2857142857142857
 40
0.2857142857142857
 40
0.2857142857142857
 40
0.2857142857142857
 40
0.3571428571428572
 40
0.3571428571428572
 40
0.3571428571428572
 40
0.3571428571428572
 40
0.4285714285714285
 40
0.4285714285714285
 40
0.4285714285714285
 40
0.4285714285714285
 40
0.5
 40
0.5
 40
0.5
 40
0.5
 40
0.5714285714285714
 40
0.5714285714285714
 40
0.5714285714285714
 40
0.5714285714285714
 40
0.6428571428571429
 40
0.6428571428571429
 40
0.6428571428571429
 40
0.6428571428571429
 40
0.7142857142857143
 40
0.7142857142857143
 40
0.7142857142857143
 40
0.7142857142857143
 40
0.7857142857142857
 40
0.7857142857142857
 40
0.7857142857142857
 40
0.7857142857142857
 40
0.8571428571428571
 40
0.8571428571428571
 40
0.8571428571428571
 40
0.8571428571428571
 40
1.0
 40
1.0
 40
1.0
 40
1.0
 10
10.868
 20
11.5804
 30
0.0
 10
10.8034
 20
11.5809
 30
0.0
 10
10.7459
 20
11.5939
 30
0.0
 10
10.6952
 20
11.6191
 30
0.0
 10
10.6952
 20
11.6191
 30
0.0
 10
10.644
 20
11.645
 30
0.0
 10
10.6011
 20
11.6799
 30
0.0
 10
10.5659
 20
11.7246
 30
0.0
 10
10.5659
 20
11.7246
 30
0.0
 10
10.5312
 20
11.7685
 30
0.0
 10
10.5048
 20
11.8196
 30
0.0
 10
10.4872
 20
11.8765
 30
0.0
 10
10.4872
 20
11.8765
 30
0.0
 10
10.4701
 20
11.9335
 30
0.0
 10
10.4624
 20
11.9943
 30
0.0
 10
10.4645
 20
12.0576
 30
0.0
 10
10.4645
 20
12.0576
 30
0.0
 10
10.4645
 20
12.1385
 30
0.0
 10
10.4784
 20
12.2128
 30
0.0
 10
10.5064
 20
12.2815
 30
0.0
 10
10.5064
 20
12.2815
 30
0.0
 10
10.5338
 20
12.35
 30
0.0
 10
10.5747
 20
12.41
 30
0.0
 10
10.6285
 20
12.4612
 30
0.0
 10
10.6285
 20
12.4612
 30
0.0
 10
10.6829
 20
12.5123
 30
0.0
 10
10.749
 20
12.5524
 30
0.0
 10
10.8276
 20
12.5815
 30
0.0
 10
10.8276
 20
12.5815
 30
0.0
 10
10.9192
 20
12.5498
 30
0.0
 10
10.9979
 20
12.5103
 30
0.0
 10
11.0641
 20
12.4624
 30
0.0
 10
11.0641
 20
12.4624
 30
0.0
 10
11.1304
 20
12.4152
 30
0.0
 10
11.1816
 20
12.3564
 30
0.0
 10
11.2173
 20
12.2865
 30
0.0
 10
11.2173
 20
12.2865
 30
0.0
 10
11.2529
 20
12.216
 30
0.0
 10
11.2711
 20
12.1306
 30
0.0
 10
11.2716
 20
12.0304
 30
0.0
 10
11.2716
 20
12.0304
 30
0.0
 10
11.2711
 20
11.9432
 30
0.0
 10
11.2545
 20
11.8656
 30
0.0
 10
11.2213
 20
11.7983
 30
0.0
 10
11.2213
 20
11.7983
 30
0.0
 10
11.1883
 20
11.7311
 30
0.0
 10
11.1417
 20
11.678
 30
0.0
 10
11.0817
 20
11.6392
 30
0.0
 10
11.0817
 20
11.6392
 30
0.0
 10
11.0216
 20
11.6003
 30
0.0
 10
10.9503
 20
11.5809
 30
0.0
 10
10.868
 20
11.5804
 30
0.0
  0
SPLINE
  5
B2
330
1F
100
AcDbEntity
  8
DEFAULT_1
 62
   250
100
AcDbSpline
210
0.0
220
0.0
230
1.0
 70
    11
 71
     3
 72
    56
 73
    52
 74
     0
 42
0.0000000001
 43
0.0000000001
 40
0.0
 40
0.0
 40
0.0
 40
0.0
 40
0.0714285714285714
 40
0.0714285714285714
 40
0.0714285714285714
 40
0.0714285714285714
 40
0.1428571428571428
 40
0.1428571428571428
 40
0.1428571428571428
 40
0.1428571428571428
 40
0.2142857142857143
 40
0.2142857142857143
 40
0.2142857142857143
 40
0.2142857142857143
 40
0.2857142857142857
 40
0.2857142857142857
 40
0.2857142857142857
 40
0.2857142857142857
 40
0.3571428571428572
 40
0.3571428571428572
 40
0.3571428571428572
 40
0.3571428571428572
 40
0.4285714285714285
 40
0.4285714285714285
 40
0.4285714285714285
 40
0.4285714285714285
 40
0.5
 40
0.5
 40
0.5
 40
0.5
 40
0.5714285714285714
 40
0.5714285714285714
 40
0.5714285714285714
 40
0.5714285714285714
 40
0.6428571428571429
 40
0.6428571428571429
 40
0.6428571428571429
 40
0.6428571428571429
 40
0.7142857142857143
 40
0.7142857142857143
 40
0.7142857142857143
 40
0.7142857142857143
 40
0.7857142857142857
 40
0.7857142857142857
 40
0.7857142857142857
 40
0.7857142857142857
 40
0.8571428571428571
 40
0.8571428571428571
 40
0.8571428571428571
 40
0.8571428571428571
 40
1.0
 40
1.0
 40
1.0
 40
1.0
 10
10.8711
 20
13.695
 30
0.0
 10
10.9322
 20
13.6945
 30
0.0
 10
10.9845
 20
13.6828
 30
0.0
 10
11.0279
 20
13.6595
 30
0.0
 10
11.0279
 20
13.6595
 30
0.0
 10
11.0714
 20
13.6362
 30
0.0
 10
11.1066
 20
13.6045
 30
0.0
 10
11.134
 20
13.5652
 30
0.0
 10
11.134
 20
13.5652
 30
0.0
 10
11.1608
 20
13.5257
 30
0.0
 10
11.181
 20
13.4816
 30
0.0
 10
11.1939
 20
13.4332
 30
0.0
 10
11.1939
 20
13.4332
 30
0.0
 10
11.2064
 20
13.3846
 30
0.0
 10
11.2126
 20
13.3349
 30
0.0
 10
11.2126
 20
13.2838
 30
0.0
 10
11.2126
 20
13.2838
 30
0.0
 10
11.212
 20
13.2074
 30
0.0
 10
11.1987
 20
13.1396
 30
0.0
 10
11.1717
 20
13.0801
 30
0.0
 10
11.1717
 20
13.0801
 30
0.0
 10
11.1449
 20
13.02
 30
0.0
 10
11.1086
 20
12.9689
 30
0.0
 10
11.0621
 20
12.9267
 30
0.0
 10
11.0621
 20
12.9267
 30
0.0
 10
11.016
 20
12.884
 30
0.0
 10
10.9638
 20
12.8505
 30
0.0
 10
10.9053
 20
12.8259
 30
0.0
 10
10.9053
 20
12.8259
 30
0.0
 10
10.8272
 20
12.8518
 30
0.0
 10
10.7594
 20
12.8848
 30
0.0
 10
10.7014
 20
12.9249
 30
0.0
 10
10.7014
 20
12.9249
 30
0.0
 10
10.6434
 20
12.9656
 30
0.0
 10
10.5985
 20
13.016
 30
0.0
 10
10.567
 20
13.0761
 30
0.0
 10
10.567
 20
13.0761
 30
0.0
 10
10.5354
 20
13.1364
 30
0.0
 10
10.5199
 20
13.2081
 30
0.0
 10
10.5203
 20
13.2915
 30
0.0
 10
10.5203
 20
13.2915
 30
0.0
 10
10.5203
 20
13.3652
 30
0.0
 10
10.5338
 20
13.4319
 30
0.0
 10
10.5606
 20
13.4927
 30
0.0
 10
10.5606
 20
13.4927
 30
0.0
 10
10.5876
 20
13.5535
 30
0.0
 10
10.6275
 20
13.602
 30
0.0
 10
10.6797
 20
13.6389
 30
0.0
 10
10.6797
 20
13.6389
 30
0.0
 10
10.7314
 20
13.6757
 30
0.0
 10
10.7957
 20
13.6945
 30
0.0
 10
10.8711
 20
13.695
 30
0.0
  0
SPLINE
  5
B3
330
1F
100
AcDbEntity
  8
DEFAULT_1
 62
   250
100
AcDbSpline
210
0.0
220
0.0
230
1.0
 70
    11
 71
     3
 72
    56
 73
    52
 74
     0
 42
0.0000000001
 43
0.0000000001
 40
0.0
 40
0.0
 40
0.0
 40
0.0
 40
0.0714285714285714
 40
0.0714285714285714
 40
0.0714285714285714
 40
0.0714285714285714
 40
0.1428571428571428
 40
0.1428571428571428
 40
0.1428571428571428
 40
0.1428571428571428
 40
0.2142857142857143
 40
0.2142857142857143
 40
0.2142857142857143
 40
0.2142857142857143
 40
0.2857142857142857
 40
0.2857142857142857
 40
0.2857142857142857
 40
0.2857142857142857
 40
0.3571428571428572
 40
0.3571428571428572
 40
0.3571428571428572
 40
0.3571428571428572
 40
0.4285714285714285
 40
0.4285714285714285
 40
0.4285714285714285
 40
0.4285714285714285
 40
0.5
 40
0.5
 40
0.5
 40
0.5
 40
0.5714285714285714
 40
0.5714285714285714
 40
0.5714285714285714
 40
0.5714285714285714
 40
0.6428571428571429
 40
0.6428571428571429
 40
0.6428571428571429
 40
0.6428571428571429
 40
0.7142857142857143
 40
0.7142857142857143
 40
0.7142857142857143
 40
0.7142857142857143
 40
0.7857142857142857
 40
0.7857142857142857
 40
0.7857142857142857
 40
0.7857142857142857
 40
0.8571428571428571
 40
0.8571428571428571
 40
0.8571428571428571
 40
0.8571428571428571
 40
1.0
 40
1.0
 40
1.0
 40
1.0
 10
12.479
 20
13.9395
 30
0.0
 10
12.3762
 20
13.9395
 30
0.0
 10
12.2819
 20
13.9111
 30
0.0
 10
12.1961
 20
13.8541
 30
0.0
 10
12.1961
 20
13.8541
 30
0.0
 10
12.1102
 20
13.7973
 30
0.0
 10
12.0363
 20
13.7139
 30
0.0
 10
11.9731
 20
13.6027
 30
0.0
 10
11.9731
 20
13.6027
 30
0.0
 10
11.91
 20
13.4913
 30
0.0
 10
11.8614
 20
13.3543
 30
0.0
 10
11.8267
 20
13.1913
 30
0.0
 10
11.8267
 20
13.1913
 30
0.0
 10
11.7925
 20
13.0284
 30
0.0
 10
11.775
 20
12.8408
 30
0.0
 10
11.7744
 20
12.6279
 30
0.0
 10
11.7744
 20
12.6279
 30
0.0
 10
11.7776
 20
12.3492
 30
0.0
 10
11.807
 20
12.1139
 30
0.0
 10
11.8634
 20
11.9212
 30
0.0
 10
11.8634
 20
11.9212
 30
0.0
 10
11.9198
 20
11.7284
 30
0.0
 10
11.998
 20
11.5824
 30
0.0
 10
12.0972
 20
11.4827
 30
0.0
 10
12.0972
 20
11.4827
 30
0.0
 10
12.1965
 20
11.3831
 30
0.0
 10
12.3125
 20
11.3327
 30
0.0
 10
12.4449
 20
11.332
 30
0.0
 10
12.4449
 20
11.332
 30
0.0
 10
12.5934
 20
11.3327
 30
0.0
 10
12.7196
 20
11.3844
 30
0.0
 10
12.8241
 20
11.4866
 30
0.0
 10
12.8241
 20
11.4866
 30
0.0
 10
12.9287
 20
11.5888
 30
0.0
 10
13.0083
 20
11.7388
 30
0.0
 10
13.0631
 20
11.9368
 30
0.0
 10
13.0631
 20
11.9368
 30
0.0
 10
13.1185
 20
12.1346
 30
0.0
 10
13.1459
 20
12.3765
 30
0.0
 10
13.1465
 20
12.6629
 30
0.0
 10
13.1465
 20
12.6629
 30
0.0
 10
13.1459
 20
12.9314
 30
0.0
 10
13.1195
 20
13.161
 30
0.0
 10
13.0673
 20
13.3511
 30
0.0
 10
13.0673
 20
13.3511
 30
0.0
 10
13.0151
 20
13.5412
 30
0.0
 10
12.939
 20
13.6866
 30
0.0
 10
12.8397
 20
13.7869
 30
0.0
 10
12.8397
 20
13.7869
 30
0.0
 10
12.7403
 20
13.8878
 30
0.0
 10
12.6204
 20
13.9389
 30
0.0
 10
12.479
 20
13.9395
 30
0.0
  0
SPLINE
  5
B4
330
1F
100
AcDbEntity
  8
DEFAULT_1
 62
   250
100
AcDbSpline
210
0.0
220
0.0
230
1.0
 70
    11
 71
     3
 72
    56
 73
    52
 74
     0
 42
0.0000000001
 43
0.0000000001
 40
0.0
 40
0.0
 40
0.0
 40
0.0
 40
0.0714285714285714
 40
0.0714285714285714
 40
0.0714285714285714
 40
0.0714285714285714
 40
0.1428571428571428
 40
0.1428571428571428
 40
0.1428571428571428
 40
0.1428571428571428
 40
0.2142857142857143
 40
0.2142857142857143
 40
0.2142857142857143
 40
0.2142857142857143
 40
0.2857142857142857
 40
0.2857142857142857
 40
0.2857142857142857
 40
0.2857142857142857
 40
0.3571428571428572
 40
0.3571428571428572
 40
0.3571428571428572
 40
0.3571428571428572
 40
0.4285714285714285
 40
0.4285714285714285
 40
0.4285714285714285
 40
0.4285714285714285
 40
0.5
 40
0.5
 40
0.5
 40
0.5
 40
0.5714285714285714
 40
0.5714285714285714
 40
0.5714285714285714
 40
0.5714285714285714
 40
0.6428571428571429
 40
0.6428571428571429
 40
0.6428571428571429
 40
0.6428571428571429
 40
0.7142857142857143
 40
0.7142857142857143
 40
0.7142857142857143
 40
0.7142857142857143
 40
0.7857142857142857
 40
0.7857142857142857
 40
0.7857142857142857
 40
0.7857142857142857
 40
0.8571428571428571
 40
0.8571428571428571
 40
0.8571428571428571
 40
0.8571428571428571
 40
1.0
 40
1.0
 40
1.0
 40
1.0
 10
12.4604
 20
13.6757
 30
0.0
 10
12.5318
 20
13.6751
 30
0.0
 10
12.5934
 20
13.6511
 30
0.0
 10
12.6452
 20
13.6027
 30
0.0
 10
12.6452
 20
13.6027
 30
0.0
 10
12.6968
 20
13.5541
 30
0.0
 10
12.7393
 20
13.4848
 30
0.0
 10
12.7724
 20
13.3945
 30
0.0
 10
12.7724
 20
13.3945
 30
0.0
 10
12.8056
 20
13.3044
 30
0.0
 10
12.8304
 20
13.1957
 30
0.0
 10
12.8465
 20
13.0704
 30
0.0
 10
12.8465
 20
13.0704
 30
0.0
 10
12.8624
 20
12.9443
 30
0.0
 10
12.8701
 20
12.8033
 30
0.0
 10
12.8701
 20
12.6475
 30
0.0
 10
12.8701
 20
12.6475
 30
0.0
 10
12.8701
 20
12.4314
 30
0.0
 10
12.8552
 20
12.2452
 30
0.0
 10
12.8252
 20
12.0887
 30
0.0
 10
12.8252
 20
12.0887
 30
0.0
 10
12.7957
 20
11.9316
 30
0.0
 10
12.7502
 20
11.8105
 30
0.0
 10
12.6897
 20
11.7251
 30
0.0
 10
12.6897
 20
11.7251
 30
0.0
 10
12.6291
 20
11.6398
 30
0.0
 10
12.5525
 20
11.5971
 30
0.0
 10
12.4604
 20
11.5958
 30
0.0
 10
12.4604
 20
11.5958
 30
0.0
 10
12.3772
 20
11.5965
 30
0.0
 10
12.3053
 20
11.6365
 30
0.0
 10
12.2437
 20
11.7169
 30
0.0
 10
12.2437
 20
11.7169
 30
0.0
 10
12.1826
 20
11.7971
 30
0.0
 10
12.1356
 20
11.9134
 30
0.0
 10
12.1018
 20
12.0661
 30
0.0
 10
12.1018
 20
12.0661
 30
0.0
 10
12.0683
 20
12.2192
 30
0.0
 10
12.0512
 20
12.4048
 30
0.0
 10
12.0506
 20
12.6242
 30
0.0
 10
12.0506
 20
12.6242
 30
0.0
 10
12.0512
 20
12.8537
 30
0.0
 10
12.0693
 20
13.0458
 30
0.0
 10
12.1046
 20
13.2024
 30
0.0
 10
12.1046
 20
13.2024
 30
0.0
 10
12.1397
 20
13.3582
 30
0.0
 10
12.1878
 20
13.4759
 30
0.0
 10
12.2493
 20
13.556
 30
0.0
 10
12.2493
 20
13.556
 30
0.0
 10
12.3109
 20
13.6357
 30
0.0
 10
12.3813
 20
13.6757
 30
0.0
 10
12.4604
 20
13.6757
 30
0.0
  0
SPLINE
  5
B5
330
1F
100
AcDbEntity
  8
DEFAULT_1
 62
   250
370
     9
100
AcDbSpline
210
0.0
220
0.0
230
1.0
 70
    11
 71
     3
 72
    32
 73
    28
 74
     0
 42
0.0000000001
 43
0.0000000001
 40
0.0
 40
0.0
 40
0.0
 40
0.0
 40
0.125
 40
0.125
 40
0.125
 40
0.125
 40
0.25
 40
0.25
 40
0.25
 40
0.25
 40
0.375
 40
0.375
 40
0.375
 40
0.375
 40
0.5
 40
0.5
 40
0.5
 40
0.5
 40
0.625
 40
0.625
 40
0.625
 40
0.625
 40
0.75
 40
0.75
 40
0.75
 40
0.75
 40
1.0
 40
1.0
 40
1.0
 40
1.0
 10
-44.8146
 20
29.9026
 30
0.0
 10
-44.8146
 20
29.9026
 30
0.0
 10
-44.8146
 20
29.9026
 30
0.0
 10
-44.8146
 20
29.9026
 30
0.0
 10
-44.8146
 20
29.9026
 30
0.0
 10
-44.8146
 20
29.9026
 30
0.0
 10
-44.8146
 20
29.9026
 30
0.0
 10
-44.8146
 20
29.9026
 30
0.0
 10
-44.8146
 20
29.9026
 30
0.0
 10
-44.8146
 20
29.9026
 30
0.0
 10
-43.5418
 20
30.346
 30
0.0
 10
-43.5418
 20
30.346
 30
0.0
 10
-43.5418
 20
30.346
 30
0.0
 10
-43.5418
 20
30.346
 30
0.0
 10
-44.8146
 20
30.7894
 30
0.0
 10
-44.8146
 20
30.7894
 30
0.0
 10
-44.8146
 20
30.7894
 30
0.0
 10
-44.8146
 20
30.7894
 30
0.0
 10
-44.8146
 20
30.7894
 30
0.0
 10
-44.8146
 20
30.7894
 30
0.0
 10
-44.8146
 20
30.7894
 30
0.0
 10
-44.8146
 20
30.7894
 30
0.0
 10
-44.8146
 20
30.7894
 30
0.0
 10
-44.8146
 20
30.7894
 30
0.0
 10
-44.8146
 20
30.7894
 30
0.0
 10
-44.8146
 20
30.7894
 30
0.0
 10
-44.8146
 20
29.9026
 30
0.0
 10
-44.8146
 20
29.9026
 30
0.0
  0
SPLINE
  5
B6
330
1F
100
AcDbEntity
  8
DEFAULT_1
 62
   250
370
     9
100
AcDbSpline
210
0.0
220
0.0
230
1.0
 70
    11
 71
     3
 72
    32
 73
    28
 74
     0
 42
0.0000000001
 43
0.0000000001
 40
0.0
 40
0.0
 40
0.0
 40
0.0
 40
0.125
 40
0.125
 40
0.125
 40
0.125
 40
0.25
 40
0.25
 40
0.25
 40
0.25
 40
0.375
 40
0.375
 40
0.375
 40
0.375
 40
0.5
 40
0.5
 40
0.5
 40
0.5
 40
0.625
 40
0.625
 40
0.625
 40
0.625
 40
0.75
 40
0.75
 40
0.75
 40
0.75
 40
1.0
 40
1.0
 40
1.0
 40
1.0
 10
-25.6617
 20
1.8725
 30
0.0
 10
-25.6617
 20
1.8725
 30
0.0
 10
-25.6617
 20
1.8725
 30
0.0
 10
-25.6617
 20
1.8725
 30
0.0
 10
-25.6617
 20
1.8725
 30
0.0
 10
-25.6617
 20
1.8725
 30
0.0
 10
-25.6617
 20
1.8725
 30
0.0
 10
-25.6617
 20
1.8725
 30
0.0
 10
-25.6617
 20
1.8725
 30
0.0
 10
-25.6617
 20
1.8725
 30
0.0
 10
-24.3889
 20
2.3159
 30
0.0
 10
-24.3889
 20
2.3159
 30
0.0
 10
-24.3889
 20
2.3159
 30
0.0
 10
-24.3889
 20
2.3159
 30
0.0
 10
-25.6617
 20
2.7593
 30
0.0
 10
-25.6617
 20
2.7593
 30
0.0
 10
-25.6617
 20
2.7593
 30
0.0
 10
-25.6617
 20
2.7593
 30
0.0
 10
-25.6617
 20
2.7593
 30
0.0
 10
-25.6617
 20
2.7593
 30
0.0
 10
-25.6617
 20
2.7593
 30
0.0
 10
-25.6617
 20
2.7593
 30
0.0
 10
-25.6617
 20
2.7593
 30
0.0
 10
-25.6617
 20
2.7593
 30
0.0
 10
-25.6617
 20
2.7593
 30
0.0
 10
-25.6617
 20
2.7593
 30
0.0
 10
-25.6617
 20
1.8725
 30
0.0
 10
-25.6617
 20
1.8725
 30
0.0
  0
SPLINE
  5
B7
330
1F
100
AcDbEntity
  8
DEFAULT_1
 62
   250
370
     9
100
AcDbSpline
210
0.0
220
0.0
230
1.0
 70
    11
 71
     3
 72
    32
 73
    28
 74
     0
 42
0.0000000001
 43
0.0000000001
 40
0.0
 40
0.0
 40
0.0
 40
0.0
 40
0.125
 40
0.125
 40
0.125
 40
0.125
 40
0.25
 40
0.25
 40
0.25
 40
0.25
 40
0.375
 40
0.375
 40
0.375
 40
0.375
 40
0.5
 40
0.5
 40
0.5
 40
0.5
 40
0.625
 40
0.625
 40
0.625
 40
0.625
 40
0.75
 40
0.75
 40
0.75
 40
0.75
 40
1.0
 40
1.0
 40
1.0
 40
1.0
 10
-49.4981
 20
-8.1461
 30
0.0
 10
-49.4981
 20
-8.1461
 30
0.0
 10
-49.4981
 20
-8.1461
 30
0.0
 10
-49.4981
 20
-8.1461
 30
0.0
 10
-49.4981
 20
-8.1461
 30
0.0
 10
-49.4981
 20
-8.1461
 30
0.0
 10
-49.4981
 20
-8.1461
 30
0.0
 10
-49.4981
 20
-8.1461
 30
0.0
 10
-49.4981
 20
-8.1461
 30
0.0
 10
-49.4981
 20
-8.1461
 30
0.0
 10
-49.9415
 20
-6.8733
 30
0.0
 10
-49.9415
 20
-6.8733
 30
0.0
 10
-49.9415
 20
-6.8733
 30
0.0
 10
-49.9415
 20
-6.8733
 30
0.0
 10
-50.3849
 20
-8.1461
 30
0.0
 10
-50.3849
 20
-8.1461
 30
0.0
 10
-50.3849
 20
-8.1461
 30
0.0
 10
-50.3849
 20
-8.1461
 30
0.0
 10
-50.3849
 20
-8.1461
 30
0.0
 10
-50.3849
 20
-8.1461
 30
0.0
 10
-50.3849
 20
-8.1461
 30
0.0
 10
-50.3849
 20
-8.1461
 30
0.0
 10
-50.3849
 20
-8.1461
 30
0.0
 10
-50.3849
 20
-8.1461
 30
0.0
 10
-50.3849
 20
-8.1461
 30
0.0
 10
-50.3849
 20
-8.1461
 30
0.0
 10
-49.4981
 20
-8.1461
 30
0.0
 10
-49.4981
 20
-8.1461
 30
0.0
  0
SPLINE
  5
B8
330
1F
100
AcDbEntity
  8
DEFAULT_1
 62
   250
370
     9
100
AcDbSpline
210
0.0
220
0.0
230
1.0
 70
    11
 71
     3
 72
    32
 73
    28
 74
     0
 42
0.0000000001
 43
0.0000000001
 40
0.0
 40
0.0
 40
0.0
 40
0.0
 40
0.125
 40
0.125
 40
0.125
 40
0.125
 40
0.25
 40
0.25
 40
0.25
 40
0.25
 40
0.375
 40
0.375
 40
0.375
 40
0.375
 40
0.5
 40
0.5
 40
0.5
 40
0.5
 40
0.625
 40
0.625
 40
0.625
 40
0.625
 40
0.75
 40
0.75
 40
0.75
 40
0.75
 40
1.0
 40
1.0
 40
1.0
 40
1.0
 10
-49.4921
 20
26.8638
 30
0.0
 10
-49.4921
 20
26.8638
 30
0.0
 10
-49.4921
 20
26.8638
 30
0.0
 10
-49.4921
 20
26.8638
 30
0.0
 10
-49.4921
 20
26.8638
 30
0.0
 10
-49.4921
 20
26.8638
 30
0.0
 10
-49.4921
 20
26.8638
 30
0.0
 10
-49.4921
 20
26.8638
 30
0.0
 10
-49.4921
 20
26.8638
 30
0.0
 10
-49.4921
 20
26.8638
 30
0.0
 10
-49.9355
 20
28.1366
 30
0.0
 10
-49.9355
 20
28.1366
 30
0.0
 10
-49.9355
 20
28.1366
 30
0.0
 10
-49.9355
 20
28.1366
 30
0.0
 10
-50.3789
 20
26.8638
 30
0.0
 10
-50.3789
 20
26.8638
 30
0.0
 10
-50.3789
 20
26.8638
 30
0.0
 10
-50.3789
 20
26.8638
 30
0.0
 10
-50.3789
 20
26.8638
 30
0.0
 10
-50.3789
 20
26.8638
 30
0.0
 10
-50.3789
 20
26.8638
 30
0.0
 10
-50.3789
 20
26.8638
 30
0.0
 10
-50.3789
 20
26.8638
 30
0.0
 10
-50.3789
 20
26.8638
 30
0.0
 10
-50.3789
 20
26.8638
 30
0.0
 10
-50.3789
 20
26.8638
 30
0.0
 10
-49.4921
 20
26.8638
 30
0.0
 10
-49.4921
 20
26.8638
 30
0.0
  0
SPLINE
  5
B9
330
1F
100
AcDbEntity
  8
DEFAULT_1
 62
   250
370
     9
100
AcDbSpline
210
0.0
220
0.0
230
1.0
 70
    11
 71
     3
 72
    32
 73
    28
 74
     0
 42
0.0000000001
 43
0.0000000001
 40
0.0
 40
0.0
 40
0.0
 40
0.0
 40
0.125
 40
0.125
 40
0.125
 40
0.125
 40
0.25
 40
0.25
 40
0.25
 40
0.25
 40
0.375
 40
0.375
 40
0.375
 40
0.375
 40
0.5
 40
0.5
 40
0.5
 40
0.5
 40
0.625
 40
0.625
 40
0.625
 40
0.625
 40
0.75
 40
0.75
 40
0.75
 40
0.75
 40
1.0
 40
1.0
 40
1.0
 40
1.0
 10
51.0676
 20
9.9761
 30
0.0
 10
51.0676
 20
9.9761
 30
0.0
 10
51.0676
 20
9.9761
 30
0.0
 10
51.0676
 20
9.9761
 30
0.0
 10
51.0676
 20
9.9761
 30
0.0
 10
51.0676
 20
9.9761
 30
0.0
 10
51.0676
 20
9.9761
 30
0.0
 10
51.0676
 20
9.9761
 30
0.0
 10
51.0676
 20
9.9761
 30
0.0
 10
51.0676
 20
9.9761
 30
0.0
 10
52.3404
 20
10.4195
 30
0.0
 10
52.3404
 20
10.4195
 30
0.0
 10
52.3404
 20
10.4195
 30
0.0
 10
52.3404
 20
10.4195
 30
0.0
 10
51.0676
 20
10.8629
 30
0.0
 10
51.0676
 20
10.8629
 30
0.0
 10
51.0676
 20
10.8629
 30
0.0
 10
51.0676
 20
10.8629
 30
0.0
 10
51.0676
 20
10.8629
 30
0.0
 10
51.0676
 20
10.8629
 30
0.0
 10
51.0676
 20
10.8629
 30
0.0
 10
51.0676
 20
10.8629
 30
0.0
 10
51.0676
 20
10.8629
 30
0.0
 10
51.0676
 20
10.8629
 30
0.0
 10
51.0676
 20
10.8629
 30
0.0
 10
51.0676
 20
10.8629
 30
0.0
 10
51.0676
 20
9.9761
 30
0.0
 10
51.0676
 20
9.9761
 30
0.0
  0
SPLINE
  5
BA
330
1F
100
AcDbEntity
  8
DEFAULT_1
 62
   250
370
     9
100
AcDbSpline
210
0.0
220
0.0
230
1.0
 70
    11
 71
     3
 72
    32
 73
    28
 74
     0
 42
0.0000000001
 43
0.0000000001
 40
0.0
 40
0.0
 40
0.0
 40
0.0
 40
0.125
 40
0.125
 40
0.125
 40
0.125
 40
0.25
 40
0.25
 40
0.25
 40
0.25
 40
0.375
 40
0.375
 40
0.375
 40
0.375
 40
0.5
 40
0.5
 40
0.5
 40
0.5
 40
0.625
 40
0.625
 40
0.625
 40
0.625
 40
0.75
 40
0.75
 40
0.75
 40
0.75
 40
1.0
 40
1.0
 40
1.0
 40
1.0
 10
-43.661
 20
17.8192
 30
0.0
 10
-43.661
 20
17.8192
 30
0.0
 10
-43.661
 20
17.8192
 30
0.0
 10
-43.661
 20
17.8192
 30
0.0
 10
-43.661
 20
17.8192
 30
0.0
 10
-43.661
 20
17.8192
 30
0.0
 10
-43.661
 20
17.8192
 30
0.0
 10
-43.661
 20
17.8192
 30
0.0
 10
-43.661
 20
17.8192
 30
0.0
 10
-43.661
 20
17.8192
 30
0.0
 10
-42.3882
 20
18.2626
 30
0.0
 10
-42.3882
 20
18.2626
 30
0.0
 10
-42.3882
 20
18.2626
 30
0.0
 10
-42.3882
 20
18.2626
 30
0.0
 10
-43.661
 20
18.706
 30
0.0
 10
-43.661
 20
18.706
 30
0.0
 10
-43.661
 20
18.706
 30
0.0
 10
-43.661
 20
18.706
 30
0.0
 10
-43.661
 20
18.706
 30
0.0
 10
-43.661
 20
18.706
 30
0.0
 10
-43.661
 20
18.706
 30
0.0
 10
-43.661
 20
18.706
 30
0.0
 10
-43.661
 20
18.706
 30
0.0
 10
-43.661
 20
18.706
 30
0.0
 10
-43.661
 20
18.706
 30
0.0
 10
-43.661
 20
18.706
 30
0.0
 10
-43.661
 20
17.8192
 30
0.0
 10
-43.661
 20
17.8192
 30
0.0
  0
SPLINE
  5
BB
330
1F
100
AcDbEntity
  8
DEFAULT_1
 62
   250
370
     9
100
AcDbSpline
210
0.0
220
0.0
230
1.0
 70
    11
 71
     3
 72
    32
 73
    28
 74
     0
 42
0.0000000001
 43
0.0000000001
 40
0.0
 40
0.0
 40
0.0
 40
0.0
 40
0.125
 40
0.125
 40
0.125
 40
0.125
 40
0.25
 40
0.25
 40
0.25
 40
0.25
 40
0.375
 40
0.375
 40
0.375
 40
0.375
 40
0.5
 40
0.5
 40
0.5
 40
0.5
 40
0.625
 40
0.625
 40
0.625
 40
0.625
 40
0.75
 40
0.75
 40
0.75
 40
0.75
 40
1.0
 40
1.0
 40
1.0
 40
1.0
 10
11.5845
 20
-12.3799
 30
0.0
 10
11.5845
 20
-12.3799
 30
0.0
 10
11.5845
 20
-12.3799
 30
0.0
 10
11.5845
 20
-12.3799
 30
0.0
 10
11.5845
 20
-12.3799
 30
0.0
 10
11.5845
 20
-12.3799
 30
0.0
 10
11.5845
 20
-12.3799
 30
0.0
 10
11.5845
 20
-12.3799
 30
0.0
 10
11.5845
 20
-12.3799
 30
0.0
 10
11.5845
 20
-12.3799
 30
0.0
 10
11.1411
 20
-11.1071
 30
0.0
 10
11.1411
 20
-11.1071
 30
0.0
 10
11.1411
 20
-11.1071
 30
0.0
 10
11.1411
 20
-11.1071
 30
0.0
 10
10.6977
 20
-12.3799
 30
0.0
 10
10.6977
 20
-12.3799
 30
0.0
 10
10.6977
 20
-12.3799
 30
0.0
 10
10.6977
 20
-12.3799
 30
0.0
 10
10.6977
 20
-12.3799
 30
0.0
 10
10.6977
 20
-12.3799
 30
0.0
 10
10.6977
 20
-12.3799
 30
0.0
 10
10.6977
 20
-12.3799
 30
0.0
 10
10.6977
 20
-12.3799
 30
0.0
 10
10.6977
 20
-12.3799
 30
0.0
 10
10.6977
 20
-12.3799
 30
0.0
 10
10.6977
 20
-12.3799
 30
0.0
 10
11.5845
 20
-12.3799
 30
0.0
 10
11.5845
 20
-12.3799
 30
0.0
  0
SPLINE
  5
BC
330
1F
100
AcDbEntity
  8
DEFAULT_1
 62
   250
370
     9
100
AcDbSpline
210
0.0
220
0.0
230
1.0
 70
    11
 71
     3
 72
    32
 73
    28
 74
     0
 42
0.0000000001
 43
0.0000000001
 40
0.0
 40
0.0
 40
0.0
 40
0.0
 40
0.125
 40
0.125
 40
0.125
 40
0.125
 40
0.25
 40
0.25
 40
0.25
 40
0.25
 40
0.375
 40
0.375
 40
0.375
 40
0.375
 40
0.5
 40
0.5
 40
0.5
 40
0.5
 40
0.625
 40
0.625
 40
0.625
 40
0.625
 40
0.75
 40
0.75
 40
0.75
 40
0.75
 40
1.0
 40
1.0
 40
1.0
 40
1.0
 10
-32.7004
 20
29.9244
 30
0.0
 10
-32.7004
 20
29.9244
 30
0.0
 10
-32.7004
 20
29.9244
 30
0.0
 10
-32.7004
 20
29.9244
 30
0.0
 10
-32.7004
 20
29.9244
 30
0.0
 10
-32.7004
 20
29.9244
 30
0.0
 10
-32.7004
 20
29.9244
 30
0.0
 10
-32.7004
 20
29.9244
 30
0.0
 10
-32.7004
 20
29.9244
 30
0.0
 10
-32.7004
 20
29.9244
 30
0.0
 10
-33.9732
 20
30.3678
 30
0.0
 10
-33.9732
 20
30.3678
 30
0.0
 10
-33.9732
 20
30.3678
 30
0.0
 10
-33.9732
 20
30.3678
 30
0.0
 10
-32.7004
 20
30.8112
 30
0.0
 10
-32.7004
 20
30.8112
 30
0.0
 10
-32.7004
 20
30.8112
 30
0.0
 10
-32.7004
 20
30.8112
 30
0.0
 10
-32.7004
 20
30.8112
 30
0.0
 10
-32.7004
 20
30.8112
 30
0.0
 10
-32.7004
 20
30.8112
 30
0.0
 10
-32.7004
 20
30.8112
 30
0.0
 10
-32.7004
 20
30.8112
 30
0.0
 10
-32.7004
 20
30.8112
 30
0.0
 10
-32.7004
 20
30.8112
 30
0.0
 10
-32.7004
 20
30.8112
 30
0.0
 10
-32.7004
 20
29.9244
 30
0.0
 10
-32.7004
 20
29.9244
 30
0.0
  0
SPLINE
  5
BD
330
1F
100
AcDbEntity
  8
DEFAULT_1
 62
   250
370
     9
100
AcDbSpline
210
0.0
220
0.0
230
1.0
 70
    11
 71
     3
 72
    32
 73
    28
 74
     0
 42
0.0000000001
 43
0.0000000001
 40
0.0
 40
0.0
 40
0.0
 40
0.0
 40
0.125
 40
0.125
 40
0.125
 40
0.125
 40
0.25
 40
0.25
 40
0.25
 40
0.25
 40
0.375
 40
0.375
 40
0.375
 40
0.375
 40
0.5
 40
0.5
 40
0.5
 40
0.5
 40
0.625
 40
0.625
 40
0.625
 40
0.625
 40
0.75
 40
0.75
 40
0.75
 40
0.75
 40
1.0
 40
1.0
 40
1.0
 40
1.0
 10
-37.3537
 20
1.8338
 30
0.0
 10
-37.3537
 20
1.8338
 30
0.0
 10
-37.3537
 20
1.8338
 30
0.0
 10
-37.3537
 20
1.8338
 30
0.0
 10
-37.3537
 20
1.8338
 30
0.0
 10
-37.3537
 20
1.8338
 30
0.0
 10
-37.3537
 20
1.8338
 30
0.0
 10
-37.3537
 20
1.8338
 30
0.0
 10
-37.3537
 20
1.8338
 30
0.0
 10
-37.3537
 20
1.8338
 30
0.0
 10
-38.6265
 20
2.2772
 30
0.0
 10
-38.6265
 20
2.2772
 30
0.0
 10
-38.6265
 20
2.2772
 30
0.0
 10
-38.6265
 20
2.2772
 30
0.0
 10
-37.3537
 20
2.7206
 30
0.0
 10
-37.3537
 20
2.7206
 30
0.0
 10
-37.3537
 20
2.7206
 30
0.0
 10
-37.3537
 20
2.7206
 30
0.0
 10
-37.3537
 20
2.7206
 30
0.0
 10
-37.3537
 20
2.7206
 30
0.0
 10
-37.3537
 20
2.7206
 30
0.0
 10
-37.3537
 20
2.7206
 30
0.0
 10
-37.3537
 20
2.7206
 30
0.0
 10
-37.3537
 20
2.7206
 30
0.0
 10
-37.3537
 20
2.7206
 30
0.0
 10
-37.3537
 20
2.7206
 30
0.0
 10
-37.3537
 20
1.8338
 30
0.0
 10
-37.3537
 20
1.8338
 30
0.0
  0
SPLINE
  5
BE
330
1F
100
AcDbEntity
  8
DEFAULT_1
 62
   250
370
     9
100
AcDbSpline
210
0.0
220
0.0
230
1.0
 70
    11
 71
     3
 72
    32
 73
    28
 74
     0
 42
0.0000000001
 43
0.0000000001
 40
0.0
 40
0.0
 40
0.0
 40
0.0
 40
0.125
 40
0.125
 40
0.125
 40
0.125
 40
0.25
 40
0.25
 40
0.25
 40
0.25
 40
0.375
 40
0.375
 40
0.375
 40
0.375
 40
0.5
 40
0.5
 40
0.5
 40
0.5
 40
0.625
 40
0.625
 40
0.625
 40
0.625
 40
0.75
 40
0.75
 40
0.75
 40
0.75
 40
1.0
 40
1.0
 40
1.0
 40
1.0
 10
-49.4813
 20
-32.494
 30
0.0
 10
-49.4813
 20
-32.494
 30
0.0
 10
-49.4813
 20
-32.494
 30
0.0
 10
-49.4813
 20
-32.494
 30
0.0
 10
-49.4813
 20
-32.494
 30
0.0
 10
-49.4813
 20
-32.494
 30
0.0
 10
-49.4813
 20
-32.494
 30
0.0
 10
-49.4813
 20
-32.494
 30
0.0
 10
-49.4813
 20
-32.494
 30
0.0
 10
-49.4813
 20
-32.494
 30
0.0
 10
-49.9247
 20
-33.7668
 30
0.0
 10
-49.9247
 20
-33.7668
 30
0.0
 10
-49.9247
 20
-33.7668
 30
0.0
 10
-49.9247
 20
-33.7668
 30
0.0
 10
-50.3681
 20
-32.494
 30
0.0
 10
-50.3681
 20
-32.494
 30
0.0
 10
-50.3681
 20
-32.494
 30
0.0
 10
-50.3681
 20
-32.494
 30
0.0
 10
-50.3681
 20
-32.494
 30
0.0
 10
-50.3681
 20
-32.494
 30
0.0
 10
-50.3681
 20
-32.494
 30
0.0
 10
-50.3681
 20
-32.494
 30
0.0
 10
-50.3681
 20
-32.494
 30
0.0
 10
-50.3681
 20
-32.494
 30
0.0
 10
-50.3681
 20
-32.494
 30
0.0
 10
-50.3681
 20
-32.494
 30
0.0
 10
-49.4813
 20
-32.494
 30
0.0
 10
-49.4813
 20
-32.494
 30
0.0
  0
SPLINE
  5
BF
330
1F
100
AcDbEntity
  8
DEFAULT_1
 62
   250
370
     9
100
AcDbSpline
210
0.0
220
0.0
230
1.0
 70
    11
 71
     3
 72
    32
 73
    28
 74
     0
 42
0.0000000001
 43
0.0000000001
 40
0.0
 40
0.0
 40
0.0
 40
0.0
 40
0.125
 40
0.125
 40
0.125
 40
0.125
 40
0.25
 40
0.25
 40
0.25
 40
0.25
 40
0.375
 40
0.375
 40
0.375
 40
0.375
 40
0.5
 40
0.5
 40
0.5
 40
0.5
 40
0.625
 40
0.625
 40
0.625
 40
0.625
 40
0.75
 40
0.75
 40
0.75
 40
0.75
 40
1.0
 40
1.0
 40
1.0
 40
1.0
 10
-49.4864
 20
-5.5336
 30
0.0
 10
-49.4864
 20
-5.5336
 30
0.0
 10
-49.4864
 20
-5.5336
 30
0.0
 10
-49.4864
 20
-5.5336
 30
0.0
 10
-49.4864
 20
-5.5336
 30
0.0
 10
-49.4864
 20
-5.5336
 30
0.0
 10
-49.4864
 20
-5.5336
 30
0.0
 10
-49.4864
 20
-5.5336
 30
0.0
 10
-49.4864
 20
-5.5336
 30
0.0
 10
-49.4864
 20
-5.5336
 30
0.0
 10
-49.9298
 20
-6.8064
 30
0.0
 10
-49.9298
 20
-6.8064
 30
0.0
 10
-49.9298
 20
-6.8064
 30
0.0
 10
-49.9298
 20
-6.8064
 30
0.0
 10
-50.3732
 20
-5.5336
 30
0.0
 10
-50.3732
 20
-5.5336
 30
0.0
 10
-50.3732
 20
-5.5336
 30
0.0
 10
-50.3732
 20
-5.5336
 30
0.0
 10
-50.3732
 20
-5.5336
 30
0.0
 10
-50.3732
 20
-5.5336
 30
0.0
 10
-50.3732
 20
-5.5336
 30
0.0
 10
-50.3732
 20
-5.5336
 30
0.0
 10
-50.3732
 20
-5.5336
 30
0.0
 10
-50.3732
 20
-5.5336
 30
0.0
 10
-50.3732
 20
-5.5336
 30
0.0
 10
-50.3732
 20
-5.5336
 30
0.0
 10
-49.4864
 20
-5.5336
 30
0.0
 10
-49.4864
 20
-5.5336
 30
0.0
  0
SPLINE
  5
C0
330
1F
100
AcDbEntity
  8
DEFAULT_1
 62
   250
370
     9
100
AcDbSpline
210
0.0
220
0.0
230
1.0
 70
    11
 71
     3
 72
    32
 73
    28
 74
     0
 42
0.0000000001
 43
0.0000000001
 40
0.0
 40
0.0
 40
0.0
 40
0.0
 40
0.125
 40
0.125
 40
0.125
 40
0.125
 40
0.25
 40
0.25
 40
0.25
 40
0.25
 40
0.375
 40
0.375
 40
0.375
 40
0.375
 40
0.5
 40
0.5
 40
0.5
 40
0.5
 40
0.625
 40
0.625
 40
0.625
 40
0.625
 40
0.75
 40
0.75
 40
0.75
 40
0.75
 40
1.0
 40
1.0
 40
1.0
 40
1.0
 10
-37.3648
 20
9.9704
 30
0.0
 10
-37.3648
 20
9.9704
 30
0.0
 10
-37.3648
 20
9.9704
 30
0.0
 10
-37.3648
 20
9.9704
 30
0.0
 10
-37.3648
 20
9.9704
 30
0.0
 10
-37.3648
 20
9.9704
 30
0.0
 10
-37.3648
 20
9.9704
 30
0.0
 10
-37.3648
 20
9.9704
 30
0.0
 10
-37.3648
 20
9.9704
 30
0.0
 10
-37.3648
 20
9.9704
 30
0.0
 10
-38.6376
 20
10.4138
 30
0.0
 10
-38.6376
 20
10.4138
 30
0.0
 10
-38.6376
 20
10.4138
 30
0.0
 10
-38.6376
 20
10.4138
 30
0.0
 10
-37.3648
 20
10.8572
 30
0.0
 10
-37.3648
 20
10.8572
 30
0.0
 10
-37.3648
 20
10.8572
 30
0.0
 10
-37.3648
 20
10.8572
 30
0.0
 10
-37.3648
 20
10.8572
 30
0.0
 10
-37.3648
 20
10.8572
 30
0.0
 10
-37.3648
 20
10.8572
 30
0.0
 10
-37.3648
 20
10.8572
 30
0.0
 10
-37.3648
 20
10.8572
 30
0.0
 10
-37.3648
 20
10.8572
 30
0.0
 10
-37.3648
 20
10.8572
 30
0.0
 10
-37.3648
 20
10.8572
 30
0.0
 10
-37.3648
 20
9.9704
 30
0.0
 10
-37.3648
 20
9.9704
 30
0.0
  0
SPLINE
  5
C1
330
1F
100
AcDbEntity
  8
DEFAULT_1
 62
   250
370
     9
100
AcDbSpline
210
0.0
220
0.0
230
1.0
 70
    11
 71
     3
 72
    32
 73
    28
 74
     0
 42
0.0000000001
 43
0.0000000001
 40
0.0
 40
0.0
 40
0.0
 40
0.0
 40
0.125
 40
0.125
 40
0.125
 40
0.125
 40
0.25
 40
0.25
 40
0.25
 40
0.25
 40
0.375
 40
0.375
 40
0.375
 40
0.375
 40
0.5
 40
0.5
 40
0.5
 40
0.5
 40
0.625
 40
0.625
 40
0.625
 40
0.625
 40
0.75
 40
0.75
 40
0.75
 40
0.75
 40
1.0
 40
1.0
 40
1.0
 40
1.0
 10
-33.4302
 20
17.8191
 30
0.0
 10
-33.4302
 20
17.8191
 30
0.0
 10
-33.4302
 20
17.8191
 30
0.0
 10
-33.4302
 20
17.8191
 30
0.0
 10
-33.4302
 20
17.8191
 30
0.0
 10
-33.4302
 20
17.8191
 30
0.0
 10
-33.4302
 20
17.8191
 30
0.0
 10
-33.4302
 20
17.8191
 30
0.0
 10
-33.4302
 20
17.8191
 30
0.0
 10
-33.4302
 20
17.8191
 30
0.0
 10
-34.703
 20
18.2625
 30
0.0
 10
-34.703
 20
18.2625
 30
0.0
 10
-34.703
 20
18.2625
 30
0.0
 10
-34.703
 20
18.2625
 30
0.0
 10
-33.4302
 20
18.7059
 30
0.0
 10
-33.4302
 20
18.7059
 30
0.0
 10
-33.4302
 20
18.7059
 30
0.0
 10
-33.4302
 20
18.7059
 30
0.0
 10
-33.4302
 20
18.7059
 30
0.0
 10
-33.4302
 20
18.7059
 30
0.0
 10
-33.4302
 20
18.7059
 30
0.0
 10
-33.4302
 20
18.7059
 30
0.0
 10
-33.4302
 20
18.7059
 30
0.0
 10
-33.4302
 20
18.7059
 30
0.0
 10
-33.4302
 20
18.7059
 30
0.0
 10
-33.4302
 20
18.7059
 30
0.0
 10
-33.4302
 20
17.8191
 30
0.0
 10
-33.4302
 20
17.8191
 30
0.0
  0
SPLINE
  5
C2
330
1F
100
AcDbEntity
  8
DEFAULT_1
 62
   250
370
     9
100
AcDbSpline
210
0.0
220
0.0
230
1.0
 70
    11
 71
     3
 72
    32
 73
    28
 74
     0
 42
0.0000000001
 43
0.0000000001
 40
0.0
 40
0.0
 40
0.0
 40
0.0
 40
0.125
 40
0.125
 40
0.125
 40
0.125
 40
0.25
 40
0.25
 40
0.25
 40
0.25
 40
0.375
 40
0.375
 40
0.375
 40
0.375
 40
0.5
 40
0.5
 40
0.5
 40
0.5
 40
0.625
 40
0.625
 40
0.625
 40
0.625
 40
0.75
 40
0.75
 40
0.75
 40
0.75
 40
1.0
 40
1.0
 40
1.0
 40
1.0
 10
11.5626
 20
-2.0343
 30
0.0
 10
11.5626
 20
-2.0343
 30
0.0
 10
11.5626
 20
-2.0343
 30
0.0
 10
11.5626
 20
-2.0343
 30
0.0
 10
11.5626
 20
-2.0343
 30
0.0
 10
11.5626
 20
-2.0343
 30
0.0
 10
11.5626
 20
-2.0343
 30
0.0
 10
11.5626
 20
-2.0343
 30
0.0
 10
11.5626
 20
-2.0343
 30
0.0
 10
11.5626
 20
-2.0343
 30
0.0
 10
11.1192
 20
-3.3071
 30
0.0
 10
11.1192
 20
-3.3071
 30
0.0
 10
11.1192
 20
-3.3071
 30
0.0
 10
11.1192
 20
-3.3071
 30
0.0
 10
10.6758
 20
-2.0343
 30
0.0
 10
10.6758
 20
-2.0343
 30
0.0
 10
10.6758
 20
-2.0343
 30
0.0
 10
10.6758
 20
-2.0343
 30
0.0
 10
10.6758
 20
-2.0343
 30
0.0
 10
10.6758
 20
-2.0343
 30
0.0
 10
10.6758
 20
-2.0343
 30
0.0
 10
10.6758
 20
-2.0343
 30
0.0
 10
10.6758
 20
-2.0343
 30
0.0
 10
10.6758
 20
-2.0343
 30
0.0
 10
10.6758
 20
-2.0343
 30
0.0
 10
10.6758
 20
-2.0343
 30
0.0
 10
11.5626
 20
-2.0343
 30
0.0
 10
11.5626
 20
-2.0343
 30
0.0
  0
SPLINE
  5
C3
330
1F
100
AcDbEntity
  8
DEFAULT_1
 62
   250
100
AcDbSpline
210
0.0
220
0.0
230
1.0
 70
    11
 71
     3
 72
   104
 73
   100
 74
     0
 42
0.0000000001
 43
0.0000000001
 40
0.0
 40
0.0
 40
0.0
 40
0.0
 40
0.0384615384615385
 40
0.0384615384615385
 40
0.0384615384615385
 40
0.0384615384615385
 40
0.0769230769230769
 40
0.0769230769230769
 40
0.0769230769230769
 40
0.0769230769230769
 40
0.1153846153846154
 40
0.1153846153846154
 40
0.1153846153846154
 40
0.1153846153846154
 40
0.1538461538461539
 40
0.1538461538461539
 40
0.1538461538461539
 40
0.1538461538461539
 40
0.1923076923076923
 40
0.1923076923076923
 40
0.1923076923076923
 40
0.1923076923076923
 40
0.2307692307692308
 40
0.2307692307692308
 40
0.2307692307692308
 40
0.2307692307692308
 40
0.2692307692307692
 40
0.2692307692307692
 40
0.2692307692307692
 40
0.2692307692307692
 40
0.3076923076923077
 40
0.3076923076923077
 40
0.3076923076923077
 40
0.3076923076923077
 40
0.3461538461538461
 40
0.3461538461538461
 40
0.3461538461538461
 40
0.3461538461538461
 40
0.3846153846153846
 40
0.3846153846153846
 40
0.3846153846153846
 40
0.3846153846153846
 40
0.4230769230769231
 40
0.4230769230769231
 40
0.4230769230769231
 40
0.4230769230769231
 40
0.4615384615384616
 40
0.4615384615384616
 40
0.4615384615384616
 40
0.4615384615384616
 40
0.5
 40
0.5
 40
0.5
 40
0.5
 40
0.5384615384615384
 40
0.5384615384615384
 40
0.5384615384615384
 40
0.5384615384615384
 40
0.5769230769230769
 40
0.5769230769230769
 40
0.5769230769230769
 40
0.5769230769230769
 40
0.6153846153846154
 40
0.6153846153846154
 40
0.6153846153846154
 40
0.6153846153846154
 40
0.6538461538461539
 40
0.6538461538461539
 40
0.6538461538461539
 40
0.6538461538461539
 40
0.6923076923076923
 40
0.6923076923076923
 40
0.6923076923076923
 40
0.6923076923076923
 40
0.7307692307692307
 40
0.7307692307692307
 40
0.7307692307692307
 40
0.7307692307692307
 40
0.7692307692307693
 40
0.7692307692307693
 40
0.7692307692307693
 40
0.7692307692307693
 40
0.8076923076923077
 40
0.8076923076923077
 40
0.8076923076923077
 40
0.8076923076923077
 40
0.8461538461538461
 40
0.8461538461538461
 40
0.8461538461538461
 40
0.8461538461538461
 40
0.8846153846153846
 40
0.8846153846153846
 40
0.8846153846153846
 40
0.8846153846153846
 40
0.9230769230769231
 40
0.9230769230769231
 40
0.9230769230769231
 40
0.9230769230769231
 40
1.0
 40
1.0
 40
1.0
 40
1.0
 10
-32.7903
 20
18.7606
 30
0.0
 10
-32.7903
 20
18.7606
 30
0.0
 10
-32.5947
 20
19.0944
 30
0.0
 10
-32.5947
 20
19.0944
 30
0.0
 10
-32.5947
 20
19.0944
 30
0.0
 10
-32.5197
 20
19.0264
 30
0.0
 10
-32.4374
 20
18.9741
 30
0.0
 10
-32.3484
 20
18.9384
 30
0.0
 10
-32.3484
 20
18.9384
 30
0.0
 10
-32.2589
 20
18.9029
 30
0.0
 10
-32.1653
 20
18.8848
 30
0.0
 10
-32.0669
 20
18.8848
 30
0.0
 10
-32.0669
 20
18.8848
 30
0.0
 10
-31.9662
 20
18.8848
 30
0.0
 10
-31.8683
 20
18.9036
 30
0.0
 10
-31.7746
 20
18.9404
 30
0.0
 10
-31.7746
 20
18.9404
 30
0.0
 10
-31.6811
 20
18.9773
 30
0.0
 10
-31.5942
 20
19.0322
 30
0.0
 10
-31.5145
 20
19.106
 30
0.0
 10
-31.5145
 20
19.106
 30
0.0
 10
-31.4342
 20
19.179
 30
0.0
 10
-31.3644
 20
19.2709
 30
0.0
 10
-31.3044
 20
19.3808
 30
0.0
 10
-31.3044
 20
19.3808
 30
0.0
 10
-31.2449
 20
19.4908
 30
0.0
 10
-31.1983
 20
19.6188
 30
0.0
 10
-31.1647
 20
19.7656
 30
0.0
 10
-31.1647
 20
19.7656
 30
0.0
 10
-31.1315
 20
19.9118
 30
0.0
 10
-31.1145
 20
20.0761
 30
0.0
 10
-31.1139
 20
20.2584
 30
0.0
 10
-31.1139
 20
20.2584
 30
0.0
 10
-31.1139
 20
20.3871
 30
0.0
 10
-31.1243
 20
20.5093
 30
0.0
 10
-31.1455
 20
20.6258
 30
0.0
 10
-31.1455
 20
20.6258
 30
0.0
 10
-31.1662
 20
20.7428
 30
0.0
 10
-31.1967
 20
20.8514
 30
0.0
 10
-31.2366
 20
20.9518
 30
0.0
 10
-31.2366
 20
20.9518
 30
0.0
 10
-31.2769
 20
21.052
 30
0.0
 10
-31.3261
 20
21.1412
 30
0.0
 10
-31.3841
 20
21.2208
 30
0.0
 10
-31.3841
 20
21.2208
 30
0.0
 10
-31.3841
 20
21.2208
 30
0.0
 10
-31.1916
 20
21.5545
 30
0.0
 10
-31.1916
 20
21.5545
 30
0.0
 10
-31.1916
 20
21.5545
 30
0.0
 10
-31.1916
 20
21.5545
 30
0.0
 10
-31.3561
 20
21.6942
 30
0.0
 10
-31.3561
 20
21.6942
 30
0.0
 10
-31.3561
 20
21.6942
 30
0.0
 10
-31.3561
 20
21.6942
 30
0.0
 10
-31.5393
 20
21.3799
 30
0.0
 10
-31.5393
 20
21.3799
 30
0.0
 10
-31.5393
 20
21.3799
 30
0.0
 10
-31.6143
 20
21.4497
 30
0.0
 10
-31.6955
 20
21.5021
 30
0.0
 10
-31.7835
 20
21.5371
 30
0.0
 10
-31.7835
 20
21.5371
 30
0.0
 10
-31.8719
 20
21.572
 30
0.0
 10
-31.9641
 20
21.5893
 30
0.0
 10
-32.0608
 20
21.5893
 30
0.0
 10
-32.0608
 20
21.5893
 30
0.0
 10
-32.1989
 20
21.5888
 30
0.0
 10
-32.3262
 20
21.5564
 30
0.0
 10
-32.4436
 20
21.4924
 30
0.0
 10
-32.4436
 20
21.4924
 30
0.0
 10
-32.5606
 20
21.4284
 30
0.0
 10
-32.6625
 20
21.3359
 30
0.0
 10
-32.7494
 20
21.2162
 30
0.0
 10
-32.7494
 20
21.2162
 30
0.0
 10
-32.8368
 20
21.0967
 30
0.0
 10
-32.9042
 20
20.9531
 30
0.0
 10
-32.9527
 20
20.7856
 30
0.0
 10
-32.9527
 20
20.7856
 30
0.0
 10
-33.0009
 20
20.618
 30
0.0
 10
-33.0257
 20
20.4311
 30
0.0
 10
-33.0263
 20
20.2235
 30
0.0
 10
-33.0263
 20
20.2235
 30
0.0
 10
-33.0263
 20
20.0928
 30
0.0
 10
-33.0148
 20
19.968
 30
0.0
 10
-32.9932
 20
19.8503
 30
0.0
 10
-32.9932
 20
19.8503
 30
0.0
 10
-32.9714
 20
19.7327
 30
0.0
 10
-32.9398
 20
19.6233
 30
0.0
 10
-32.8989
 20
19.5231
 30
0.0
 10
-32.8989
 20
19.5231
 30
0.0
 10
-32.8576
 20
19.4229
 30
0.0
 10
-32.8079
 20
19.3329
 30
0.0
 10
-32.7499
 20
19.2534
 30
0.0
 10
-32.7499
 20
19.2534
 30
0.0
 10
-32.7499
 20
19.2534
 30
0.0
 10
-32.9424
 20
18.9158
 30
0.0
 10
-32.9424
 20
18.9158
 30
0.0
 10
-32.9424
 20
18.9158
 30
0.0
 10
-32.9424
 20
18.9158
 30
0.0
 10
-32.7903
 20
18.7606
 30
0.0
 10
-32.7903
 20
18.7606
 30
0.0
  0
SPLINE
  5
C4
330
1F
100
AcDbEntity
  8
DEFAULT_1
 62
   250
100
AcDbSpline
210
0.0
220
0.0
230
1.0
 70
    11
 71
     3
 72
    52
 73
    48
 74
     0
 42
0.0000000001
 43
0.0000000001
 40
0.0
 40
0.0
 40
0.0
 40
0.0
 40
0.0769230769230769
 40
0.0769230769230769
 40
0.0769230769230769
 40
0.0769230769230769
 40
0.1538461538461539
 40
0.1538461538461539
 40
0.1538461538461539
 40
0.1538461538461539
 40
0.2307692307692308
 40
0.2307692307692308
 40
0.2307692307692308
 40
0.2307692307692308
 40
0.3076923076923077
 40
0.3076923076923077
 40
0.3076923076923077
 40
0.3076923076923077
 40
0.3846153846153846
 40
0.3846153846153846
 40
0.3846153846153846
 40
0.3846153846153846
 40
0.4615384615384616
 40
0.4615384615384616
 40
0.4615384615384616
 40
0.4615384615384616
 40
0.5384615384615384
 40
0.5384615384615384
 40
0.5384615384615384
 40
0.5384615384615384
 40
0.6153846153846154
 40
0.6153846153846154
 40
0.6153846153846154
 40
0.6153846153846154
 40
0.6923076923076923
 40
0.6923076923076923
 40
0.6923076923076923
 40
0.6923076923076923
 40
0.7692307692307693
 40
0.7692307692307693
 40
0.7692307692307693
 40
0.7692307692307693
 40
0.8461538461538461
 40
0.8461538461538461
 40
0.8461538461538461
 40
0.8461538461538461
 40
1.0
 40
1.0
 40
1.0
 40
1.0
 10
-32.5916
 20
19.5406
 30
0.0
 10
-32.5916
 20
19.5406
 30
0.0
 10
-32.5979
 20
19.5366
 30
0.0
 10
-32.5979
 20
19.5366
 30
0.0
 10
-32.5979
 20
19.5366
 30
0.0
 10
-32.6288
 20
19.6033
 30
0.0
 10
-32.6558
 20
19.6725
 30
0.0
 10
-32.6786
 20
19.7436
 30
0.0
 10
-32.6786
 20
19.7436
 30
0.0
 10
-32.7013
 20
19.8154
 30
0.0
 10
-32.7189
 20
19.8911
 30
0.0
 10
-32.7314
 20
19.9725
 30
0.0
 10
-32.7314
 20
19.9725
 30
0.0
 10
-32.7437
 20
20.0534
 30
0.0
 10
-32.7499
 20
20.1426
 30
0.0
 10
-32.7499
 20
20.239
 30
0.0
 10
-32.7499
 20
20.239
 30
0.0
 10
-32.7499
 20
20.3503
 30
0.0
 10
-32.7406
 20
20.4576
 30
0.0
 10
-32.7225
 20
20.5631
 30
0.0
 10
-32.7225
 20
20.5631
 30
0.0
 10
-32.7039
 20
20.6678
 30
0.0
 10
-32.6765
 20
20.7661
 30
0.0
 10
-32.6403
 20
20.8567
 30
0.0
 10
-32.6403
 20
20.8567
 30
0.0
 10
-32.6036
 20
20.9478
 30
0.0
 10
-32.558
 20
21.0281
 30
0.0
 10
-32.5031
 20
21.0967
 30
0.0
 10
-32.5031
 20
21.0967
 30
0.0
 10
-32.4483
 20
21.1658
 30
0.0
 10
-32.3847
 20
21.2194
 30
0.0
 10
-32.3122
 20
21.2583
 30
0.0
 10
-32.3122
 20
21.2583
 30
0.0
 10
-32.2392
 20
21.2978
 30
0.0
 10
-32.1576
 20
21.3172
 30
0.0
 10
-32.0669
 20
21.3177
 30
0.0
 10
-32.0669
 20
21.3177
 30
0.0
 10
-31.9878
 20
21.3172
 30
0.0
 10
-31.9154
 20
21.301
 30
0.0
 10
-31.8502
 20
21.2687
 30
0.0
 10
-31.8502
 20
21.2687
 30
0.0
 10
-31.7845
 20
21.2369
 30
0.0
 10
-31.7256
 20
21.1924
 30
0.0
 10
-31.6728
 20
21.1354
 30
0.0
 10
-31.6728
 20
21.1354
 30
0.0
 10
-31.6728
 20
21.1354
 30
0.0
 10
-32.5916
 20
19.5406
 30
0.0
 10
-32.5916
 20
19.5406
 30
0.0
  0
SPLINE
  5
C5
330
1F
100
AcDbEntity
  8
DEFAULT_1
 62
   250
100
AcDbSpline
210
0.0
220
0.0
230
1.0
 70
    11
 71
     3
 72
    48
 73
    44
 74
     0
 42
0.0000000001
 43
0.0000000001
 40
0.0
 40
0.0
 40
0.0
 40
0.0
 40
0.0833333333333333
 40
0.0833333333333333
 40
0.0833333333333333
 40
0.0833333333333333
 40
0.1666666666666667
 40
0.1666666666666667
 40
0.1666666666666667
 40
0.1666666666666667
 40
0.25
 40
0.25
 40
0.25
 40
0.25
 40
0.3333333333333333
 40
0.3333333333333333
 40
0.3333333333333333
 40
0.3333333333333333
 40
0.4166666666666667
 40
0.4166666666666667
 40
0.4166666666666667
 40
0.4166666666666667
 40
0.5
 40
0.5
 40
0.5
 40
0.5
 40
0.5833333333333334
 40
0.5833333333333334
 40
0.5833333333333334
 40
0.5833333333333334
 40
0.6666666666666666
 40
0.6666666666666666
 40
0.6666666666666666
 40
0.6666666666666666
 40
0.75
 40
0.75
 40
0.75
 40
0.75
 40
0.8333333333333334
 40
0.8333333333333334
 40
0.8333333333333334
 40
0.8333333333333334
 40
1.0
 40
1.0
 40
1.0
 40
1.0
 10
-31.5455
 20
20.9298
 30
0.0
 10
-31.5455
 20
20.9298
 30
0.0
 10
-31.5361
 20
20.9298
 30
0.0
 10
-31.5361
 20
20.9298
 30
0.0
 10
-31.5361
 20
20.9298
 30
0.0
 10
-31.4823
 20
20.8172
 30
0.0
 10
-31.4446
 20
20.7035
 30
0.0
 10
-31.4223
 20
20.5883
 30
0.0
 10
-31.4223
 20
20.5883
 30
0.0
 10
-31.4001
 20
20.4738
 30
0.0
 10
-31.3892
 20
20.3599
 30
0.0
 10
-31.3903
 20
20.2468
 30
0.0
 10
-31.3903
 20
20.2468
 30
0.0
 10
-31.3903
 20
20.1291
 30
0.0
 10
-31.4001
 20
20.0165
 30
0.0
 10
-31.4193
 20
19.9086
 30
0.0
 10
-31.4193
 20
19.9086
 30
0.0
 10
-31.4384
 20
19.8005
 30
0.0
 10
-31.4668
 20
19.7009
 30
0.0
 10
-31.5041
 20
19.6098
 30
0.0
 10
-31.5041
 20
19.6098
 30
0.0
 10
-31.5418
 20
19.5186
 30
0.0
 10
-31.5879
 20
19.4391
 30
0.0
 10
-31.6427
 20
19.3718
 30
0.0
 10
-31.6427
 20
19.3718
 30
0.0
 10
-31.6981
 20
19.3039
 30
0.0
 10
-31.7612
 20
19.2508
 30
0.0
 10
-31.8326
 20
19.2133
 30
0.0
 10
-31.8326
 20
19.2133
 30
0.0
 10
-31.9041
 20
19.1758
 30
0.0
 10
-31.9832
 20
19.157
 30
0.0
 10
-32.0701
 20
19.1564
 30
0.0
 10
-32.0701
 20
19.1564
 30
0.0
 10
-32.1544
 20
19.1564
 30
0.0
 10
-32.2284
 20
19.1726
 30
0.0
 10
-32.291
 20
19.2043
 30
0.0
 10
-32.291
 20
19.2043
 30
0.0
 10
-32.3541
 20
19.2359
 30
0.0
 10
-32.4105
 20
19.2825
 30
0.0
 10
-32.4612
 20
19.3427
 30
0.0
 10
-32.4612
 20
19.3427
 30
0.0
 10
-32.4612
 20
19.3427
 30
0.0
 10
-31.5455
 20
20.9298
 30
0.0
 10
-31.5455
 20
20.9298
 30
0.0
  0
SPLINE
  5
C6
330
1F
100
AcDbEntity
  8
DEFAULT_1
 62
   250
100
AcDbSpline
210
0.0
220
0.0
230
1.0
 70
    11
 71
     3
 72
   196
 73
   192
 74
     0
 42
0.0000000001
 43
0.0000000001
 40
0.0
 40
0.0
 40
0.0
 40
0.0
 40
0.0204081632653061
 40
0.0204081632653061
 40
0.0204081632653061
 40
0.0204081632653061
 40
0.0408163265306122
 40
0.0408163265306122
 40
0.0408163265306122
 40
0.0408163265306122
 40
0.0612244897959184
 40
0.0612244897959184
 40
0.0612244897959184
 40
0.0612244897959184
 40
0.0816326530612245
 40
0.0816326530612245
 40
0.0816326530612245
 40
0.0816326530612245
 40
0.1020408163265306
 40
0.1020408163265306
 40
0.1020408163265306
 40
0.1020408163265306
 40
0.1224489795918367
 40
0.1224489795918367
 40
0.1224489795918367
 40
0.1224489795918367
 40
0.1428571428571428
 40
0.1428571428571428
 40
0.1428571428571428
 40
0.1428571428571428
 40
0.163265306122449
 40
0.163265306122449
 40
0.163265306122449
 40
0.163265306122449
 40
0.1836734693877551
 40
0.1836734693877551
 40
0.1836734693877551
 40
0.1836734693877551
 40
0.2040816326530612
 40
0.2040816326530612
 40
0.2040816326530612
 40
0.2040816326530612
 40
0.2244897959183673
 40
0.2244897959183673
 40
0.2244897959183673
 40
0.2244897959183673
 40
0.2448979591836735
 40
0.2448979591836735
 40
0.2448979591836735
 40
0.2448979591836735
 40
0.2653061224489796
 40
0.2653061224489796
 40
0.2653061224489796
 40
0.2653061224489796
 40
0.2857142857142857
 40
0.2857142857142857
 40
0.2857142857142857
 40
0.2857142857142857
 40
0.3061224489795918
 40
0.3061224489795918
 40
0.3061224489795918
 40
0.3061224489795918
 40
0.3265306122448979
 40
0.3265306122448979
 40
0.3265306122448979
 40
0.3265306122448979
 40
0.3469387755102041
 40
0.3469387755102041
 40
0.3469387755102041
 40
0.3469387755102041
 40
0.3673469387755102
 40
0.3673469387755102
 40
0.3673469387755102
 40
0.3673469387755102
 40
0.3877551020408163
 40
0.3877551020408163
 40
0.3877551020408163
 40
0.3877551020408163
 40
0.4081632653061225
 40
0.4081632653061225
 40
0.4081632653061225
 40
0.4081632653061225
 40
0.4285714285714285
 40
0.4285714285714285
 40
0.4285714285714285
 40
0.4285714285714285
 40
0.4489795918367347
 40
0.4489795918367347
 40
0.4489795918367347
 40
0.4489795918367347
 40
0.4693877551020408
 40
0.4693877551020408
 40
0.4693877551020408
 40
0.4693877551020408
 40
0.4897959183673469
 40
0.4897959183673469
 40
0.4897959183673469
 40
0.4897959183673469
 40
0.5102040816326531
 40
0.5102040816326531
 40
0.5102040816326531
 40
0.5102040816326531
 40
0.5306122448979592
 40
0.5306122448979592
 40
0.5306122448979592
 40
0.5306122448979592
 40
0.5510204081632653
 40
0.5510204081632653
 40
0.5510204081632653
 40
0.5510204081632653
 40
0.5714285714285714
 40
0.5714285714285714
 40
0.5714285714285714
 40
0.5714285714285714
 40
0.5918367346938775
 40
0.5918367346938775
 40
0.5918367346938775
 40
0.5918367346938775
 40
0.6122448979591837
 40
0.6122448979591837
 40
0.6122448979591837
 40
0.6122448979591837
 40
0.6326530612244898
 40
0.6326530612244898
 40
0.6326530612244898
 40
0.6326530612244898
 40
0.6530612244897959
 40
0.6530612244897959
 40
0.6530612244897959
 40
0.6530612244897959
 40
0.673469387755102
 40
0.673469387755102
 40
0.673469387755102
 40
0.673469387755102
 40
0.6938775510204082
 40
0.6938775510204082
 40
0.6938775510204082
 40
0.6938775510204082
 40
0.7142857142857143
 40
0.7142857142857143
 40
0.7142857142857143
 40
0.7142857142857143
 40
0.7346938775510204
 40
0.7346938775510204
 40
0.7346938775510204
 40
0.7346938775510204
 40
0.7551020408163265
 40
0.7551020408163265
 40
0.7551020408163265
 40
0.7551020408163265
 40
0.7755102040816326
 40
0.7755102040816326
 40
0.7755102040816326
 40
0.7755102040816326
 40
0.7959183673469388
 40
0.7959183673469388
 40
0.7959183673469388
 40
0.7959183673469388
 40
0.8163265306122449
 40
0.8163265306122449
 40
0.8163265306122449
 40
0.8163265306122449
 40
0.8367346938775511
 40
0.8367346938775511
 40
0.8367346938775511
 40
0.8367346938775511
 40
0.8571428571428571
 40
0.8571428571428571
 40
0.8571428571428571
 40
0.8571428571428571
 40
0.8775510204081632
 40
0.8775510204081632
 40
0.8775510204081632
 40
0.8775510204081632
 40
0.8979591836734694
 40
0.8979591836734694
 40
0.8979591836734694
 40
0.8979591836734694
 40
0.9183673469387755
 40
0.9183673469387755
 40
0.9183673469387755
 40
0.9183673469387755
 40
0.9387755102040817
 40
0.9387755102040817
 40
0.9387755102040817
 40
0.9387755102040817
 40
0.9591836734693877
 40
0.9591836734693877
 40
0.9591836734693877
 40
0.9591836734693877
 40
1.0
 40
1.0
 40
1.0
 40
1.0
 10
-30.8688
 20
19.0555
 30
0.0
 10
-30.8351
 20
19.0277
 30
0.0
 10
-30.7917
 20
19.0012
 30
0.0
 10
-30.7389
 20
18.9754
 30
0.0
 10
-30.7389
 20
18.9754
 30
0.0
 10
-30.6861
 20
18.9495
 30
0.0
 10
-30.6261
 20
18.928
 30
0.0
 10
-30.5589
 20
18.9107
 30
0.0
 10
-30.5589
 20
18.9107
 30
0.0
 10
-30.4917
 20
18.8938
 30
0.0
 10
-30.4202
 20
18.8854
 30
0.0
 10
-30.3442
 20
18.8848
 30
0.0
 10
-30.3442
 20
18.8848
 30
0.0
 10
-30.2236
 20
18.8854
 30
0.0
 10
-30.1175
 20
18.9061
 30
0.0
 10
-30.026
 20
18.9463
 30
0.0
 10
-30.026
 20
18.9463
 30
0.0
 10
-29.9344
 20
18.9863
 30
0.0
 10
-29.8579
 20
19.0419
 30
0.0
 10
-29.7958
 20
19.1118
 30
0.0
 10
-29.7958
 20
19.1118
 30
0.0
 10
-29.7337
 20
19.1816
 30
0.0
 10
-29.6871
 20
19.2624
 30
0.0
 10
-29.6555
 20
19.353
 30
0.0
 10
-29.6555
 20
19.353
 30
0.0
 10
-29.6245
 20
19.4436
 30
0.0
 10
-29.6084
 20
19.5399
 30
0.0
 10
-29.6084
 20
19.6415
 30
0.0
 10
-29.6084
 20
19.6415
 30
0.0
 10
-29.6095
 20
19.7301
 30
0.0
 10
-29.6219
 20
19.8103
 30
0.0
 10
-29.6451
 20
19.8827
 30
0.0
 10
-29.6451
 20
19.8827
 30
0.0
 10
-29.6684
 20
19.9558
 30
0.0
 10
-29.7006
 20
20.0191
 30
0.0
 10
-29.7413
 20
20.0742
 30
0.0
 10
-29.7413
 20
20.0742
 30
0.0
 10
-29.7822
 20
20.1291
 30
0.0
 10
-29.8299
 20
20.1744
 30
0.0
 10
-29.8837
 20
20.2099
 30
0.0
 10
-29.8837
 20
20.2099
 30
0.0
 10
-29.938
 20
20.2454
 30
0.0
 10
-29.9959
 20
20.2708
 30
0.0
 10
-30.0586
 20
20.2856
 30
0.0
 10
-30.0586
 20
20.2856
 30
0.0
 10
-30.0586
 20
20.2856
 30
0.0
 10
-30.0586
 20
20.2934
 30
0.0
 10
-30.0586
 20
20.2934
 30
0.0
 10
-30.0586
 20
20.2934
 30
0.0
 10
-29.9768
 20
20.3315
 30
0.0
 10
-29.908
 20
20.38
 30
0.0
 10
-29.8532
 20
20.4396
 30
0.0
 10
-29.8532
 20
20.4396
 30
0.0
 10
-29.7977
 20
20.499
 30
0.0
 10
-29.7559
 20
20.5676
 30
0.0
 10
-29.728
 20
20.6439
 30
0.0
 10
-29.728
 20
20.6439
 30
0.0
 10
-29.7
 20
20.7202
 30
0.0
 10
-29.686
 20
20.8023
 30
0.0
 10
-29.686
 20
20.8909
 30
0.0
 10
-29.686
 20
20.8909
 30
0.0
 10
-29.686
 20
20.9685
 30
0.0
 10
-29.6974
 20
21.0429
 30
0.0
 10
-29.7201
 20
21.114
 30
0.0
 10
-29.7201
 20
21.114
 30
0.0
 10
-29.7434
 20
21.1858
 30
0.0
 10
-29.7786
 20
21.2499
 30
0.0
 10
-29.8257
 20
21.3068
 30
0.0
 10
-29.8257
 20
21.3068
 30
0.0
 10
-29.8728
 20
21.3638
 30
0.0
 10
-29.9328
 20
21.4083
 30
0.0
 10
-30.0058
 20
21.4414
 30
0.0
 10
-30.0058
 20
21.4414
 30
0.0
 10
-30.0782
 20
21.4749
 30
0.0
 10
-30.164
 20
21.4918
 30
0.0
 10
-30.2634
 20
21.4924
 30
0.0
 10
-30.2634
 20
21.4924
 30
0.0
 10
-30.3363
 20
21.4918
 30
0.0
 10
-30.4063
 20
21.482
 30
0.0
 10
-30.4735
 20
21.464
 30
0.0
 10
-30.4735
 20
21.464
 30
0.0
 10
-30.5407
 20
21.4452
 30
0.0
 10
-30.6018
 20
21.4213
 30
0.0
 10
-30.6566
 20
21.3922
 30
0.0
 10
-30.6566
 20
21.3922
 30
0.0
 10
-30.7115
 20
21.3625
 30
0.0
 10
-30.7575
 20
21.3314
 30
0.0
 10
-30.7942
 20
21.2984
 30
0.0
 10
-30.7942
 20
21.2984
 30
0.0
 10
-30.7942
 20
21.2984
 30
0.0
 10
-30.7198
 20
21.0501
 30
0.0
 10
-30.7198
 20
21.0501
 30
0.0
 10
-30.7198
 20
21.0501
 30
0.0
 10
-30.6903
 20
21.0766
 30
0.0
 10
-30.6545
 20
21.1025
 30
0.0
 10
-30.6121
 20
21.1277
 30
0.0
 10
-30.6121
 20
21.1277
 30
0.0
 10
-30.5703
 20
21.1535
 30
0.0
 10
-30.5237
 20
21.1741
 30
0.0
 10
-30.473
 20
21.191
 30
0.0
 10
-30.473
 20
21.191
 30
0.0
 10
-30.4228
 20
21.2078
 30
0.0
 10
-30.3705
 20
21.2162
 30
0.0
 10
-30.3162
 20
21.217
 30
0.0
 10
-30.3162
 20
21.217
 30
0.0
 10
-30.2324
 20
21.2162
 30
0.0
 10
-30.1646
 20
21.1982
 30
0.0
 10
-30.1129
 20
21.1632
 30
0.0
 10
-30.1129
 20
21.1632
 30
0.0
 10
-30.0606
 20
21.1283
 30
0.0
 10
-30.0224
 20
21.0824
 30
0.0
 10
-29.998
 20
21.0249
 30
0.0
 10
-29.998
 20
21.0249
 30
0.0
 10
-29.9737
 20
20.9679
 30
0.0
 10
-29.9618
 20
20.9052
 30
0.0
 10
-29.9624
 20
20.8366
 30
0.0
 10
-29.9624
 20
20.8366
 30
0.0
 10
-29.9628
 20
20.7623
 30
0.0
 10
-29.9773
 20
20.6976
 30
0.0
 10
-30.0048
 20
20.6439
 30
0.0
 10
-30.0048
 20
20.6439
 30
0.0
 10
-30.0321
 20
20.5902
 30
0.0
 10
-30.0684
 20
20.5456
 30
0.0
 10
-30.1129
 20
20.5114
 30
0.0
 10
-30.1129
 20
20.5114
 30
0.0
 10
-30.1574
 20
20.4764
 30
0.0
 10
-30.206
 20
20.4512
 30
0.0
 10
-30.2583
 20
20.4343
 30
0.0
 10
-30.2583
 20
20.4343
 30
0.0
 10
-30.3105
 20
20.4182
 30
0.0
 10
-30.3617
 20
20.4097
 30
0.0
 10
-30.4124
 20
20.4097
 30
0.0
 10
-30.4124
 20
20.4097
 30
0.0
 10
-30.4124
 20
20.4097
 30
0.0
 10
-30.5646
 20
20.4097
 30
0.0
 10
-30.5646
 20
20.4097
 30
0.0
 10
-30.5646
 20
20.4097
 30
0.0
 10
-30.5646
 20
20.4097
 30
0.0
 10
-30.5646
 20
20.1537
 30
0.0
 10
-30.5646
 20
20.1537
 30
0.0
 10
-30.5646
 20
20.1537
 30
0.0
 10
-30.5646
 20
20.1537
 30
0.0
 10
-30.4124
 20
20.1537
 30
0.0
 10
-30.4124
 20
20.1537
 30
0.0
 10
-30.4124
 20
20.1537
 30
0.0
 10
-30.3457
 20
20.1537
 30
0.0
 10
-30.2816
 20
20.1439
 30
0.0
 10
-30.22
 20
20.1246
 30
0.0
 10
-30.22
 20
20.1246
 30
0.0
 10
-30.1584
 20
20.1052
 30
0.0
 10
-30.103
 20
20.0748
 30
0.0
 10
-30.0539
 20
20.034
 30
0.0
 10
-30.0539
 20
20.034
 30
0.0
 10
-30.0048
 20
19.9932
 30
0.0
 10
-29.9654
 20
19.9409
 30
0.0
 10
-29.9365
 20
19.8768
 30
0.0
 10
-29.9365
 20
19.8768
 30
0.0
 10
-29.9075
 20
19.8135
 30
0.0
 10
-29.8925
 20
19.7372
 30
0.0
 10
-29.8909
 20
19.6492
 30
0.0
 10
-29.8909
 20
19.6492
 30
0.0
 10
-29.8899
 20
19.5949
 30
0.0
 10
-29.8967
 20
19.5393
 30
0.0
 10
-29.9121
 20
19.4831
 30
0.0
 10
-29.9121
 20
19.4831
 30
0.0
 10
-29.9272
 20
19.4261
 30
0.0
 10
-29.9525
 20
19.3731
 30
0.0
 10
-29.9876
 20
19.3246
 30
0.0
 10
-29.9876
 20
19.3246
 30
0.0
 10
-30.0228
 20
19.2761
 30
0.0
 10
-30.0699
 20
19.2366
 30
0.0
 10
-30.129
 20
19.2068
 30
0.0
 10
-30.129
 20
19.2068
 30
0.0
 10
-30.1879
 20
19.1765
 30
0.0
 10
-30.2603
 20
19.1609
 30
0.0
 10
-30.3473
 20
19.1603
 30
0.0
 10
-30.3473
 20
19.1603
 30
0.0
 10
-30.412
 20
19.1609
 30
0.0
 10
-30.4735
 20
19.1699
 30
0.0
 10
-30.5314
 20
19.1874
 30
0.0
 10
-30.5314
 20
19.1874
 30
0.0
 10
-30.5894
 20
19.2049
 30
0.0
 10
-30.6411
 20
19.2256
 30
0.0
 10
-30.6867
 20
19.2496
 30
0.0
 10
-30.6867
 20
19.2496
 30
0.0
 10
-30.7322
 20
19.2735
 30
0.0
 10
-30.7679
 20
19.2955
 30
0.0
 10
-30.7942
 20
19.3154
 30
0.0
 10
-30.7942
 20
19.3154
 30
0.0
 10
-30.7942
 20
19.3154
 30
0.0
 10
-30.8688
 20
19.0555
 30
0.0
 10
-30.8688
 20
19.0555
 30
0.0
  0
SPLINE
  5
C7
330
1F
100
AcDbEntity
  8
DEFAULT_1
 62
   250
100
AcDbSpline
210
0.0
220
0.0
230
1.0
 70
    11
 71
     3
 72
   124
 73
   120
 74
     0
 42
0.0000000001
 43
0.0000000001
 40
0.0
 40
0.0
 40
0.0
 40
0.0
 40
0.032258064516129
 40
0.032258064516129
 40
0.032258064516129
 40
0.032258064516129
 40
0.0645161290322581
 40
0.0645161290322581
 40
0.0645161290322581
 40
0.0645161290322581
 40
0.0967741935483871
 40
0.0967741935483871
 40
0.0967741935483871
 40
0.0967741935483871
 40
0.1290322580645161
 40
0.1290322580645161
 40
0.1290322580645161
 40
0.1290322580645161
 40
0.1612903225806452
 40
0.1612903225806452
 40
0.1612903225806452
 40
0.1612903225806452
 40
0.1935483870967742
 40
0.1935483870967742
 40
0.1935483870967742
 40
0.1935483870967742
 40
0.2258064516129032
 40
0.2258064516129032
 40
0.2258064516129032
 40
0.2258064516129032
 40
0.2580645161290323
 40
0.2580645161290323
 40
0.2580645161290323
 40
0.2580645161290323
 40
0.2903225806451613
 40
0.2903225806451613
 40
0.2903225806451613
 40
0.2903225806451613
 40
0.3225806451612903
 40
0.3225806451612903
 40
0.3225806451612903
 40
0.3225806451612903
 40
0.3548387096774194
 40
0.3548387096774194
 40
0.3548387096774194
 40
0.3548387096774194
 40
0.3870967741935484
 40
0.3870967741935484
 40
0.3870967741935484
 40
0.3870967741935484
 40
0.4193548387096774
 40
0.4193548387096774
 40
0.4193548387096774
 40
0.4193548387096774
 40
0.4516129032258064
 40
0.4516129032258064
 40
0.4516129032258064
 40
0.4516129032258064
 40
0.4838709677419355
 40
0.4838709677419355
 40
0.4838709677419355
 40
0.4838709677419355
 40
0.5161290322580645
 40
0.5161290322580645
 40
0.5161290322580645
 40
0.5161290322580645
 40
0.5483870967741935
 40
0.5483870967741935
 40
0.5483870967741935
 40
0.5483870967741935
 40
0.5806451612903226
 40
0.5806451612903226
 40
0.5806451612903226
 40
0.5806451612903226
 40
0.6129032258064516
 40
0.6129032258064516
 40
0.6129032258064516
 40
0.6129032258064516
 40
0.6451612903225806
 40
0.6451612903225806
 40
0.6451612903225806
 40
0.6451612903225806
 40
0.6774193548387096
 40
0.6774193548387096
 40
0.6774193548387096
 40
0.6774193548387096
 40
0.7096774193548387
 40
0.7096774193548387
 40
0.7096774193548387
 40
0.7096774193548387
 40
0.7419354838709677
 40
0.7419354838709677
 40
0.7419354838709677
 40
0.7419354838709677
 40
0.7741935483870968
 40
0.7741935483870968
 40
0.7741935483870968
 40
0.7741935483870968
 40
0.8064516129032258
 40
0.8064516129032258
 40
0.8064516129032258
 40
0.8064516129032258
 40
0.8387096774193549
 40
0.8387096774193549
 40
0.8387096774193549
 40
0.8387096774193549
 40
0.8709677419354839
 40
0.8709677419354839
 40
0.8709677419354839
 40
0.8709677419354839
 40
0.9032258064516129
 40
0.9032258064516129
 40
0.9032258064516129
 40
0.9032258064516129
 40
0.9354838709677419
 40
0.9354838709677419
 40
0.9354838709677419
 40
0.9354838709677419
 40
1.0
 40
1.0
 40
1.0
 40
1.0
 10
-27.9786
 20
18.9275
 30
0.0
 10
-27.9786
 20
18.9275
 30
0.0
 10
-27.9786
 20
19.2107
 30
0.0
 10
-27.9786
 20
19.2107
 30
0.0
 10
-27.9786
 20
19.2107
 30
0.0
 10
-27.9786
 20
19.2107
 30
0.0
 10
-28.882
 20
19.2107
 30
0.0
 10
-28.882
 20
19.2107
 30
0.0
 10
-28.882
 20
19.2107
 30
0.0
 10
-28.882
 20
19.2107
 30
0.0
 10
-28.882
 20
19.2184
 30
0.0
 10
-28.882
 20
19.2184
 30
0.0
 10
-28.882
 20
19.2184
 30
0.0
 10
-28.882
 20
19.2184
 30
0.0
 10
-28.7237
 20
19.4047
 30
0.0
 10
-28.7237
 20
19.4047
 30
0.0
 10
-28.7237
 20
19.4047
 30
0.0
 10
-28.6171
 20
19.5321
 30
0.0
 10
-28.5208
 20
19.6532
 30
0.0
 10
-28.4355
 20
19.7669
 30
0.0
 10
-28.4355
 20
19.7669
 30
0.0
 10
-28.3501
 20
19.8808
 30
0.0
 10
-28.2772
 20
19.992
 30
0.0
 10
-28.2166
 20
20.0994
 30
0.0
 10
-28.2166
 20
20.0994
 30
0.0
 10
-28.1556
 20
20.2067
 30
0.0
 10
-28.1096
 20
20.3148
 30
0.0
 10
-28.0769
 20
20.4234
 30
0.0
 10
-28.0769
 20
20.4234
 30
0.0
 10
-28.0449
 20
20.5313
 30
0.0
 10
-28.0288
 20
20.6433
 30
0.0
 10
-28.0284
 20
20.7589
 30
0.0
 10
-28.0284
 20
20.7589
 30
0.0
 10
-28.0284
 20
20.8503
 30
0.0
 10
-28.0397
 20
20.9394
 30
0.0
 10
-28.0635
 20
21.0262
 30
0.0
 10
-28.0635
 20
21.0262
 30
0.0
 10
-28.0873
 20
21.1128
 30
0.0
 10
-28.1246
 20
21.191
 30
0.0
 10
-28.1742
 20
21.2609
 30
0.0
 10
-28.1742
 20
21.2609
 30
0.0
 10
-28.2239
 20
21.3314
 30
0.0
 10
-28.288
 20
21.3869
 30
0.0
 10
-28.3661
 20
21.4284
 30
0.0
 10
-28.3661
 20
21.4284
 30
0.0
 10
-28.4443
 20
21.4704
 30
0.0
 10
-28.5374
 20
21.4918
 30
0.0
 10
-28.6461
 20
21.4924
 30
0.0
 10
-28.6461
 20
21.4924
 30
0.0
 10
-28.7226
 20
21.4918
 30
0.0
 10
-28.7955
 20
21.4807
 30
0.0
 10
-28.8649
 20
21.4581
 30
0.0
 10
-28.8649
 20
21.4581
 30
0.0
 10
-28.9343
 20
21.4356
 30
0.0
 10
-28.9984
 20
21.4051
 30
0.0
 10
-29.0573
 20
21.3662
 30
0.0
 10
-29.0573
 20
21.3662
 30
0.0
 10
-29.1158
 20
21.3281
 30
0.0
 10
-29.1681
 20
21.2848
 30
0.0
 10
-29.2142
 20
21.2363
 30
0.0
 10
-29.2142
 20
21.2363
 30
0.0
 10
-29.2142
 20
21.2363
 30
0.0
 10
-29.1272
 20
20.9957
 30
0.0
 10
-29.1272
 20
20.9957
 30
0.0
 10
-29.1272
 20
20.9957
 30
0.0
 10
-29.0963
 20
21.0287
 30
0.0
 10
-29.059
 20
21.0617
 30
0.0
 10
-29.0155
 20
21.0941
 30
0.0
 10
-29.0155
 20
21.0941
 30
0.0
 10
-28.9721
 20
21.127
 30
0.0
 10
-28.9239
 20
21.1535
 30
0.0
 10
-28.8706
 20
21.1755
 30
0.0
 10
-28.8706
 20
21.1755
 30
0.0
 10
-28.8173
 20
21.1969
 30
0.0
 10
-28.7599
 20
21.2085
 30
0.0
 10
-28.6988
 20
21.2091
 30
0.0
 10
-28.6988
 20
21.2091
 30
0.0
 10
-28.6238
 20
21.2085
 30
0.0
 10
-28.5607
 20
21.195
 30
0.0
 10
-28.5095
 20
21.1683
 30
0.0
 10
-28.5095
 20
21.1683
 30
0.0
 10
-28.4587
 20
21.1412
 30
0.0
 10
-28.418
 20
21.105
 30
0.0
 10
-28.3874
 20
21.0591
 30
0.0
 10
-28.3874
 20
21.0591
 30
0.0
 10
-28.3569
 20
21.0125
 30
0.0
 10
-28.3346
 20
20.9602
 30
0.0
 10
-28.3211
 20
20.9012
 30
0.0
 10
-28.3211
 20
20.9012
 30
0.0
 10
-28.3077
 20
20.8424
 30
0.0
 10
-28.301
 20
20.7809
 30
0.0
 10
-28.3014
 20
20.7163
 30
0.0
 10
-28.3014
 20
20.7163
 30
0.0
 10
-28.3014
 20
20.6219
 30
0.0
 10
-28.3165
 20
20.5288
 30
0.0
 10
-28.3465
 20
20.4362
 30
0.0
 10
-28.3465
 20
20.4362
 30
0.0
 10
-28.3765
 20
20.3432
 30
0.0
 10
-28.422
 20
20.2462
 30
0.0
 10
-28.4837
 20
20.1439
 30
0.0
 10
-28.4837
 20
20.1439
 30
0.0
 10
-28.5452
 20
20.0419
 30
0.0
 10
-28.6234
 20
19.9299
 30
0.0
 10
-28.718
 20
19.8083
 30
0.0
 10
-28.718
 20
19.8083
 30
0.0
 10
-28.8121
 20
19.6868
 30
0.0
 10
-28.9239
 20
19.5496
 30
0.0
 10
-29.0527
 20
19.397
 30
0.0
 10
-29.0527
 20
19.397
 30
0.0
 10
-29.0527
 20
19.397
 30
0.0
 10
-29.2669
 20
19.137
 30
0.0
 10
-29.2669
 20
19.137
 30
0.0
 10
-29.2669
 20
19.137
 30
0.0
 10
-29.2669
 20
19.137
 30
0.0
 10
-29.2669
 20
18.9275
 30
0.0
 10
-29.2669
 20
18.9275
 30
0.0
 10
-29.2669
 20
18.9275
 30
0.0
 10
-29.2669
 20
18.9275
 30
0.0
 10
-27.9786
 20
18.9275
 30
0.0
 10
-27.9786
 20
18.9275
 30
0.0
  0
SPLINE
  5
C8
330
1F
100
AcDbEntity
  8
DEFAULT_1
 62
   250
100
AcDbSpline
210
0.0
220
0.0
230
1.0
 70
    11
 71
     3
 72
   104
 73
   100
 74
     0
 42
0.0000000001
 43
0.0000000001
 40
0.0
 40
0.0
 40
0.0
 40
0.0
 40
0.0384615384615385
 40
0.0384615384615385
 40
0.0384615384615385
 40
0.0384615384615385
 40
0.0769230769230769
 40
0.0769230769230769
 40
0.0769230769230769
 40
0.0769230769230769
 40
0.1153846153846154
 40
0.1153846153846154
 40
0.1153846153846154
 40
0.1153846153846154
 40
0.1538461538461539
 40
0.1538461538461539
 40
0.1538461538461539
 40
0.1538461538461539
 40
0.1923076923076923
 40
0.1923076923076923
 40
0.1923076923076923
 40
0.1923076923076923
 40
0.2307692307692308
 40
0.2307692307692308
 40
0.2307692307692308
 40
0.2307692307692308
 40
0.2692307692307692
 40
0.2692307692307692
 40
0.2692307692307692
 40
0.2692307692307692
 40
0.3076923076923077
 40
0.3076923076923077
 40
0.3076923076923077
 40
0.3076923076923077
 40
0.3461538461538461
 40
0.3461538461538461
 40
0.3461538461538461
 40
0.3461538461538461
 40
0.3846153846153846
 40
0.3846153846153846
 40
0.3846153846153846
 40
0.3846153846153846
 40
0.4230769230769231
 40
0.4230769230769231
 40
0.4230769230769231
 40
0.4230769230769231
 40
0.4615384615384616
 40
0.4615384615384616
 40
0.4615384615384616
 40
0.4615384615384616
 40
0.5
 40
0.5
 40
0.5
 40
0.5
 40
0.5384615384615384
 40
0.5384615384615384
 40
0.5384615384615384
 40
0.5384615384615384
 40
0.5769230769230769
 40
0.5769230769230769
 40
0.5769230769230769
 40
0.5769230769230769
 40
0.6153846153846154
 40
0.6153846153846154
 40
0.6153846153846154
 40
0.6153846153846154
 40
0.6538461538461539
 40
0.6538461538461539
 40
0.6538461538461539
 40
0.6538461538461539
 40
0.6923076923076923
 40
0.6923076923076923
 40
0.6923076923076923
 40
0.6923076923076923
 40
0.7307692307692307
 40
0.7307692307692307
 40
0.7307692307692307
 40
0.7307692307692307
 40
0.7692307692307693
 40
0.7692307692307693
 40
0.7692307692307693
 40
0.7692307692307693
 40
0.8076923076923077
 40
0.8076923076923077
 40
0.8076923076923077
 40
0.8076923076923077
 40
0.8461538461538461
 40
0.8461538461538461
 40
0.8461538461538461
 40
0.8461538461538461
 40
0.8846153846153846
 40
0.8846153846153846
 40
0.8846153846153846
 40
0.8846153846153846
 40
0.9230769230769231
 40
0.9230769230769231
 40
0.9230769230769231
 40
0.9230769230769231
 40
1.0
 40
1.0
 40
1.0
 40
1.0
 10
10.599
 20
-1.2005
 30
0.0
 10
10.599
 20
-1.2005
 30
0.0
 10
10.2652
 20
-1.0049
 30
0.0
 10
10.2652
 20
-1.0049
 30
0.0
 10
10.2652
 20
-1.0049
 30
0.0
 10
10.3332
 20
-0.9299
 30
0.0
 10
10.3855
 20
-0.8476
 30
0.0
 10
10.4212
 20
-0.7586
 30
0.0
 10
10.4212
 20
-0.7586
 30
0.0
 10
10.4567
 20
-0.6691
 30
0.0
 10
10.4748
 20
-0.5755
 30
0.0
 10
10.4748
 20
-0.4771
 30
0.0
 10
10.4748
 20
-0.4771
 30
0.0
 10
10.4748
 20
-0.3764
 30
0.0
 10
10.456
 20
-0.2785
 30
0.0
 10
10.4192
 20
-0.1848
 30
0.0
 10
10.4192
 20
-0.1848
 30
0.0
 10
10.3823
 20
-0.0913
 30
0.0
 10
10.3274
 20
-0.0044
 30
0.0
 10
10.2536
 20
0.0753
 30
0.0
 10
10.2536
 20
0.0753
 30
0.0
 10
10.1806
 20
0.1556
 30
0.0
 10
10.0887
 20
0.2254
 30
0.0
 10
9.9788
 20
0.2854
 30
0.0
 10
9.9788
 20
0.2854
 30
0.0
 10
9.8688
 20
0.3449
 30
0.0
 10
9.7408
 20
0.3915
 30
0.0
 10
9.594
 20
0.4251
 30
0.0
 10
9.594
 20
0.4251
 30
0.0
 10
9.4478
 20
0.4583
 30
0.0
 10
9.2835
 20
0.4753
 30
0.0
 10
9.1012
 20
0.4759
 30
0.0
 10
9.1012
 20
0.4759
 30
0.0
 10
8.9725
 20
0.4759
 30
0.0
 10
8.8503
 20
0.4655
 30
0.0
 10
8.7338
 20
0.4443
 30
0.0
 10
8.7338
 20
0.4443
 30
0.0
 10
8.6168
 20
0.4236
 30
0.0
 10
8.5082
 20
0.3931
 30
0.0
 10
8.4078
 20
0.3532
 30
0.0
 10
8.4078
 20
0.3532
 30
0.0
 10
8.3076
 20
0.3129
 30
0.0
 10
8.2184
 20
0.2637
 30
0.0
 10
8.1388
 20
0.2057
 30
0.0
 10
8.1388
 20
0.2057
 30
0.0
 10
8.1388
 20
0.2057
 30
0.0
 10
7.8051
 20
0.3982
 30
0.0
 10
7.8051
 20
0.3982
 30
0.0
 10
7.8051
 20
0.3982
 30
0.0
 10
7.8051
 20
0.3982
 30
0.0
 10
7.6654
 20
0.2337
 30
0.0
 10
7.6654
 20
0.2337
 30
0.0
 10
7.6654
 20
0.2337
 30
0.0
 10
7.6654
 20
0.2337
 30
0.0
 10
7.9797
 20
0.0505
 30
0.0
 10
7.9797
 20
0.0505
 30
0.0
 10
7.9797
 20
0.0505
 30
0.0
 10
7.9099
 20
-0.0245
 30
0.0
 10
7.8575
 20
-0.1057
 30
0.0
 10
7.8225
 20
-0.1937
 30
0.0
 10
7.8225
 20
-0.1937
 30
0.0
 10
7.7876
 20
-0.2821
 30
0.0
 10
7.7703
 20
-0.3743
 30
0.0
 10
7.7703
 20
-0.471
 30
0.0
 10
7.7703
 20
-0.471
 30
0.0
 10
7.7708
 20
-0.6091
 30
0.0
 10
7.8032
 20
-0.7364
 30
0.0
 10
7.8672
 20
-0.8538
 30
0.0
 10
7.8672
 20
-0.8538
 30
0.0
 10
7.9312
 20
-0.9708
 30
0.0
 10
8.0237
 20
-1.0727
 30
0.0
 10
8.1434
 20
-1.1596
 30
0.0
 10
8.1434
 20
-1.1596
 30
0.0
 10
8.2629
 20
-1.247
 30
0.0
 10
8.4065
 20
-1.3144
 30
0.0
 10
8.574
 20
-1.3629
 30
0.0
 10
8.574
 20
-1.3629
 30
0.0
 10
8.7416
 20
-1.4111
 30
0.0
 10
8.9285
 20
-1.4359
 30
0.0
 10
9.1361
 20
-1.4365
 30
0.0
 10
9.1361
 20
-1.4365
 30
0.0
 10
9.2668
 20
-1.4365
 30
0.0
 10
9.3916
 20
-1.425
 30
0.0
 10
9.5093
 20
-1.4034
 30
0.0
 10
9.5093
 20
-1.4034
 30
0.0
 10
9.6269
 20
-1.3816
 30
0.0
 10
9.7363
 20
-1.35
 30
0.0
 10
9.8365
 20
-1.3091
 30
0.0
 10
9.8365
 20
-1.3091
 30
0.0
 10
9.9367
 20
-1.2678
 30
0.0
 10
10.0267
 20
-1.2181
 30
0.0
 10
10.1062
 20
-1.1601
 30
0.0
 10
10.1062
 20
-1.1601
 30
0.0
 10
10.1062
 20
-1.1601
 30
0.0
 10
10.4438
 20
-1.3526
 30
0.0
 10
10.4438
 20
-1.3526
 30
0.0
 10
10.4438
 20
-1.3526
 30
0.0
 10
10.4438
 20
-1.3526
 30
0.0
 10
10.599
 20
-1.2005
 30
0.0
 10
10.599
 20
-1.2005
 30
0.0
  0
SPLINE
  5
C9
330
1F
100
AcDbEntity
  8
DEFAULT_1
 62
   250
100
AcDbSpline
210
0.0
220
0.0
230
1.0
 70
    11
 71
     3
 72
    52
 73
    48
 74
     0
 42
0.0000000001
 43
0.0000000001
 40
0.0
 40
0.0
 40
0.0
 40
0.0
 40
0.0769230769230769
 40
0.0769230769230769
 40
0.0769230769230769
 40
0.0769230769230769
 40
0.1538461538461539
 40
0.1538461538461539
 40
0.1538461538461539
 40
0.1538461538461539
 40
0.2307692307692308
 40
0.2307692307692308
 40
0.2307692307692308
 40
0.2307692307692308
 40
0.3076923076923077
 40
0.3076923076923077
 40
0.3076923076923077
 40
0.3076923076923077
 40
0.3846153846153846
 40
0.3846153846153846
 40
0.3846153846153846
 40
0.3846153846153846
 40
0.4615384615384616
 40
0.4615384615384616
 40
0.4615384615384616
 40
0.4615384615384616
 40
0.5384615384615384
 40
0.5384615384615384
 40
0.5384615384615384
 40
0.5384615384615384
 40
0.6153846153846154
 40
0.6153846153846154
 40
0.6153846153846154
 40
0.6153846153846154
 40
0.6923076923076923
 40
0.6923076923076923
 40
0.6923076923076923
 40
0.6923076923076923
 40
0.7692307692307693
 40
0.7692307692307693
 40
0.7692307692307693
 40
0.7692307692307693
 40
0.8461538461538461
 40
0.8461538461538461
 40
0.8461538461538461
 40
0.8461538461538461
 40
1.0
 40
1.0
 40
1.0
 40
1.0
 10
9.819
 20
-1.0018
 30
0.0
 10
9.819
 20
-1.0018
 30
0.0
 10
9.823
 20
-1.0081
 30
0.0
 10
9.823
 20
-1.0081
 30
0.0
 10
9.823
 20
-1.0081
 30
0.0
 10
9.7563
 20
-1.039
 30
0.0
 10
9.6871
 20
-1.066
 30
0.0
 10
9.616
 20
-1.0888
 30
0.0
 10
9.616
 20
-1.0888
 30
0.0
 10
9.5442
 20
-1.1115
 30
0.0
 10
9.4685
 20
-1.1291
 30
0.0
 10
9.3871
 20
-1.1416
 30
0.0
 10
9.3871
 20
-1.1416
 30
0.0
 10
9.3062
 20
-1.1539
 30
0.0
 10
9.217
 20
-1.1601
 30
0.0
 10
9.1206
 20
-1.1601
 30
0.0
 10
9.1206
 20
-1.1601
 30
0.0
 10
9.0093
 20
-1.1601
 30
0.0
 10
8.902
 20
-1.1508
 30
0.0
 10
8.7965
 20
-1.1327
 30
0.0
 10
8.7965
 20
-1.1327
 30
0.0
 10
8.6918
 20
-1.1141
 30
0.0
 10
8.5935
 20
-1.0867
 30
0.0
 10
8.5029
 20
-1.0505
 30
0.0
 10
8.5029
 20
-1.0505
 30
0.0
 10
8.4118
 20
-1.0138
 30
0.0
 10
8.3315
 20
-0.9682
 30
0.0
 10
8.2629
 20
-0.9133
 30
0.0
 10
8.2629
 20
-0.9133
 30
0.0
 10
8.1938
 20
-0.8585
 30
0.0
 10
8.1402
 20
-0.7949
 30
0.0
 10
8.1013
 20
-0.7224
 30
0.0
 10
8.1013
 20
-0.7224
 30
0.0
 10
8.0618
 20
-0.6494
 30
0.0
 10
8.0424
 20
-0.5678
 30
0.0
 10
8.0419
 20
-0.4771
 30
0.0
 10
8.0419
 20
-0.4771
 30
0.0
 10
8.0424
 20
-0.398
 30
0.0
 10
8.0586
 20
-0.3256
 30
0.0
 10
8.0909
 20
-0.2604
 30
0.0
 10
8.0909
 20
-0.2604
 30
0.0
 10
8.1227
 20
-0.1947
 30
0.0
 10
8.1672
 20
-0.1358
 30
0.0
 10
8.2242
 20
-0.083
 30
0.0
 10
8.2242
 20
-0.083
 30
0.0
 10
8.2242
 20
-0.083
 30
0.0
 10
9.819
 20
-1.0018
 30
0.0
 10
9.819
 20
-1.0018
 30
0.0
  0
SPLINE
  5
CA
330
1F
100
AcDbEntity
  8
DEFAULT_1
 62
   250
100
AcDbSpline
210
0.0
220
0.0
230
1.0
 70
    11
 71
     3
 72
    48
 73
    44
 74
     0
 42
0.0000000001
 43
0.0000000001
 40
0.0
 40
0.0
 40
0.0
 40
0.0
 40
0.0833333333333333
 40
0.0833333333333333
 40
0.0833333333333333
 40
0.0833333333333333
 40
0.1666666666666667
 40
0.1666666666666667
 40
0.1666666666666667
 40
0.1666666666666667
 40
0.25
 40
0.25
 40
0.25
 40
0.25
 40
0.3333333333333333
 40
0.3333333333333333
 40
0.3333333333333333
 40
0.3333333333333333
 40
0.4166666666666667
 40
0.4166666666666667
 40
0.4166666666666667
 40
0.4166666666666667
 40
0.5
 40
0.5
 40
0.5
 40
0.5
 40
0.5833333333333334
 40
0.5833333333333334
 40
0.5833333333333334
 40
0.5833333333333334
 40
0.6666666666666666
 40
0.6666666666666666
 40
0.6666666666666666
 40
0.6666666666666666
 40
0.75
 40
0.75
 40
0.75
 40
0.75
 40
0.8333333333333334
 40
0.8333333333333334
 40
0.8333333333333334
 40
0.8333333333333334
 40
1.0
 40
1.0
 40
1.0
 40
1.0
 10
8.4298
 20
0.0443
 30
0.0
 10
8.4298
 20
0.0443
 30
0.0
 10
8.4298
 20
0.0537
 30
0.0
 10
8.4298
 20
0.0537
 30
0.0
 10
8.4298
 20
0.0537
 30
0.0
 10
8.5424
 20
0.1075
 30
0.0
 10
8.6561
 20
0.1452
 30
0.0
 10
8.7713
 20
0.1675
 30
0.0
 10
8.7713
 20
0.1675
 30
0.0
 10
8.8858
 20
0.1897
 30
0.0
 10
8.9997
 20
0.2006
 30
0.0
 10
9.1128
 20
0.1995
 30
0.0
 10
9.1128
 20
0.1995
 30
0.0
 10
9.2305
 20
0.1995
 30
0.0
 10
9.3431
 20
0.1897
 30
0.0
 10
9.451
 20
0.1705
 30
0.0
 10
9.451
 20
0.1705
 30
0.0
 10
9.5591
 20
0.1514
 30
0.0
 10
9.6587
 20
0.123
 30
0.0
 10
9.7498
 20
0.0857
 30
0.0
 10
9.7498
 20
0.0857
 30
0.0
 10
9.841
 20
0.048
 30
0.0
 10
9.9205
 20
0.0019
 30
0.0
 10
9.9878
 20
-0.0529
 30
0.0
 10
9.9878
 20
-0.0529
 30
0.0
 10
10.0557
 20
-0.1083
 30
0.0
 10
10.1088
 20
-0.1714
 30
0.0
 10
10.1463
 20
-0.2428
 30
0.0
 10
10.1463
 20
-0.2428
 30
0.0
 10
10.1838
 20
-0.3143
 30
0.0
 10
10.2026
 20
-0.3934
 30
0.0
 10
10.2032
 20
-0.4803
 30
0.0
 10
10.2032
 20
-0.4803
 30
0.0
 10
10.2032
 20
-0.5646
 30
0.0
 10
10.187
 20
-0.6386
 30
0.0
 10
10.1553
 20
-0.7012
 30
0.0
 10
10.1553
 20
-0.7012
 30
0.0
 10
10.1237
 20
-0.7643
 30
0.0
 10
10.0771
 20
-0.8207
 30
0.0
 10
10.0169
 20
-0.8714
 30
0.0
 10
10.0169
 20
-0.8714
 30
0.0
 10
10.0169
 20
-0.8714
 30
0.0
 10
8.4298
 20
0.0443
 30
0.0
 10
8.4298
 20
0.0443
 30
0.0
  0
SPLINE
  5
CB
330
1F
100
AcDbEntity
  8
DEFAULT_1
 62
   250
100
AcDbSpline
210
0.0
220
0.0
230
1.0
 70
    11
 71
     3
 72
   196
 73
   192
 74
     0
 42
0.0000000001
 43
0.0000000001
 40
0.0
 40
0.0
 40
0.0
 40
0.0
 40
0.0204081632653061
 40
0.0204081632653061
 40
0.0204081632653061
 40
0.0204081632653061
 40
0.0408163265306122
 40
0.0408163265306122
 40
0.0408163265306122
 40
0.0408163265306122
 40
0.0612244897959184
 40
0.0612244897959184
 40
0.0612244897959184
 40
0.0612244897959184
 40
0.0816326530612245
 40
0.0816326530612245
 40
0.0816326530612245
 40
0.0816326530612245
 40
0.1020408163265306
 40
0.1020408163265306
 40
0.1020408163265306
 40
0.1020408163265306
 40
0.1224489795918367
 40
0.1224489795918367
 40
0.1224489795918367
 40
0.1224489795918367
 40
0.1428571428571428
 40
0.1428571428571428
 40
0.1428571428571428
 40
0.1428571428571428
 40
0.163265306122449
 40
0.163265306122449
 40
0.163265306122449
 40
0.163265306122449
 40
0.1836734693877551
 40
0.1836734693877551
 40
0.1836734693877551
 40
0.1836734693877551
 40
0.2040816326530612
 40
0.2040816326530612
 40
0.2040816326530612
 40
0.2040816326530612
 40
0.2244897959183673
 40
0.2244897959183673
 40
0.2244897959183673
 40
0.2244897959183673
 40
0.2448979591836735
 40
0.2448979591836735
 40
0.2448979591836735
 40
0.2448979591836735
 40
0.2653061224489796
 40
0.2653061224489796
 40
0.2653061224489796
 40
0.2653061224489796
 40
0.2857142857142857
 40
0.2857142857142857
 40
0.2857142857142857
 40
0.2857142857142857
 40
0.3061224489795918
 40
0.3061224489795918
 40
0.3061224489795918
 40
0.3061224489795918
 40
0.3265306122448979
 40
0.3265306122448979
 40
0.3265306122448979
 40
0.3265306122448979
 40
0.3469387755102041
 40
0.3469387755102041
 40
0.3469387755102041
 40
0.3469387755102041
 40
0.3673469387755102
 40
0.3673469387755102
 40
0.3673469387755102
 40
0.3673469387755102
 40
0.3877551020408163
 40
0.3877551020408163
 40
0.3877551020408163
 40
0.3877551020408163
 40
0.4081632653061225
 40
0.4081632653061225
 40
0.4081632653061225
 40
0.4081632653061225
 40
0.4285714285714285
 40
0.4285714285714285
 40
0.4285714285714285
 40
0.4285714285714285
 40
0.4489795918367347
 40
0.4489795918367347
 40
0.4489795918367347
 40
0.4489795918367347
 40
0.4693877551020408
 40
0.4693877551020408
 40
0.4693877551020408
 40
0.4693877551020408
 40
0.4897959183673469
 40
0.4897959183673469
 40
0.4897959183673469
 40
0.4897959183673469
 40
0.5102040816326531
 40
0.5102040816326531
 40
0.5102040816326531
 40
0.5102040816326531
 40
0.5306122448979592
 40
0.5306122448979592
 40
0.5306122448979592
 40
0.5306122448979592
 40
0.5510204081632653
 40
0.5510204081632653
 40
0.5510204081632653
 40
0.5510204081632653
 40
0.5714285714285714
 40
0.5714285714285714
 40
0.5714285714285714
 40
0.5714285714285714
 40
0.5918367346938775
 40
0.5918367346938775
 40
0.5918367346938775
 40
0.5918367346938775
 40
0.6122448979591837
 40
0.6122448979591837
 40
0.6122448979591837
 40
0.6122448979591837
 40
0.6326530612244898
 40
0.6326530612244898
 40
0.6326530612244898
 40
0.6326530612244898
 40
0.6530612244897959
 40
0.6530612244897959
 40
0.6530612244897959
 40
0.6530612244897959
 40
0.673469387755102
 40
0.673469387755102
 40
0.673469387755102
 40
0.673469387755102
 40
0.6938775510204082
 40
0.6938775510204082
 40
0.6938775510204082
 40
0.6938775510204082
 40
0.7142857142857143
 40
0.7142857142857143
 40
0.7142857142857143
 40
0.7142857142857143
 40
0.7346938775510204
 40
0.7346938775510204
 40
0.7346938775510204
 40
0.7346938775510204
 40
0.7551020408163265
 40
0.7551020408163265
 40
0.7551020408163265
 40
0.7551020408163265
 40
0.7755102040816326
 40
0.7755102040816326
 40
0.7755102040816326
 40
0.7755102040816326
 40
0.7959183673469388
 40
0.7959183673469388
 40
0.7959183673469388
 40
0.7959183673469388
 40
0.8163265306122449
 40
0.8163265306122449
 40
0.8163265306122449
 40
0.8163265306122449
 40
0.8367346938775511
 40
0.8367346938775511
 40
0.8367346938775511
 40
0.8367346938775511
 40
0.8571428571428571
 40
0.8571428571428571
 40
0.8571428571428571
 40
0.8571428571428571
 40
0.8775510204081632
 40
0.8775510204081632
 40
0.8775510204081632
 40
0.8775510204081632
 40
0.8979591836734694
 40
0.8979591836734694
 40
0.8979591836734694
 40
0.8979591836734694
 40
0.9183673469387755
 40
0.9183673469387755
 40
0.9183673469387755
 40
0.9183673469387755
 40
0.9387755102040817
 40
0.9387755102040817
 40
0.9387755102040817
 40
0.9387755102040817
 40
0.9591836734693877
 40
0.9591836734693877
 40
0.9591836734693877
 40
0.9591836734693877
 40
1.0
 40
1.0
 40
1.0
 40
1.0
 10
10.3041
 20
0.721
 30
0.0
 10
10.3319
 20
0.7547
 30
0.0
 10
10.3584
 20
0.7981
 30
0.0
 10
10.3842
 20
0.8509
 30
0.0
 10
10.3842
 20
0.8509
 30
0.0
 10
10.4101
 20
0.9037
 30
0.0
 10
10.4316
 20
0.9637
 30
0.0
 10
10.4489
 20
1.0309
 30
0.0
 10
10.4489
 20
1.0309
 30
0.0
 10
10.4658
 20
1.0981
 30
0.0
 10
10.4742
 20
1.1696
 30
0.0
 10
10.4748
 20
1.2456
 30
0.0
 10
10.4748
 20
1.2456
 30
0.0
 10
10.4742
 20
1.3662
 30
0.0
 10
10.4535
 20
1.4723
 30
0.0
 10
10.4133
 20
1.5638
 30
0.0
 10
10.4133
 20
1.5638
 30
0.0
 10
10.3733
 20
1.6554
 30
0.0
 10
10.3177
 20
1.7319
 30
0.0
 10
10.2478
 20
1.794
 30
0.0
 10
10.2478
 20
1.794
 30
0.0
 10
10.178
 20
1.8561
 30
0.0
 10
10.0972
 20
1.9027
 30
0.0
 10
10.0066
 20
1.9343
 30
0.0
 10
10.0066
 20
1.9343
 30
0.0
 10
9.916
 20
1.9653
 30
0.0
 10
9.8197
 20
1.9814
 30
0.0
 10
9.7181
 20
1.9814
 30
0.0
 10
9.7181
 20
1.9814
 30
0.0
 10
9.6295
 20
1.9803
 30
0.0
 10
9.5493
 20
1.9679
 30
0.0
 10
9.4769
 20
1.9447
 30
0.0
 10
9.4769
 20
1.9447
 30
0.0
 10
9.4038
 20
1.9214
 30
0.0
 10
9.3405
 20
1.8892
 30
0.0
 10
9.2854
 20
1.8485
 30
0.0
 10
9.2854
 20
1.8485
 30
0.0
 10
9.2305
 20
1.8076
 30
0.0
 10
9.1852
 20
1.7599
 30
0.0
 10
9.1497
 20
1.7061
 30
0.0
 10
9.1497
 20
1.7061
 30
0.0
 10
9.1142
 20
1.6518
 30
0.0
 10
9.0888
 20
1.5939
 30
0.0
 10
9.074
 20
1.5312
 30
0.0
 10
9.074
 20
1.5312
 30
0.0
 10
9.074
 20
1.5312
 30
0.0
 10
9.0662
 20
1.5312
 30
0.0
 10
9.0662
 20
1.5312
 30
0.0
 10
9.0662
 20
1.5312
 30
0.0
 10
9.0281
 20
1.613
 30
0.0
 10
8.9796
 20
1.6818
 30
0.0
 10
8.92
 20
1.7366
 30
0.0
 10
8.92
 20
1.7366
 30
0.0
 10
8.8606
 20
1.7921
 30
0.0
 10
8.792
 20
1.8339
 30
0.0
 10
8.7157
 20
1.8618
 30
0.0
 10
8.7157
 20
1.8618
 30
0.0
 10
8.6394
 20
1.8898
 30
0.0
 10
8.5573
 20
1.9038
 30
0.0
 10
8.4687
 20
1.9038
 30
0.0
 10
8.4687
 20
1.9038
 30
0.0
 10
8.3911
 20
1.9038
 30
0.0
 10
8.3167
 20
1.8924
 30
0.0
 10
8.2456
 20
1.8697
 30
0.0
 10
8.2456
 20
1.8697
 30
0.0
 10
8.1738
 20
1.8464
 30
0.0
 10
8.1097
 20
1.8112
 30
0.0
 10
8.0528
 20
1.7641
 30
0.0
 10
8.0528
 20
1.7641
 30
0.0
 10
7.9958
 20
1.717
 30
0.0
 10
7.9513
 20
1.657
 30
0.0
 10
7.9182
 20
1.584
 30
0.0
 10
7.9182
 20
1.584
 30
0.0
 10
7.8847
 20
1.5116
 30
0.0
 10
7.8678
 20
1.4258
 30
0.0
 10
7.8672
 20
1.3264
 30
0.0
 10
7.8672
 20
1.3264
 30
0.0
 10
7.8678
 20
1.2535
 30
0.0
 10
7.8776
 20
1.1835
 30
0.0
 10
7.8956
 20
1.1163
 30
0.0
 10
7.8956
 20
1.1163
 30
0.0
 10
7.9144
 20
1.0491
 30
0.0
 10
7.9383
 20
0.988
 30
0.0
 10
7.9674
 20
0.9332
 30
0.0
 10
7.9674
 20
0.9332
 30
0.0
 10
7.9971
 20
0.8783
 30
0.0
 10
8.0282
 20
0.8323
 30
0.0
 10
8.0612
 20
0.7956
 30
0.0
 10
8.0612
 20
0.7956
 30
0.0
 10
8.0612
 20
0.7956
 30
0.0
 10
8.3095
 20
0.87
 30
0.0
 10
8.3095
 20
0.87
 30
0.0
 10
8.3095
 20
0.87
 30
0.0
 10
8.283
 20
0.8995
 30
0.0
 10
8.2571
 20
0.9353
 30
0.0
 10
8.2319
 20
0.9777
 30
0.0
 10
8.2319
 20
0.9777
 30
0.0
 10
8.2061
 20
1.0195
 30
0.0
 10
8.1855
 20
1.0661
 30
0.0
 10
8.1686
 20
1.1168
 30
0.0
 10
8.1686
 20
1.1168
 30
0.0
 10
8.1518
 20
1.167
 30
0.0
 10
8.1434
 20
1.2193
 30
0.0
 10
8.1426
 20
1.2736
 30
0.0
 10
8.1426
 20
1.2736
 30
0.0
 10
8.1434
 20
1.3574
 30
0.0
 10
8.1614
 20
1.4252
 30
0.0
 10
8.1964
 20
1.4769
 30
0.0
 10
8.1964
 20
1.4769
 30
0.0
 10
8.2313
 20
1.5292
 30
0.0
 10
8.2772
 20
1.5674
 30
0.0
 10
8.3347
 20
1.5918
 30
0.0
 10
8.3347
 20
1.5918
 30
0.0
 10
8.3917
 20
1.6161
 30
0.0
 10
8.4544
 20
1.628
 30
0.0
 10
8.523
 20
1.6274
 30
0.0
 10
8.523
 20
1.6274
 30
0.0
 10
8.5973
 20
1.627
 30
0.0
 10
8.662
 20
1.6125
 30
0.0
 10
8.7157
 20
1.585
 30
0.0
 10
8.7157
 20
1.585
 30
0.0
 10
8.7694
 20
1.5577
 30
0.0
 10
8.814
 20
1.5214
 30
0.0
 10
8.8482
 20
1.4769
 30
0.0
 10
8.8482
 20
1.4769
 30
0.0
 10
8.8832
 20
1.4324
 30
0.0
 10
8.9084
 20
1.3838
 30
0.0
 10
8.9253
 20
1.3315
 30
0.0
 10
8.9253
 20
1.3315
 30
0.0
 10
8.9414
 20
1.2793
 30
0.0
 10
8.9499
 20
1.2281
 30
0.0
 10
8.9499
 20
1.1774
 30
0.0
 10
8.9499
 20
1.1774
 30
0.0
 10
8.9499
 20
1.1774
 30
0.0
 10
8.9499
 20
1.0252
 30
0.0
 10
8.9499
 20
1.0252
 30
0.0
 10
8.9499
 20
1.0252
 30
0.0
 10
8.9499
 20
1.0252
 30
0.0
 10
9.2059
 20
1.0252
 30
0.0
 10
9.2059
 20
1.0252
 30
0.0
 10
9.2059
 20
1.0252
 30
0.0
 10
9.2059
 20
1.0252
 30
0.0
 10
9.2059
 20
1.1774
 30
0.0
 10
9.2059
 20
1.1774
 30
0.0
 10
9.2059
 20
1.1774
 30
0.0
 10
9.2059
 20
1.2441
 30
0.0
 10
9.2157
 20
1.3082
 30
0.0
 10
9.235
 20
1.3698
 30
0.0
 10
9.235
 20
1.3698
 30
0.0
 10
9.2544
 20
1.4314
 30
0.0
 10
9.2848
 20
1.4868
 30
0.0
 10
9.3256
 20
1.5359
 30
0.0
 10
9.3256
 20
1.5359
 30
0.0
 10
9.3664
 20
1.585
 30
0.0
 10
9.4187
 20
1.6244
 30
0.0
 10
9.4828
 20
1.6533
 30
0.0
 10
9.4828
 20
1.6533
 30
0.0
 10
9.5461
 20
1.6823
 30
0.0
 10
9.6224
 20
1.6973
 30
0.0
 10
9.7104
 20
1.6989
 30
0.0
 10
9.7104
 20
1.6989
 30
0.0
 10
9.7647
 20
1.6999
 30
0.0
 10
9.8203
 20
1.6931
 30
0.0
 10
9.8765
 20
1.6777
 30
0.0
 10
9.8765
 20
1.6777
 30
0.0
 10
9.9335
 20
1.6626
 30
0.0
 10
9.9865
 20
1.6373
 30
0.0
 10
10.035
 20
1.6022
 30
0.0
 10
10.035
 20
1.6022
 30
0.0
 10
10.0835
 20
1.567
 30
0.0
 10
10.123
 20
1.5199
 30
0.0
 10
10.1528
 20
1.4608
 30
0.0
 10
10.1528
 20
1.4608
 30
0.0
 10
10.1831
 20
1.4019
 30
0.0
 10
10.1987
 20
1.3295
 30
0.0
 10
10.1993
 20
1.2425
 30
0.0
 10
10.1993
 20
1.2425
 30
0.0
 10
10.1987
 20
1.1778
 30
0.0
 10
10.1897
 20
1.1163
 30
0.0
 10
10.1722
 20
1.0584
 30
0.0
 10
10.1722
 20
1.0584
 30
0.0
 10
10.1547
 20
1.0004
 30
0.0
 10
10.134
 20
0.9487
 30
0.0
 10
10.11
 20
0.9031
 30
0.0
 10
10.11
 20
0.9031
 30
0.0
 10
10.0861
 20
0.8576
 30
0.0
 10
10.0641
 20
0.8219
 30
0.0
 10
10.0442
 20
0.7956
 30
0.0
 10
10.0442
 20
0.7956
 30
0.0
 10
10.0442
 20
0.7956
 30
0.0
 10
10.3041
 20
0.721
 30
0.0
 10
10.3041
 20
0.721
 30
0.0
  0
SPLINE
  5
CC
330
1F
100
AcDbEntity
  8
DEFAULT_1
 62
   250
100
AcDbSpline
210
0.0
220
0.0
230
1.0
 70
    11
 71
     3
 72
   124
 73
   120
 74
     0
 42
0.0000000001
 43
0.0000000001
 40
0.0
 40
0.0
 40
0.0
 40
0.0
 40
0.032258064516129
 40
0.032258064516129
 40
0.032258064516129
 40
0.032258064516129
 40
0.0645161290322581
 40
0.0645161290322581
 40
0.0645161290322581
 40
0.0645161290322581
 40
0.0967741935483871
 40
0.0967741935483871
 40
0.0967741935483871
 40
0.0967741935483871
 40
0.1290322580645161
 40
0.1290322580645161
 40
0.1290322580645161
 40
0.1290322580645161
 40
0.1612903225806452
 40
0.1612903225806452
 40
0.1612903225806452
 40
0.1612903225806452
 40
0.1935483870967742
 40
0.1935483870967742
 40
0.1935483870967742
 40
0.1935483870967742
 40
0.2258064516129032
 40
0.2258064516129032
 40
0.2258064516129032
 40
0.2258064516129032
 40
0.2580645161290323
 40
0.2580645161290323
 40
0.2580645161290323
 40
0.2580645161290323
 40
0.2903225806451613
 40
0.2903225806451613
 40
0.2903225806451613
 40
0.2903225806451613
 40
0.3225806451612903
 40
0.3225806451612903
 40
0.3225806451612903
 40
0.3225806451612903
 40
0.3548387096774194
 40
0.3548387096774194
 40
0.3548387096774194
 40
0.3548387096774194
 40
0.3870967741935484
 40
0.3870967741935484
 40
0.3870967741935484
 40
0.3870967741935484
 40
0.4193548387096774
 40
0.4193548387096774
 40
0.4193548387096774
 40
0.4193548387096774
 40
0.4516129032258064
 40
0.4516129032258064
 40
0.4516129032258064
 40
0.4516129032258064
 40
0.4838709677419355
 40
0.4838709677419355
 40
0.4838709677419355
 40
0.4838709677419355
 40
0.5161290322580645
 40
0.5161290322580645
 40
0.5161290322580645
 40
0.5161290322580645
 40
0.5483870967741935
 40
0.5483870967741935
 40
0.5483870967741935
 40
0.5483870967741935
 40
0.5806451612903226
 40
0.5806451612903226
 40
0.5806451612903226
 40
0.5806451612903226
 40
0.6129032258064516
 40
0.6129032258064516
 40
0.6129032258064516
 40
0.6129032258064516
 40
0.6451612903225806
 40
0.6451612903225806
 40
0.6451612903225806
 40
0.6451612903225806
 40
0.6774193548387096
 40
0.6774193548387096
 40
0.6774193548387096
 40
0.6774193548387096
 40
0.7096774193548387
 40
0.7096774193548387
 40
0.7096774193548387
 40
0.7096774193548387
 40
0.7419354838709677
 40
0.7419354838709677
 40
0.7419354838709677
 40
0.7419354838709677
 40
0.7741935483870968
 40
0.7741935483870968
 40
0.7741935483870968
 40
0.7741935483870968
 40
0.8064516129032258
 40
0.8064516129032258
 40
0.8064516129032258
 40
0.8064516129032258
 40
0.8387096774193549
 40
0.8387096774193549
 40
0.8387096774193549
 40
0.8387096774193549
 40
0.8709677419354839
 40
0.8709677419354839
 40
0.8709677419354839
 40
0.8709677419354839
 40
0.9032258064516129
 40
0.9032258064516129
 40
0.9032258064516129
 40
0.9032258064516129
 40
0.9354838709677419
 40
0.9354838709677419
 40
0.9354838709677419
 40
0.9354838709677419
 40
1.0
 40
1.0
 40
1.0
 40
1.0
 10
10.4321
 20
3.6112
 30
0.0
 10
10.4321
 20
3.6112
 30
0.0
 10
10.1489
 20
3.6112
 30
0.0
 10
10.1489
 20
3.6112
 30
0.0
 10
10.1489
 20
3.6112
 30
0.0
 10
10.1489
 20
3.6112
 30
0.0
 10
10.1489
 20
2.7078
 30
0.0
 10
10.1489
 20
2.7078
 30
0.0
 10
10.1489
 20
2.7078
 30
0.0
 10
10.1489
 20
2.7078
 30
0.0
 10
10.1412
 20
2.7078
 30
0.0
 10
10.1412
 20
2.7078
 30
0.0
 10
10.1412
 20
2.7078
 30
0.0
 10
10.1412
 20
2.7078
 30
0.0
 10
9.9549
 20
2.8661
 30
0.0
 10
9.9549
 20
2.8661
 30
0.0
 10
9.9549
 20
2.8661
 30
0.0
 10
9.8275
 20
2.9727
 30
0.0
 10
9.7064
 20
3.069
 30
0.0
 10
9.5927
 20
3.1543
 30
0.0
 10
9.5927
 20
3.1543
 30
0.0
 10
9.4788
 20
3.2397
 30
0.0
 10
9.3676
 20
3.3126
 30
0.0
 10
9.2602
 20
3.3732
 30
0.0
 10
9.2602
 20
3.3732
 30
0.0
 10
9.1529
 20
3.4342
 30
0.0
 10
9.0448
 20
3.4802
 30
0.0
 10
8.9362
 20
3.5129
 30
0.0
 10
8.9362
 20
3.5129
 30
0.0
 10
8.8283
 20
3.5449
 30
0.0
 10
8.7163
 20
3.561
 30
0.0
 10
8.6007
 20
3.5614
 30
0.0
 10
8.6007
 20
3.5614
 30
0.0
 10
8.5093
 20
3.5614
 30
0.0
 10
8.4202
 20
3.5501
 30
0.0
 10
8.3334
 20
3.5263
 30
0.0
 10
8.3334
 20
3.5263
 30
0.0
 10
8.2468
 20
3.5025
 30
0.0
 10
8.1686
 20
3.4652
 30
0.0
 10
8.0987
 20
3.4156
 30
0.0
 10
8.0987
 20
3.4156
 30
0.0
 10
8.0282
 20
3.3659
 30
0.0
 10
7.9727
 20
3.3018
 30
0.0
 10
7.9312
 20
3.2237
 30
0.0
 10
7.9312
 20
3.2237
 30
0.0
 10
7.8892
 20
3.1455
 30
0.0
 10
7.8678
 20
3.0524
 30
0.0
 10
7.8672
 20
2.9437
 30
0.0
 10
7.8672
 20
2.9437
 30
0.0
 10
7.8678
 20
2.8672
 30
0.0
 10
7.8789
 20
2.7943
 30
0.0
 10
7.9015
 20
2.7249
 30
0.0
 10
7.9015
 20
2.7249
 30
0.0
 10
7.924
 20
2.6555
 30
0.0
 10
7.9545
 20
2.5914
 30
0.0
 10
7.9934
 20
2.5325
 30
0.0
 10
7.9934
 20
2.5325
 30
0.0
 10
8.0315
 20
2.474
 30
0.0
 10
8.0748
 20
2.4217
 30
0.0
 10
8.1233
 20
2.3756
 30
0.0
 10
8.1233
 20
2.3756
 30
0.0
 10
8.1233
 20
2.3756
 30
0.0
 10
8.3639
 20
2.4626
 30
0.0
 10
8.3639
 20
2.4626
 30
0.0
 10
8.3639
 20
2.4626
 30
0.0
 10
8.3309
 20
2.4935
 30
0.0
 10
8.2979
 20
2.5308
 30
0.0
 10
8.2655
 20
2.5743
 30
0.0
 10
8.2655
 20
2.5743
 30
0.0
 10
8.2326
 20
2.6177
 30
0.0
 10
8.2061
 20
2.6659
 30
0.0
 10
8.1841
 20
2.7192
 30
0.0
 10
8.1841
 20
2.7192
 30
0.0
 10
8.1627
 20
2.7725
 30
0.0
 10
8.1511
 20
2.8299
 30
0.0
 10
8.1505
 20
2.891
 30
0.0
 10
8.1505
 20
2.891
 30
0.0
 10
8.1511
 20
2.966
 30
0.0
 10
8.1646
 20
3.0291
 30
0.0
 10
8.1913
 20
3.0803
 30
0.0
 10
8.1913
 20
3.0803
 30
0.0
 10
8.2184
 20
3.1311
 30
0.0
 10
8.2546
 20
3.1718
 30
0.0
 10
8.3005
 20
3.2024
 30
0.0
 10
8.3005
 20
3.2024
 30
0.0
 10
8.3471
 20
3.2329
 30
0.0
 10
8.3994
 20
3.2552
 30
0.0
 10
8.4584
 20
3.2687
 30
0.0
 10
8.4584
 20
3.2687
 30
0.0
 10
8.5172
 20
3.2821
 30
0.0
 10
8.5787
 20
3.2888
 30
0.0
 10
8.6433
 20
3.2884
 30
0.0
 10
8.6433
 20
3.2884
 30
0.0
 10
8.7377
 20
3.2884
 30
0.0
 10
8.8308
 20
3.2733
 30
0.0
 10
8.9234
 20
3.2433
 30
0.0
 10
8.9234
 20
3.2433
 30
0.0
 10
9.0164
 20
3.2133
 30
0.0
 10
9.1134
 20
3.1678
 30
0.0
 10
9.2157
 20
3.1061
 30
0.0
 10
9.2157
 20
3.1061
 30
0.0
 10
9.3177
 20
3.0446
 30
0.0
 10
9.4297
 20
2.9664
 30
0.0
 10
9.5513
 20
2.8718
 30
0.0
 10
9.5513
 20
2.8718
 30
0.0
 10
9.6728
 20
2.7777
 30
0.0
 10
9.81
 20
2.6659
 30
0.0
 10
9.9626
 20
2.5371
 30
0.0
 10
9.9626
 20
2.5371
 30
0.0
 10
9.9626
 20
2.5371
 30
0.0
 10
10.2226
 20
2.3229
 30
0.0
 10
10.2226
 20
2.3229
 30
0.0
 10
10.2226
 20
2.3229
 30
0.0
 10
10.2226
 20
2.3229
 30
0.0
 10
10.4321
 20
2.3229
 30
0.0
 10
10.4321
 20
2.3229
 30
0.0
 10
10.4321
 20
2.3229
 30
0.0
 10
10.4321
 20
2.3229
 30
0.0
 10
10.4321
 20
3.6112
 30
0.0
 10
10.4321
 20
3.6112
 30
0.0
  0
SPLINE
  5
CD
330
1F
100
AcDbEntity
  8
DEFAULT_1
 62
   250
100
AcDbSpline
210
0.0
220
0.0
230
1.0
 70
    11
 71
     3
 72
   124
 73
   120
 74
     0
 42
0.0000000001
 43
0.0000000001
 40
0.0
 40
0.0
 40
0.0
 40
0.0
 40
0.032258064516129
 40
0.032258064516129
 40
0.032258064516129
 40
0.032258064516129
 40
0.0645161290322581
 40
0.0645161290322581
 40
0.0645161290322581
 40
0.0645161290322581
 40
0.0967741935483871
 40
0.0967741935483871
 40
0.0967741935483871
 40
0.0967741935483871
 40
0.1290322580645161
 40
0.1290322580645161
 40
0.1290322580645161
 40
0.1290322580645161
 40
0.1612903225806452
 40
0.1612903225806452
 40
0.1612903225806452
 40
0.1612903225806452
 40
0.1935483870967742
 40
0.1935483870967742
 40
0.1935483870967742
 40
0.1935483870967742
 40
0.2258064516129032
 40
0.2258064516129032
 40
0.2258064516129032
 40
0.2258064516129032
 40
0.2580645161290323
 40
0.2580645161290323
 40
0.2580645161290323
 40
0.2580645161290323
 40
0.2903225806451613
 40
0.2903225806451613
 40
0.2903225806451613
 40
0.2903225806451613
 40
0.3225806451612903
 40
0.3225806451612903
 40
0.3225806451612903
 40
0.3225806451612903
 40
0.3548387096774194
 40
0.3548387096774194
 40
0.3548387096774194
 40
0.3548387096774194
 40
0.3870967741935484
 40
0.3870967741935484
 40
0.3870967741935484
 40
0.3870967741935484
 40
0.4193548387096774
 40
0.4193548387096774
 40
0.4193548387096774
 40
0.4193548387096774
 40
0.4516129032258064
 40
0.4516129032258064
 40
0.4516129032258064
 40
0.4516129032258064
 40
0.4838709677419355
 40
0.4838709677419355
 40
0.4838709677419355
 40
0.4838709677419355
 40
0.5161290322580645
 40
0.5161290322580645
 40
0.5161290322580645
 40
0.5161290322580645
 40
0.5483870967741935
 40
0.5483870967741935
 40
0.5483870967741935
 40
0.5483870967741935
 40
0.5806451612903226
 40
0.5806451612903226
 40
0.5806451612903226
 40
0.5806451612903226
 40
0.6129032258064516
 40
0.6129032258064516
 40
0.6129032258064516
 40
0.6129032258064516
 40
0.6451612903225806
 40
0.6451612903225806
 40
0.6451612903225806
 40
0.6451612903225806
 40
0.6774193548387096
 40
0.6774193548387096
 40
0.6774193548387096
 40
0.6774193548387096
 40
0.7096774193548387
 40
0.7096774193548387
 40
0.7096774193548387
 40
0.7096774193548387
 40
0.7419354838709677
 40
0.7419354838709677
 40
0.7419354838709677
 40
0.7419354838709677
 40
0.7741935483870968
 40
0.7741935483870968
 40
0.7741935483870968
 40
0.7741935483870968
 40
0.8064516129032258
 40
0.8064516129032258
 40
0.8064516129032258
 40
0.8064516129032258
 40
0.8387096774193549
 40
0.8387096774193549
 40
0.8387096774193549
 40
0.8387096774193549
 40
0.8709677419354839
 40
0.8709677419354839
 40
0.8709677419354839
 40
0.8709677419354839
 40
0.9032258064516129
 40
0.9032258064516129
 40
0.9032258064516129
 40
0.9032258064516129
 40
0.9354838709677419
 40
0.9354838709677419
 40
0.9354838709677419
 40
0.9354838709677419
 40
1.0
 40
1.0
 40
1.0
 40
1.0
 10
-50.6777
 20
7.9385
 30
0.0
 10
-50.6777
 20
7.9385
 30
0.0
 10
-50.961
 20
7.9385
 30
0.0
 10
-50.961
 20
7.9385
 30
0.0
 10
-50.961
 20
7.9385
 30
0.0
 10
-50.961
 20
7.9385
 30
0.0
 10
-50.961
 20
7.0351
 30
0.0
 10
-50.961
 20
7.0351
 30
0.0
 10
-50.961
 20
7.0351
 30
0.0
 10
-50.961
 20
7.0351
 30
0.0
 10
-50.9687
 20
7.0351
 30
0.0
 10
-50.9687
 20
7.0351
 30
0.0
 10
-50.9687
 20
7.0351
 30
0.0
 10
-50.9687
 20
7.0351
 30
0.0
 10
-51.1549
 20
7.1935
 30
0.0
 10
-51.1549
 20
7.1935
 30
0.0
 10
-51.1549
 20
7.1935
 30
0.0
 10
-51.2824
 20
7.3001
 30
0.0
 10
-51.4034
 20
7.3963
 30
0.0
 10
-51.5171
 20
7.4816
 30
0.0
 10
-51.5171
 20
7.4816
 30
0.0
 10
-51.631
 20
7.567
 30
0.0
 10
-51.7423
 20
7.6399
 30
0.0
 10
-51.8496
 20
7.7005
 30
0.0
 10
-51.8496
 20
7.7005
 30
0.0
 10
-51.9569
 20
7.7615
 30
0.0
 10
-52.065
 20
7.8076
 30
0.0
 10
-52.1736
 20
7.8402
 30
0.0
 10
-52.1736
 20
7.8402
 30
0.0
 10
-52.2816
 20
7.8722
 30
0.0
 10
-52.3936
 20
7.8883
 30
0.0
 10
-52.5092
 20
7.8888
 30
0.0
 10
-52.5092
 20
7.8888
 30
0.0
 10
-52.6005
 20
7.8888
 30
0.0
 10
-52.6896
 20
7.8775
 30
0.0
 10
-52.7764
 20
7.8536
 30
0.0
 10
-52.7764
 20
7.8536
 30
0.0
 10
-52.8631
 20
7.8298
 30
0.0
 10
-52.9413
 20
7.7925
 30
0.0
 10
-53.0112
 20
7.7429
 30
0.0
 10
-53.0112
 20
7.7429
 30
0.0
 10
-53.0817
 20
7.6933
 30
0.0
 10
-53.1372
 20
7.6291
 30
0.0
 10
-53.1787
 20
7.551
 30
0.0
 10
-53.1787
 20
7.551
 30
0.0
 10
-53.2206
 20
7.4728
 30
0.0
 10
-53.242
 20
7.3798
 30
0.0
 10
-53.2426
 20
7.2711
 30
0.0
 10
-53.2426
 20
7.2711
 30
0.0
 10
-53.242
 20
7.1945
 30
0.0
 10
-53.2309
 20
7.1216
 30
0.0
 10
-53.2084
 20
7.0523
 30
0.0
 10
-53.2084
 20
7.0523
 30
0.0
 10
-53.1858
 20
6.9828
 30
0.0
 10
-53.1554
 20
6.9187
 30
0.0
 10
-53.1165
 20
6.8598
 30
0.0
 10
-53.1165
 20
6.8598
 30
0.0
 10
-53.0783
 20
6.8013
 30
0.0
 10
-53.0351
 20
6.749
 30
0.0
 10
-52.9866
 20
6.703
 30
0.0
 10
-52.9866
 20
6.703
 30
0.0
 10
-52.9866
 20
6.703
 30
0.0
 10
-52.746
 20
6.7899
 30
0.0
 10
-52.746
 20
6.7899
 30
0.0
 10
-52.746
 20
6.7899
 30
0.0
 10
-52.7789
 20
6.8209
 30
0.0
 10
-52.812
 20
6.8582
 30
0.0
 10
-52.8443
 20
6.9016
 30
0.0
 10
-52.8443
 20
6.9016
 30
0.0
 10
-52.8772
 20
6.9451
 30
0.0
 10
-52.9037
 20
6.9932
 30
0.0
 10
-52.9257
 20
7.0465
 30
0.0
 10
-52.9257
 20
7.0465
 30
0.0
 10
-52.9471
 20
7.0998
 30
0.0
 10
-52.9588
 20
7.1572
 30
0.0
 10
-52.9593
 20
7.2183
 30
0.0
 10
-52.9593
 20
7.2183
 30
0.0
 10
-52.9588
 20
7.2933
 30
0.0
 10
-52.9452
 20
7.3565
 30
0.0
 10
-52.9186
 20
7.4076
 30
0.0
 10
-52.9186
 20
7.4076
 30
0.0
 10
-52.8915
 20
7.4584
 30
0.0
 10
-52.8552
 20
7.4992
 30
0.0
 10
-52.8093
 20
7.5297
 30
0.0
 10
-52.8093
 20
7.5297
 30
0.0
 10
-52.7627
 20
7.5602
 30
0.0
 10
-52.7104
 20
7.5825
 30
0.0
 10
-52.6515
 20
7.596
 30
0.0
 10
-52.6515
 20
7.596
 30
0.0
 10
-52.5926
 20
7.6094
 30
0.0
 10
-52.5312
 20
7.6161
 30
0.0
 10
-52.4665
 20
7.6157
 30
0.0
 10
-52.4665
 20
7.6157
 30
0.0
 10
-52.3721
 20
7.6157
 30
0.0
 10
-52.2791
 20
7.6007
 30
0.0
 10
-52.1865
 20
7.5706
 30
0.0
 10
-52.1865
 20
7.5706
 30
0.0
 10
-52.0934
 20
7.5407
 30
0.0
 10
-51.9964
 20
7.4951
 30
0.0
 10
-51.8942
 20
7.4335
 30
0.0
 10
-51.8942
 20
7.4335
 30
0.0
 10
-51.7921
 20
7.3719
 30
0.0
 10
-51.6801
 20
7.2938
 30
0.0
 10
-51.5585
 20
7.1992
 30
0.0
 10
-51.5585
 20
7.1992
 30
0.0
 10
-51.437
 20
7.105
 30
0.0
 10
-51.2998
 20
6.9932
 30
0.0
 10
-51.1472
 20
6.8644
 30
0.0
 10
-51.1472
 20
6.8644
 30
0.0
 10
-51.1472
 20
6.8644
 30
0.0
 10
-50.8873
 20
6.6502
 30
0.0
 10
-50.8873
 20
6.6502
 30
0.0
 10
-50.8873
 20
6.6502
 30
0.0
 10
-50.8873
 20
6.6502
 30
0.0
 10
-50.6777
 20
6.6502
 30
0.0
 10
-50.6777
 20
6.6502
 30
0.0
 10
-50.6777
 20
6.6502
 30
0.0
 10
-50.6777
 20
6.6502
 30
0.0
 10
-50.6777
 20
7.9385
 30
0.0
 10
-50.6777
 20
7.9385
 30
0.0
  0
SPLINE
  5
CE
330
1F
100
AcDbEntity
  8
DEFAULT_1
 62
   250
100
AcDbSpline
210
0.0
220
0.0
230
1.0
 70
    11
 71
     3
 72
    56
 73
    52
 74
     0
 42
0.0000000001
 43
0.0000000001
 40
0.0
 40
0.0
 40
0.0
 40
0.0
 40
0.0714285714285714
 40
0.0714285714285714
 40
0.0714285714285714
 40
0.0714285714285714
 40
0.1428571428571428
 40
0.1428571428571428
 40
0.1428571428571428
 40
0.1428571428571428
 40
0.2142857142857143
 40
0.2142857142857143
 40
0.2142857142857143
 40
0.2142857142857143
 40
0.2857142857142857
 40
0.2857142857142857
 40
0.2857142857142857
 40
0.2857142857142857
 40
0.3571428571428572
 40
0.3571428571428572
 40
0.3571428571428572
 40
0.3571428571428572
 40
0.4285714285714285
 40
0.4285714285714285
 40
0.4285714285714285
 40
0.4285714285714285
 40
0.5
 40
0.5
 40
0.5
 40
0.5
 40
0.5714285714285714
 40
0.5714285714285714
 40
0.5714285714285714
 40
0.5714285714285714
 40
0.6428571428571429
 40
0.6428571428571429
 40
0.6428571428571429
 40
0.6428571428571429
 40
0.7142857142857143
 40
0.7142857142857143
 40
0.7142857142857143
 40
0.7142857142857143
 40
0.7857142857142857
 40
0.7857142857142857
 40
0.7857142857142857
 40
0.7857142857142857
 40
0.8571428571428571
 40
0.8571428571428571
 40
0.8571428571428571
 40
0.8571428571428571
 40
1.0
 40
1.0
 40
1.0
 40
1.0
 10
-53.2426
 20
8.9195
 30
0.0
 10
-53.2426
 20
8.8165
 30
0.0
 10
-53.2142
 20
8.7224
 30
0.0
 10
-53.1573
 20
8.6364
 30
0.0
 10
-53.1573
 20
8.6364
 30
0.0
 10
-53.1003
 20
8.5505
 30
0.0
 10
-53.0169
 20
8.4765
 30
0.0
 10
-52.9057
 20
8.4134
 30
0.0
 10
-52.9057
 20
8.4134
 30
0.0
 10
-52.7945
 20
8.3504
 30
0.0
 10
-52.6573
 20
8.3017
 30
0.0
 10
-52.4943
 20
8.2671
 30
0.0
 10
-52.4943
 20
8.2671
 30
0.0
 10
-52.3314
 20
8.2329
 30
0.0
 10
-52.1438
 20
8.2153
 30
0.0
 10
-51.931
 20
8.2148
 30
0.0
 10
-51.931
 20
8.2148
 30
0.0
 10
-51.6523
 20
8.2179
 30
0.0
 10
-51.4169
 20
8.2474
 30
0.0
 10
-51.2243
 20
8.3038
 30
0.0
 10
-51.2243
 20
8.3038
 30
0.0
 10
-51.0314
 20
8.3602
 30
0.0
 10
-50.8854
 20
8.4383
 30
0.0
 10
-50.7858
 20
8.5376
 30
0.0
 10
-50.7858
 20
8.5376
 30
0.0
 10
-50.6861
 20
8.637
 30
0.0
 10
-50.6356
 20
8.7529
 30
0.0
 10
-50.635
 20
8.8854
 30
0.0
 10
-50.635
 20
8.8854
 30
0.0
 10
-50.6356
 20
9.0338
 30
0.0
 10
-50.6875
 20
9.1601
 30
0.0
 10
-50.7895
 20
9.2646
 30
0.0
 10
-50.7895
 20
9.2646
 30
0.0
 10
-50.8918
 20
9.3691
 30
0.0
 10
-51.0418
 20
9.4488
 30
0.0
 10
-51.2397
 20
9.5036
 30
0.0
 10
-51.2397
 20
9.5036
 30
0.0
 10
-51.4376
 20
9.559
 30
0.0
 10
-51.6795
 20
9.5864
 30
0.0
 10
-51.966
 20
9.5869
 30
0.0
 10
-51.966
 20
9.5869
 30
0.0
 10
-52.2344
 20
9.5864
 30
0.0
 10
-52.464
 20
9.5599
 30
0.0
 10
-52.6541
 20
9.5077
 30
0.0
 10
-52.6541
 20
9.5077
 30
0.0
 10
-52.8443
 20
9.4554
 30
0.0
 10
-52.9898
 20
9.3795
 30
0.0
 10
-53.09
 20
9.2801
 30
0.0
 10
-53.09
 20
9.2801
 30
0.0
 10
-53.1909
 20
9.1807
 30
0.0
 10
-53.242
 20
9.0607
 30
0.0
 10
-53.2426
 20
8.9195
 30
0.0
  0
SPLINE
  5
CF
330
1F
100
AcDbEntity
  8
DEFAULT_1
 62
   250
100
AcDbSpline
210
0.0
220
0.0
230
1.0
 70
    11
 71
     3
 72
    56
 73
    52
 74
     0
 42
0.0000000001
 43
0.0000000001
 40
0.0
 40
0.0
 40
0.0
 40
0.0
 40
0.0714285714285714
 40
0.0714285714285714
 40
0.0714285714285714
 40
0.0714285714285714
 40
0.1428571428571428
 40
0.1428571428571428
 40
0.1428571428571428
 40
0.1428571428571428
 40
0.2142857142857143
 40
0.2142857142857143
 40
0.2142857142857143
 40
0.2142857142857143
 40
0.2857142857142857
 40
0.2857142857142857
 40
0.2857142857142857
 40
0.2857142857142857
 40
0.3571428571428572
 40
0.3571428571428572
 40
0.3571428571428572
 40
0.3571428571428572
 40
0.4285714285714285
 40
0.4285714285714285
 40
0.4285714285714285
 40
0.4285714285714285
 40
0.5
 40
0.5
 40
0.5
 40
0.5
 40
0.5714285714285714
 40
0.5714285714285714
 40
0.5714285714285714
 40
0.5714285714285714
 40
0.6428571428571429
 40
0.6428571428571429
 40
0.6428571428571429
 40
0.6428571428571429
 40
0.7142857142857143
 40
0.7142857142857143
 40
0.7142857142857143
 40
0.7142857142857143
 40
0.7857142857142857
 40
0.7857142857142857
 40
0.7857142857142857
 40
0.7857142857142857
 40
0.8571428571428571
 40
0.8571428571428571
 40
0.8571428571428571
 40
0.8571428571428571
 40
1.0
 40
1.0
 40
1.0
 40
1.0
 10
-52.9787
 20
8.9009
 30
0.0
 10
-52.9781
 20
8.9723
 30
0.0
 10
-52.9542
 20
9.0338
 30
0.0
 10
-52.9057
 20
9.0855
 30
0.0
 10
-52.9057
 20
9.0855
 30
0.0
 10
-52.8572
 20
9.1373
 30
0.0
 10
-52.7879
 20
9.1797
 30
0.0
 10
-52.6975
 20
9.2129
 30
0.0
 10
-52.6975
 20
9.2129
 30
0.0
 10
-52.6075
 20
9.246
 30
0.0
 10
-52.4988
 20
9.2708
 30
0.0
 10
-52.3735
 20
9.2869
 30
0.0
 10
-52.3735
 20
9.2869
 30
0.0
 10
-52.2473
 20
9.3028
 30
0.0
 10
-52.1064
 20
9.3106
 30
0.0
 10
-51.9505
 20
9.3106
 30
0.0
 10
-51.9505
 20
9.3106
 30
0.0
 10
-51.7344
 20
9.3106
 30
0.0
 10
-51.5481
 20
9.2956
 30
0.0
 10
-51.3917
 20
9.2656
 30
0.0
 10
-51.3917
 20
9.2656
 30
0.0
 10
-51.2346
 20
9.2361
 30
0.0
 10
-51.1136
 20
9.1906
 30
0.0
 10
-51.0282
 20
9.13
 30
0.0
 10
-51.0282
 20
9.13
 30
0.0
 10
-50.9429
 20
9.0694
 30
0.0
 10
-50.9002
 20
8.9929
 30
0.0
 10
-50.8989
 20
8.9009
 30
0.0
 10
-50.8989
 20
8.9009
 30
0.0
 10
-50.8995
 20
8.8176
 30
0.0
 10
-50.9397
 20
8.7457
 30
0.0
 10
-51.0198
 20
8.684
 30
0.0
 10
-51.0198
 20
8.684
 30
0.0
 10
-51.1
 20
8.623
 30
0.0
 10
-51.2164
 20
8.5759
 30
0.0
 10
-51.369
 20
8.5423
 30
0.0
 10
-51.369
 20
8.5423
 30
0.0
 10
-51.5224
 20
8.5087
 30
0.0
 10
-51.7079
 20
8.4916
 30
0.0
 10
-51.9272
 20
8.4911
 30
0.0
 10
-51.9272
 20
8.4911
 30
0.0
 10
-52.1568
 20
8.4916
 30
0.0
 10
-52.3488
 20
8.5096
 30
0.0
 10
-52.5054
 20
8.5448
 30
0.0
 10
-52.5054
 20
8.5448
 30
0.0
 10
-52.6612
 20
8.58
 30
0.0
 10
-52.7789
 20
8.6281
 30
0.0
 10
-52.8591
 20
8.6898
 30
0.0
 10
-52.8591
 20
8.6898
 30
0.0
 10
-52.9387
 20
8.7513
 30
0.0
 10
-52.9787
 20
8.8216
 30
0.0
 10
-52.9787
 20
8.9009
 30
0.0
  0
SPLINE
  5
D0
330
1F
100
AcDbEntity
  8
DEFAULT_1
 62
   250
100
AcDbSpline
210
0.0
220
0.0
230
1.0
 70
    11
 71
     3
 72
   132
 73
   128
 74
     0
 42
0.0000000001
 43
0.0000000001
 40
0.0
 40
0.0
 40
0.0
 40
0.0
 40
0.0303030303030303
 40
0.0303030303030303
 40
0.0303030303030303
 40
0.0303030303030303
 40
0.0606060606060606
 40
0.0606060606060606
 40
0.0606060606060606
 40
0.0606060606060606
 40
0.0909090909090909
 40
0.0909090909090909
 40
0.0909090909090909
 40
0.0909090909090909
 40
0.1212121212121212
 40
0.1212121212121212
 40
0.1212121212121212
 40
0.1212121212121212
 40
0.1515151515151515
 40
0.1515151515151515
 40
0.1515151515151515
 40
0.1515151515151515
 40
0.1818181818181818
 40
0.1818181818181818
 40
0.1818181818181818
 40
0.1818181818181818
 40
0.2121212121212121
 40
0.2121212121212121
 40
0.2121212121212121
 40
0.2121212121212121
 40
0.2424242424242424
 40
0.2424242424242424
 40
0.2424242424242424
 40
0.2424242424242424
 40
0.2727272727272727
 40
0.2727272727272727
 40
0.2727272727272727
 40
0.2727272727272727
 40
0.303030303030303
 40
0.303030303030303
 40
0.303030303030303
 40
0.303030303030303
 40
0.3333333333333333
 40
0.3333333333333333
 40
0.3333333333333333
 40
0.3333333333333333
 40
0.3636363636363636
 40
0.3636363636363636
 40
0.3636363636363636
 40
0.3636363636363636
 40
0.3939393939393939
 40
0.3939393939393939
 40
0.3939393939393939
 40
0.3939393939393939
 40
0.4242424242424243
 40
0.4242424242424243
 40
0.4242424242424243
 40
0.4242424242424243
 40
0.4545454545454545
 40
0.4545454545454545
 40
0.4545454545454545
 40
0.4545454545454545
 40
0.4848484848484849
 40
0.4848484848484849
 40
0.4848484848484849
 40
0.4848484848484849
 40
0.5151515151515151
 40
0.5151515151515151
 40
0.5151515151515151
 40
0.5151515151515151
 40
0.5454545454545454
 40
0.5454545454545454
 40
0.5454545454545454
 40
0.5454545454545454
 40
0.5757575757575758
 40
0.5757575757575758
 40
0.5757575757575758
 40
0.5757575757575758
 40
0.6060606060606061
 40
0.6060606060606061
 40
0.6060606060606061
 40
0.6060606060606061
 40
0.6363636363636364
 40
0.6363636363636364
 40
0.6363636363636364
 40
0.6363636363636364
 40
0.6666666666666666
 40
0.6666666666666666
 40
0.6666666666666666
 40
0.6666666666666666
 40
0.696969696969697
 40
0.696969696969697
 40
0.696969696969697
 40
0.696969696969697
 40
0.7272727272727273
 40
0.7272727272727273
 40
0.7272727272727273
 40
0.7272727272727273
 40
0.7575757575757576
 40
0.7575757575757576
 40
0.7575757575757576
 40
0.7575757575757576
 40
0.7878787878787878
 40
0.7878787878787878
 40
0.7878787878787878
 40
0.7878787878787878
 40
0.8181818181818182
 40
0.8181818181818182
 40
0.8181818181818182
 40
0.8181818181818182
 40
0.8484848484848485
 40
0.8484848484848485
 40
0.8484848484848485
 40
0.8484848484848485
 40
0.8787878787878788
 40
0.8787878787878788
 40
0.8787878787878788
 40
0.8787878787878788
 40
0.9090909090909091
 40
0.9090909090909091
 40
0.9090909090909091
 40
0.9090909090909091
 40
0.9393939393939394
 40
0.9393939393939394
 40
0.9393939393939394
 40
0.9393939393939394
 40
1.0
 40
1.0
 40
1.0
 40
1.0
 10
-53.1999
 20
11.0397
 30
0.0
 10
-53.1999
 20
11.0397
 30
0.0
 10
-53.1999
 20
10.0743
 30
0.0
 10
-53.1999
 20
10.0743
 30
0.0
 10
-53.1999
 20
10.0743
 30
0.0
 10
-53.1999
 20
10.0743
 30
0.0
 10
-51.9893
 20
9.9439
 30
0.0
 10
-51.9893
 20
9.9439
 30
0.0
 10
-51.9893
 20
9.9439
 30
0.0
 10
-51.9957
 20
9.9811
 30
0.0
 10
-52.0009
 20
10.0226
 30
0.0
 10
-52.0054
 20
10.0691
 30
0.0
 10
-52.0054
 20
10.0691
 30
0.0
 10
-52.01
 20
10.1152
 30
0.0
 10
-52.0126
 20
10.1679
 30
0.0
 10
-52.0126
 20
10.2264
 30
0.0
 10
-52.0126
 20
10.2264
 30
0.0
 10
-52.0118
 20
10.3599
 30
0.0
 10
-51.988
 20
10.469
 30
0.0
 10
-51.9414
 20
10.5539
 30
0.0
 10
-51.9414
 20
10.5539
 30
0.0
 10
-51.8942
 20
10.6393
 30
0.0
 10
-51.8295
 20
10.7024
 30
0.0
 10
-51.7468
 20
10.7433
 30
0.0
 10
-51.7468
 20
10.7433
 30
0.0
 10
-51.6633
 20
10.7842
 30
0.0
 10
-51.5669
 20
10.8043
 30
0.0
 10
-51.4577
 20
10.8038
 30
0.0
 10
-51.4577
 20
10.8038
 30
0.0
 10
-51.373
 20
10.8043
 30
0.0
 10
-51.2972
 20
10.7919
 30
0.0
 10
-51.2299
 20
10.7666
 30
0.0
 10
-51.2299
 20
10.7666
 30
0.0
 10
-51.1621
 20
10.7417
 30
0.0
 10
-51.1051
 20
10.7071
 30
0.0
 10
-51.0574
 20
10.663
 30
0.0
 10
-51.0574
 20
10.663
 30
0.0
 10
-51.0102
 20
10.6191
 30
0.0
 10
-50.9739
 20
10.5684
 30
0.0
 10
-50.9487
 20
10.511
 30
0.0
 10
-50.9487
 20
10.511
 30
0.0
 10
-50.9235
 20
10.4535
 30
0.0
 10
-50.9106
 20
10.393
 30
0.0
 10
-50.9106
 20
10.3289
 30
0.0
 10
-50.9106
 20
10.3289
 30
0.0
 10
-50.9111
 20
10.2662
 30
0.0
 10
-50.9183
 20
10.2073
 30
0.0
 10
-50.9331
 20
10.1519
 30
0.0
 10
-50.9331
 20
10.1519
 30
0.0
 10
-50.9474
 20
10.0966
 30
0.0
 10
-50.9649
 20
10.0468
 30
0.0
 10
-50.9862
 20
10.0029
 30
0.0
 10
-50.9862
 20
10.0029
 30
0.0
 10
-51.0076
 20
9.9589
 30
0.0
 10
-51.0288
 20
9.9227
 30
0.0
 10
-51.0502
 20
9.8942
 30
0.0
 10
-51.0502
 20
9.8942
 30
0.0
 10
-51.0502
 20
9.8942
 30
0.0
 10
-50.7903
 20
9.8259
 30
0.0
 10
-50.7903
 20
9.8259
 30
0.0
 10
-50.7903
 20
9.8259
 30
0.0
 10
-50.7638
 20
9.8596
 30
0.0
 10
-50.7392
 20
9.9014
 30
0.0
 10
-50.7153
 20
9.9516
 30
0.0
 10
-50.7153
 20
9.9516
 30
0.0
 10
-50.692
 20
10.0019
 30
0.0
 10
-50.6732
 20
10.0587
 30
0.0
 10
-50.6583
 20
10.1224
 30
0.0
 10
-50.6583
 20
10.1224
 30
0.0
 10
-50.6435
 20
10.1865
 30
0.0
 10
-50.6356
 20
10.2554
 30
0.0
 10
-50.635
 20
10.3289
 30
0.0
 10
-50.635
 20
10.3289
 30
0.0
 10
-50.6356
 20
10.439
 30
0.0
 10
-50.6576
 20
10.5394
 30
0.0
 10
-50.7003
 20
10.631
 30
0.0
 10
-50.7003
 20
10.631
 30
0.0
 10
-50.7431
 20
10.7226
 30
0.0
 10
-50.8032
 20
10.8018
 30
0.0
 10
-50.8807
 20
10.8684
 30
0.0
 10
-50.8807
 20
10.8684
 30
0.0
 10
-50.9583
 20
10.9358
 30
0.0
 10
-51.0495
 20
10.9875
 30
0.0
 10
-51.1536
 20
11.0242
 30
0.0
 10
-51.1536
 20
11.0242
 30
0.0
 10
-51.2585
 20
11.0609
 30
0.0
 10
-51.373
 20
11.0795
 30
0.0
 10
-51.4964
 20
11.0801
 30
0.0
 10
-51.4964
 20
11.0801
 30
0.0
 10
-51.6013
 20
11.0795
 30
0.0
 10
-51.6957
 20
11.0661
 30
0.0
 10
-51.7791
 20
11.0403
 30
0.0
 10
-51.7791
 20
11.0403
 30
0.0
 10
-51.8626
 20
11.0144
 30
0.0
 10
-51.9344
 20
10.9803
 30
0.0
 10
-51.9951
 20
10.9368
 30
0.0
 10
-51.9951
 20
10.9368
 30
0.0
 10
-52.0558
 20
10.8934
 30
0.0
 10
-52.1043
 20
10.8447
 30
0.0
 10
-52.1406
 20
10.7914
 30
0.0
 10
-52.1406
 20
10.7914
 30
0.0
 10
-52.1885
 20
10.7287
 30
0.0
 10
-52.2235
 20
10.661
 30
0.0
 10
-52.2447
 20
10.5871
 30
0.0
 10
-52.2447
 20
10.5871
 30
0.0
 10
-52.2661
 20
10.5131
 30
0.0
 10
-52.277
 20
10.4364
 30
0.0
 10
-52.2765
 20
10.3567
 30
0.0
 10
-52.2765
 20
10.3567
 30
0.0
 10
-52.2765
 20
10.3206
 30
0.0
 10
-52.2757
 20
10.2895
 30
0.0
 10
-52.2738
 20
10.2641
 30
0.0
 10
-52.2738
 20
10.2641
 30
0.0
 10
-52.2719
 20
10.2388
 30
0.0
 10
-52.2686
 20
10.2151
 30
0.0
 10
-52.2648
 20
10.1922
 30
0.0
 10
-52.2648
 20
10.1922
 30
0.0
 10
-52.2648
 20
10.1922
 30
0.0
 10
-52.9129
 20
10.2698
 30
0.0
 10
-52.9129
 20
10.2698
 30
0.0
 10
-52.9129
 20
10.2698
 30
0.0
 10
-52.9129
 20
10.2698
 30
0.0
 10
-52.9129
 20
11.0397
 30
0.0
 10
-52.9129
 20
11.0397
 30
0.0
 10
-52.9129
 20
11.0397
 30
0.0
 10
-52.9129
 20
11.0397
 30
0.0
 10
-53.1999
 20
11.0397
 30
0.0
 10
-53.1999
 20
11.0397
 30
0.0
  0
SPLINE
  5
D1
330
1F
100
AcDbEntity
  8
DEFAULT_1
 62
   250
100
AcDbSpline
210
0.0
220
0.0
230
1.0
 70
    11
 71
     3
 72
    20
 73
    16
 74
     0
 42
0.0000000001
 43
0.0000000001
 40
0.0
 40
0.0
 40
0.0
 40
0.0
 40
0.2
 40
0.2
 40
0.2
 40
0.2
 40
0.4
 40
0.4
 40
0.4
 40
0.4
 40
0.6
 40
0.6
 40
0.6
 40
0.6
 40
1.0
 40
1.0
 40
1.0
 40
1.0
 10
-51.7797
 20
11.3812
 30
0.0
 10
-51.7797
 20
11.3812
 30
0.0
 10
-51.5468
 20
11.3812
 30
0.0
 10
-51.5468
 20
11.3812
 30
0.0
 10
-51.5468
 20
11.3812
 30
0.0
 10
-51.5468
 20
11.3812
 30
0.0
 10
-51.5468
 20
12.7471
 30
0.0
 10
-51.5468
 20
12.7471
 30
0.0
 10
-51.5468
 20
12.7471
 30
0.0
 10
-51.5468
 20
12.7471
 30
0.0
 10
-51.7797
 20
12.7471
 30
0.0
 10
-51.7797
 20
12.7471
 30
0.0
 10
-51.7797
 20
12.7471
 30
0.0
 10
-51.7797
 20
12.7471
 30
0.0
 10
-51.7797
 20
11.3812
 30
0.0
 10
-51.7797
 20
11.3812
 30
0.0
  0
SPLINE
  5
D2
330
1F
100
AcDbEntity
  8
DEFAULT_1
 62
   250
100
AcDbSpline
210
0.0
220
0.0
230
1.0
 70
    11
 71
     3
 72
   124
 73
   120
 74
     0
 42
0.0000000001
 43
0.0000000001
 40
0.0
 40
0.0
 40
0.0
 40
0.0
 40
0.032258064516129
 40
0.032258064516129
 40
0.032258064516129
 40
0.032258064516129
 40
0.0645161290322581
 40
0.0645161290322581
 40
0.0645161290322581
 40
0.0645161290322581
 40
0.0967741935483871
 40
0.0967741935483871
 40
0.0967741935483871
 40
0.0967741935483871
 40
0.1290322580645161
 40
0.1290322580645161
 40
0.1290322580645161
 40
0.1290322580645161
 40
0.1612903225806452
 40
0.1612903225806452
 40
0.1612903225806452
 40
0.1612903225806452
 40
0.1935483870967742
 40
0.1935483870967742
 40
0.1935483870967742
 40
0.1935483870967742
 40
0.2258064516129032
 40
0.2258064516129032
 40
0.2258064516129032
 40
0.2258064516129032
 40
0.2580645161290323
 40
0.2580645161290323
 40
0.2580645161290323
 40
0.2580645161290323
 40
0.2903225806451613
 40
0.2903225806451613
 40
0.2903225806451613
 40
0.2903225806451613
 40
0.3225806451612903
 40
0.3225806451612903
 40
0.3225806451612903
 40
0.3225806451612903
 40
0.3548387096774194
 40
0.3548387096774194
 40
0.3548387096774194
 40
0.3548387096774194
 40
0.3870967741935484
 40
0.3870967741935484
 40
0.3870967741935484
 40
0.3870967741935484
 40
0.4193548387096774
 40
0.4193548387096774
 40
0.4193548387096774
 40
0.4193548387096774
 40
0.4516129032258064
 40
0.4516129032258064
 40
0.4516129032258064
 40
0.4516129032258064
 40
0.4838709677419355
 40
0.4838709677419355
 40
0.4838709677419355
 40
0.4838709677419355
 40
0.5161290322580645
 40
0.5161290322580645
 40
0.5161290322580645
 40
0.5161290322580645
 40
0.5483870967741935
 40
0.5483870967741935
 40
0.5483870967741935
 40
0.5483870967741935
 40
0.5806451612903226
 40
0.5806451612903226
 40
0.5806451612903226
 40
0.5806451612903226
 40
0.6129032258064516
 40
0.6129032258064516
 40
0.6129032258064516
 40
0.6129032258064516
 40
0.6451612903225806
 40
0.6451612903225806
 40
0.6451612903225806
 40
0.6451612903225806
 40
0.6774193548387096
 40
0.6774193548387096
 40
0.6774193548387096
 40
0.6774193548387096
 40
0.7096774193548387
 40
0.7096774193548387
 40
0.7096774193548387
 40
0.7096774193548387
 40
0.7419354838709677
 40
0.7419354838709677
 40
0.7419354838709677
 40
0.7419354838709677
 40
0.7741935483870968
 40
0.7741935483870968
 40
0.7741935483870968
 40
0.7741935483870968
 40
0.8064516129032258
 40
0.8064516129032258
 40
0.8064516129032258
 40
0.8064516129032258
 40
0.8387096774193549
 40
0.8387096774193549
 40
0.8387096774193549
 40
0.8387096774193549
 40
0.8709677419354839
 40
0.8709677419354839
 40
0.8709677419354839
 40
0.8709677419354839
 40
0.9032258064516129
 40
0.9032258064516129
 40
0.9032258064516129
 40
0.9032258064516129
 40
0.9354838709677419
 40
0.9354838709677419
 40
0.9354838709677419
 40
0.9354838709677419
 40
1.0
 40
1.0
 40
1.0
 40
1.0
 10
-50.6777
 20
14.2682
 30
0.0
 10
-50.6777
 20
14.2682
 30
0.0
 10
-50.961
 20
14.2682
 30
0.0
 10
-50.961
 20
14.2682
 30
0.0
 10
-50.961
 20
14.2682
 30
0.0
 10
-50.961
 20
14.2682
 30
0.0
 10
-50.961
 20
13.3648
 30
0.0
 10
-50.961
 20
13.3648
 30
0.0
 10
-50.961
 20
13.3648
 30
0.0
 10
-50.961
 20
13.3648
 30
0.0
 10
-50.9687
 20
13.3648
 30
0.0
 10
-50.9687
 20
13.3648
 30
0.0
 10
-50.9687
 20
13.3648
 30
0.0
 10
-50.9687
 20
13.3648
 30
0.0
 10
-51.1549
 20
13.5231
 30
0.0
 10
-51.1549
 20
13.5231
 30
0.0
 10
-51.1549
 20
13.5231
 30
0.0
 10
-51.2824
 20
13.6297
 30
0.0
 10
-51.4034
 20
13.726
 30
0.0
 10
-51.5171
 20
13.8113
 30
0.0
 10
-51.5171
 20
13.8113
 30
0.0
 10
-51.631
 20
13.8967
 30
0.0
 10
-51.7423
 20
13.9696
 30
0.0
 10
-51.8496
 20
14.0302
 30
0.0
 10
-51.8496
 20
14.0302
 30
0.0
 10
-51.9569
 20
14.0912
 30
0.0
 10
-52.065
 20
14.1373
 30
0.0
 10
-52.1736
 20
14.1699
 30
0.0
 10
-52.1736
 20
14.1699
 30
0.0
 10
-52.2816
 20
14.2019
 30
0.0
 10
-52.3936
 20
14.218
 30
0.0
 10
-52.5092
 20
14.2185
 30
0.0
 10
-52.5092
 20
14.2185
 30
0.0
 10
-52.6005
 20
14.2185
 30
0.0
 10
-52.6896
 20
14.2072
 30
0.0
 10
-52.7764
 20
14.1833
 30
0.0
 10
-52.7764
 20
14.1833
 30
0.0
 10
-52.8631
 20
14.1595
 30
0.0
 10
-52.9413
 20
14.1222
 30
0.0
 10
-53.0112
 20
14.0726
 30
0.0
 10
-53.0112
 20
14.0726
 30
0.0
 10
-53.0817
 20
14.023
 30
0.0
 10
-53.1372
 20
13.9588
 30
0.0
 10
-53.1787
 20
13.8807
 30
0.0
 10
-53.1787
 20
13.8807
 30
0.0
 10
-53.2206
 20
13.8025
 30
0.0
 10
-53.242
 20
13.7094
 30
0.0
 10
-53.2426
 20
13.6007
 30
0.0
 10
-53.2426
 20
13.6007
 30
0.0
 10
-53.242
 20
13.5242
 30
0.0
 10
-53.2309
 20
13.4513
 30
0.0
 10
-53.2084
 20
13.3819
 30
0.0
 10
-53.2084
 20
13.3819
 30
0.0
 10
-53.1858
 20
13.3125
 30
0.0
 10
-53.1554
 20
13.2484
 30
0.0
 10
-53.1165
 20
13.1895
 30
0.0
 10
-53.1165
 20
13.1895
 30
0.0
 10
-53.0783
 20
13.131
 30
0.0
 10
-53.0351
 20
13.0787
 30
0.0
 10
-52.9866
 20
13.0327
 30
0.0
 10
-52.9866
 20
13.0327
 30
0.0
 10
-52.9866
 20
13.0327
 30
0.0
 10
-52.746
 20
13.1196
 30
0.0
 10
-52.746
 20
13.1196
 30
0.0
 10
-52.746
 20
13.1196
 30
0.0
 10
-52.7789
 20
13.1506
 30
0.0
 10
-52.812
 20
13.1878
 30
0.0
 10
-52.8443
 20
13.2313
 30
0.0
 10
-52.8443
 20
13.2313
 30
0.0
 10
-52.8772
 20
13.2748
 30
0.0
 10
-52.9037
 20
13.3229
 30
0.0
 10
-52.9257
 20
13.3762
 30
0.0
 10
-52.9257
 20
13.3762
 30
0.0
 10
-52.9471
 20
13.4295
 30
0.0
 10
-52.9588
 20
13.4869
 30
0.0
 10
-52.9593
 20
13.548
 30
0.0
 10
-52.9593
 20
13.548
 30
0.0
 10
-52.9588
 20
13.623
 30
0.0
 10
-52.9452
 20
13.6861
 30
0.0
 10
-52.9186
 20
13.7373
 30
0.0
 10
-52.9186
 20
13.7373
 30
0.0
 10
-52.8915
 20
13.7881
 30
0.0
 10
-52.8552
 20
13.8289
 30
0.0
 10
-52.8093
 20
13.8594
 30
0.0
 10
-52.8093
 20
13.8594
 30
0.0
 10
-52.7627
 20
13.8899
 30
0.0
 10
-52.7104
 20
13.9122
 30
0.0
 10
-52.6515
 20
13.9257
 30
0.0
 10
-52.6515
 20
13.9257
 30
0.0
 10
-52.5926
 20
13.9391
 30
0.0
 10
-52.5312
 20
13.9458
 30
0.0
 10
-52.4665
 20
13.9454
 30
0.0
 10
-52.4665
 20
13.9454
 30
0.0
 10
-52.3721
 20
13.9454
 30
0.0
 10
-52.2791
 20
13.9303
 30
0.0
 10
-52.1865
 20
13.9003
 30
0.0
 10
-52.1865
 20
13.9003
 30
0.0
 10
-52.0934
 20
13.8703
 30
0.0
 10
-51.9964
 20
13.8248
 30
0.0
 10
-51.8942
 20
13.7631
 30
0.0
 10
-51.8942
 20
13.7631
 30
0.0
 10
-51.7921
 20
13.7016
 30
0.0
 10
-51.6801
 20
13.6235
 30
0.0
 10
-51.5585
 20
13.5289
 30
0.0
 10
-51.5585
 20
13.5289
 30
0.0
 10
-51.437
 20
13.4347
 30
0.0
 10
-51.2998
 20
13.3229
 30
0.0
 10
-51.1472
 20
13.1941
 30
0.0
 10
-51.1472
 20
13.1941
 30
0.0
 10
-51.1472
 20
13.1941
 30
0.0
 10
-50.8873
 20
12.9799
 30
0.0
 10
-50.8873
 20
12.9799
 30
0.0
 10
-50.8873
 20
12.9799
 30
0.0
 10
-50.8873
 20
12.9799
 30
0.0
 10
-50.6777
 20
12.9799
 30
0.0
 10
-50.6777
 20
12.9799
 30
0.0
 10
-50.6777
 20
12.9799
 30
0.0
 10
-50.6777
 20
12.9799
 30
0.0
 10
-50.6777
 20
14.2682
 30
0.0
 10
-50.6777
 20
14.2682
 30
0.0
  0
SPLINE
  5
D3
330
1F
100
AcDbEntity
  8
DEFAULT_1
 62
   250
100
AcDbSpline
210
0.0
220
0.0
230
1.0
 70
    11
 71
     3
 72
   132
 73
   128
 74
     0
 42
0.0000000001
 43
0.0000000001
 40
0.0
 40
0.0
 40
0.0
 40
0.0
 40
0.0303030303030303
 40
0.0303030303030303
 40
0.0303030303030303
 40
0.0303030303030303
 40
0.0606060606060606
 40
0.0606060606060606
 40
0.0606060606060606
 40
0.0606060606060606
 40
0.0909090909090909
 40
0.0909090909090909
 40
0.0909090909090909
 40
0.0909090909090909
 40
0.1212121212121212
 40
0.1212121212121212
 40
0.1212121212121212
 40
0.1212121212121212
 40
0.1515151515151515
 40
0.1515151515151515
 40
0.1515151515151515
 40
0.1515151515151515
 40
0.1818181818181818
 40
0.1818181818181818
 40
0.1818181818181818
 40
0.1818181818181818
 40
0.2121212121212121
 40
0.2121212121212121
 40
0.2121212121212121
 40
0.2121212121212121
 40
0.2424242424242424
 40
0.2424242424242424
 40
0.2424242424242424
 40
0.2424242424242424
 40
0.2727272727272727
 40
0.2727272727272727
 40
0.2727272727272727
 40
0.2727272727272727
 40
0.303030303030303
 40
0.303030303030303
 40
0.303030303030303
 40
0.303030303030303
 40
0.3333333333333333
 40
0.3333333333333333
 40
0.3333333333333333
 40
0.3333333333333333
 40
0.3636363636363636
 40
0.3636363636363636
 40
0.3636363636363636
 40
0.3636363636363636
 40
0.3939393939393939
 40
0.3939393939393939
 40
0.3939393939393939
 40
0.3939393939393939
 40
0.4242424242424243
 40
0.4242424242424243
 40
0.4242424242424243
 40
0.4242424242424243
 40
0.4545454545454545
 40
0.4545454545454545
 40
0.4545454545454545
 40
0.4545454545454545
 40
0.4848484848484849
 40
0.4848484848484849
 40
0.4848484848484849
 40
0.4848484848484849
 40
0.5151515151515151
 40
0.5151515151515151
 40
0.5151515151515151
 40
0.5151515151515151
 40
0.5454545454545454
 40
0.5454545454545454
 40
0.5454545454545454
 40
0.5454545454545454
 40
0.5757575757575758
 40
0.5757575757575758
 40
0.5757575757575758
 40
0.5757575757575758
 40
0.6060606060606061
 40
0.6060606060606061
 40
0.6060606060606061
 40
0.6060606060606061
 40
0.6363636363636364
 40
0.6363636363636364
 40
0.6363636363636364
 40
0.6363636363636364
 40
0.6666666666666666
 40
0.6666666666666666
 40
0.6666666666666666
 40
0.6666666666666666
 40
0.696969696969697
 40
0.696969696969697
 40
0.696969696969697
 40
0.696969696969697
 40
0.7272727272727273
 40
0.7272727272727273
 40
0.7272727272727273
 40
0.7272727272727273
 40
0.7575757575757576
 40
0.7575757575757576
 40
0.7575757575757576
 40
0.7575757575757576
 40
0.7878787878787878
 40
0.7878787878787878
 40
0.7878787878787878
 40
0.7878787878787878
 40
0.8181818181818182
 40
0.8181818181818182
 40
0.8181818181818182
 40
0.8181818181818182
 40
0.8484848484848485
 40
0.8484848484848485
 40
0.8484848484848485
 40
0.8484848484848485
 40
0.8787878787878788
 40
0.8787878787878788
 40
0.8787878787878788
 40
0.8787878787878788
 40
0.9090909090909091
 40
0.9090909090909091
 40
0.9090909090909091
 40
0.9090909090909091
 40
0.9393939393939394
 40
0.9393939393939394
 40
0.9393939393939394
 40
0.9393939393939394
 40
1.0
 40
1.0
 40
1.0
 40
1.0
 10
-53.1999
 20
15.7768
 30
0.0
 10
-53.1999
 20
15.7768
 30
0.0
 10
-53.1999
 20
14.8115
 30
0.0
 10
-53.1999
 20
14.8115
 30
0.0
 10
-53.1999
 20
14.8115
 30
0.0
 10
-53.1999
 20
14.8115
 30
0.0
 10
-51.9893
 20
14.6811
 30
0.0
 10
-51.9893
 20
14.6811
 30
0.0
 10
-51.9893
 20
14.6811
 30
0.0
 10
-51.9957
 20
14.7183
 30
0.0
 10
-52.0009
 20
14.7597
 30
0.0
 10
-52.0054
 20
14.8062
 30
0.0
 10
-52.0054
 20
14.8062
 30
0.0
 10
-52.01
 20
14.8524
 30
0.0
 10
-52.0126
 20
14.905
 30
0.0
 10
-52.0126
 20
14.9635
 30
0.0
 10
-52.0126
 20
14.9635
 30
0.0
 10
-52.0118
 20
15.097
 30
0.0
 10
-51.988
 20
15.2062
 30
0.0
 10
-51.9414
 20
15.291
 30
0.0
 10
-51.9414
 20
15.291
 30
0.0
 10
-51.8942
 20
15.3764
 30
0.0
 10
-51.8295
 20
15.4396
 30
0.0
 10
-51.7468
 20
15.4805
 30
0.0
 10
-51.7468
 20
15.4805
 30
0.0
 10
-51.6633
 20
15.5213
 30
0.0
 10
-51.5669
 20
15.5415
 30
0.0
 10
-51.4577
 20
15.5409
 30
0.0
 10
-51.4577
 20
15.5409
 30
0.0
 10
-51.373
 20
15.5415
 30
0.0
 10
-51.2972
 20
15.529
 30
0.0
 10
-51.2299
 20
15.5038
 30
0.0
 10
-51.2299
 20
15.5038
 30
0.0
 10
-51.1621
 20
15.4788
 30
0.0
 10
-51.1051
 20
15.4442
 30
0.0
 10
-51.0574
 20
15.4002
 30
0.0
 10
-51.0574
 20
15.4002
 30
0.0
 10
-51.0102
 20
15.3563
 30
0.0
 10
-50.9739
 20
15.3056
 30
0.0
 10
-50.9487
 20
15.2481
 30
0.0
 10
-50.9487
 20
15.2481
 30
0.0
 10
-50.9235
 20
15.1907
 30
0.0
 10
-50.9106
 20
15.1301
 30
0.0
 10
-50.9106
 20
15.066
 30
0.0
 10
-50.9106
 20
15.066
 30
0.0
 10
-50.9111
 20
15.0034
 30
0.0
 10
-50.9183
 20
14.9444
 30
0.0
 10
-50.9331
 20
14.8891
 30
0.0
 10
-50.9331
 20
14.8891
 30
0.0
 10
-50.9474
 20
14.8337
 30
0.0
 10
-50.9649
 20
14.784
 30
0.0
 10
-50.9862
 20
14.7401
 30
0.0
 10
-50.9862
 20
14.7401
 30
0.0
 10
-51.0076
 20
14.696
 30
0.0
 10
-51.0288
 20
14.6599
 30
0.0
 10
-51.0502
 20
14.6314
 30
0.0
 10
-51.0502
 20
14.6314
 30
0.0
 10
-51.0502
 20
14.6314
 30
0.0
 10
-50.7903
 20
14.5631
 30
0.0
 10
-50.7903
 20
14.5631
 30
0.0
 10
-50.7903
 20
14.5631
 30
0.0
 10
-50.7638
 20
14.5968
 30
0.0
 10
-50.7392
 20
14.6386
 30
0.0
 10
-50.7153
 20
14.6888
 30
0.0
 10
-50.7153
 20
14.6888
 30
0.0
 10
-50.692
 20
14.739
 30
0.0
 10
-50.6732
 20
14.7959
 30
0.0
 10
-50.6583
 20
14.8596
 30
0.0
 10
-50.6583
 20
14.8596
 30
0.0
 10
-50.6435
 20
14.9237
 30
0.0
 10
-50.6356
 20
14.9925
 30
0.0
 10
-50.635
 20
15.066
 30
0.0
 10
-50.635
 20
15.066
 30
0.0
 10
-50.6356
 20
15.1761
 30
0.0
 10
-50.6576
 20
15.2766
 30
0.0
 10
-50.7003
 20
15.3681
 30
0.0
 10
-50.7003
 20
15.3681
 30
0.0
 10
-50.7431
 20
15.4597
 30
0.0
 10
-50.8032
 20
15.5389
 30
0.0
 10
-50.8807
 20
15.6056
 30
0.0
 10
-50.8807
 20
15.6056
 30
0.0
 10
-50.9583
 20
15.6729
 30
0.0
 10
-51.0495
 20
15.7247
 30
0.0
 10
-51.1536
 20
15.7614
 30
0.0
 10
-51.1536
 20
15.7614
 30
0.0
 10
-51.2585
 20
15.7981
 30
0.0
 10
-51.373
 20
15.8167
 30
0.0
 10
-51.4964
 20
15.8173
 30
0.0
 10
-51.4964
 20
15.8173
 30
0.0
 10
-51.6013
 20
15.8167
 30
0.0
 10
-51.6957
 20
15.8033
 30
0.0
 10
-51.7791
 20
15.7774
 30
0.0
 10
-51.7791
 20
15.7774
 30
0.0
 10
-51.8626
 20
15.7516
 30
0.0
 10
-51.9344
 20
15.7174
 30
0.0
 10
-51.9951
 20
15.674
 30
0.0
 10
-51.9951
 20
15.674
 30
0.0
 10
-52.0558
 20
15.6305
 30
0.0
 10
-52.1043
 20
15.5818
 30
0.0
 10
-52.1406
 20
15.5286
 30
0.0
 10
-52.1406
 20
15.5286
 30
0.0
 10
-52.1885
 20
15.4659
 30
0.0
 10
-52.2235
 20
15.3982
 30
0.0
 10
-52.2447
 20
15.3242
 30
0.0
 10
-52.2447
 20
15.3242
 30
0.0
 10
-52.2661
 20
15.2502
 30
0.0
 10
-52.277
 20
15.1736
 30
0.0
 10
-52.2765
 20
15.0939
 30
0.0
 10
-52.2765
 20
15.0939
 30
0.0
 10
-52.2765
 20
15.0578
 30
0.0
 10
-52.2757
 20
15.0267
 30
0.0
 10
-52.2738
 20
15.0013
 30
0.0
 10
-52.2738
 20
15.0013
 30
0.0
 10
-52.2719
 20
14.976
 30
0.0
 10
-52.2686
 20
14.9522
 30
0.0
 10
-52.2648
 20
14.9294
 30
0.0
 10
-52.2648
 20
14.9294
 30
0.0
 10
-52.2648
 20
14.9294
 30
0.0
 10
-52.9129
 20
15.007
 30
0.0
 10
-52.9129
 20
15.007
 30
0.0
 10
-52.9129
 20
15.007
 30
0.0
 10
-52.9129
 20
15.007
 30
0.0
 10
-52.9129
 20
15.7768
 30
0.0
 10
-52.9129
 20
15.7768
 30
0.0
 10
-52.9129
 20
15.7768
 30
0.0
 10
-52.9129
 20
15.7768
 30
0.0
 10
-53.1999
 20
15.7768
 30
0.0
 10
-53.1999
 20
15.7768
 30
0.0
  0
SPLINE
  5
D4
330
1F
100
AcDbEntity
  8
DEFAULT_1
 62
   250
100
AcDbSpline
210
0.0
220
0.0
230
1.0
 70
    11
 71
     3
 72
   132
 73
   128
 74
     0
 42
0.0000000001
 43
0.0000000001
 40
0.0
 40
0.0
 40
0.0
 40
0.0
 40
0.0303030303030303
 40
0.0303030303030303
 40
0.0303030303030303
 40
0.0303030303030303
 40
0.0606060606060606
 40
0.0606060606060606
 40
0.0606060606060606
 40
0.0606060606060606
 40
0.0909090909090909
 40
0.0909090909090909
 40
0.0909090909090909
 40
0.0909090909090909
 40
0.1212121212121212
 40
0.1212121212121212
 40
0.1212121212121212
 40
0.1212121212121212
 40
0.1515151515151515
 40
0.1515151515151515
 40
0.1515151515151515
 40
0.1515151515151515
 40
0.1818181818181818
 40
0.1818181818181818
 40
0.1818181818181818
 40
0.1818181818181818
 40
0.2121212121212121
 40
0.2121212121212121
 40
0.2121212121212121
 40
0.2121212121212121
 40
0.2424242424242424
 40
0.2424242424242424
 40
0.2424242424242424
 40
0.2424242424242424
 40
0.2727272727272727
 40
0.2727272727272727
 40
0.2727272727272727
 40
0.2727272727272727
 40
0.303030303030303
 40
0.303030303030303
 40
0.303030303030303
 40
0.303030303030303
 40
0.3333333333333333
 40
0.3333333333333333
 40
0.3333333333333333
 40
0.3333333333333333
 40
0.3636363636363636
 40
0.3636363636363636
 40
0.3636363636363636
 40
0.3636363636363636
 40
0.3939393939393939
 40
0.3939393939393939
 40
0.3939393939393939
 40
0.3939393939393939
 40
0.4242424242424243
 40
0.4242424242424243
 40
0.4242424242424243
 40
0.4242424242424243
 40
0.4545454545454545
 40
0.4545454545454545
 40
0.4545454545454545
 40
0.4545454545454545
 40
0.4848484848484849
 40
0.4848484848484849
 40
0.4848484848484849
 40
0.4848484848484849
 40
0.5151515151515151
 40
0.5151515151515151
 40
0.5151515151515151
 40
0.5151515151515151
 40
0.5454545454545454
 40
0.5454545454545454
 40
0.5454545454545454
 40
0.5454545454545454
 40
0.5757575757575758
 40
0.5757575757575758
 40
0.5757575757575758
 40
0.5757575757575758
 40
0.6060606060606061
 40
0.6060606060606061
 40
0.6060606060606061
 40
0.6060606060606061
 40
0.6363636363636364
 40
0.6363636363636364
 40
0.6363636363636364
 40
0.6363636363636364
 40
0.6666666666666666
 40
0.6666666666666666
 40
0.6666666666666666
 40
0.6666666666666666
 40
0.696969696969697
 40
0.696969696969697
 40
0.696969696969697
 40
0.696969696969697
 40
0.7272727272727273
 40
0.7272727272727273
 40
0.7272727272727273
 40
0.7272727272727273
 40
0.7575757575757576
 40
0.7575757575757576
 40
0.7575757575757576
 40
0.7575757575757576
 40
0.7878787878787878
 40
0.7878787878787878
 40
0.7878787878787878
 40
0.7878787878787878
 40
0.8181818181818182
 40
0.8181818181818182
 40
0.8181818181818182
 40
0.8181818181818182
 40
0.8484848484848485
 40
0.8484848484848485
 40
0.8484848484848485
 40
0.8484848484848485
 40
0.8787878787878788
 40
0.8787878787878788
 40
0.8787878787878788
 40
0.8787878787878788
 40
0.9090909090909091
 40
0.9090909090909091
 40
0.9090909090909091
 40
0.9090909090909091
 40
0.9393939393939394
 40
0.9393939393939394
 40
0.9393939393939394
 40
0.9393939393939394
 40
1.0
 40
1.0
 40
1.0
 40
1.0
 10
-53.1999
 20
17.3694
 30
0.0
 10
-53.1999
 20
17.3694
 30
0.0
 10
-53.1999
 20
16.404
 30
0.0
 10
-53.1999
 20
16.404
 30
0.0
 10
-53.1999
 20
16.404
 30
0.0
 10
-53.1999
 20
16.404
 30
0.0
 10
-51.9893
 20
16.2736
 30
0.0
 10
-51.9893
 20
16.2736
 30
0.0
 10
-51.9893
 20
16.2736
 30
0.0
 10
-51.9957
 20
16.3108
 30
0.0
 10
-52.0009
 20
16.3523
 30
0.0
 10
-52.0054
 20
16.3988
 30
0.0
 10
-52.0054
 20
16.3988
 30
0.0
 10
-52.01
 20
16.4449
 30
0.0
 10
-52.0126
 20
16.4976
 30
0.0
 10
-52.0126
 20
16.556
 30
0.0
 10
-52.0126
 20
16.556
 30
0.0
 10
-52.0118
 20
16.6896
 30
0.0
 10
-51.988
 20
16.7987
 30
0.0
 10
-51.9414
 20
16.8835
 30
0.0
 10
-51.9414
 20
16.8835
 30
0.0
 10
-51.8942
 20
16.9689
 30
0.0
 10
-51.8295
 20
17.0321
 30
0.0
 10
-51.7468
 20
17.073
 30
0.0
 10
-51.7468
 20
17.073
 30
0.0
 10
-51.6633
 20
17.1139
 30
0.0
 10
-51.5669
 20
17.134
 30
0.0
 10
-51.4577
 20
17.1335
 30
0.0
 10
-51.4577
 20
17.1335
 30
0.0
 10
-51.373
 20
17.134
 30
0.0
 10
-51.2972
 20
17.1216
 30
0.0
 10
-51.2299
 20
17.0963
 30
0.0
 10
-51.2299
 20
17.0963
 30
0.0
 10
-51.1621
 20
17.0714
 30
0.0
 10
-51.1051
 20
17.0367
 30
0.0
 10
-51.0574
 20
16.9927
 30
0.0
 10
-51.0574
 20
16.9927
 30
0.0
 10
-51.0102
 20
16.9488
 30
0.0
 10
-50.9739
 20
16.8981
 30
0.0
 10
-50.9487
 20
16.8407
 30
0.0
 10
-50.9487
 20
16.8407
 30
0.0
 10
-50.9235
 20
16.7832
 30
0.0
 10
-50.9106
 20
16.7226
 30
0.0
 10
-50.9106
 20
16.6586
 30
0.0
 10
-50.9106
 20
16.6586
 30
0.0
 10
-50.9111
 20
16.5959
 30
0.0
 10
-50.9183
 20
16.5369
 30
0.0
 10
-50.9331
 20
16.4816
 30
0.0
 10
-50.9331
 20
16.4816
 30
0.0
 10
-50.9474
 20
16.4263
 30
0.0
 10
-50.9649
 20
16.3765
 30
0.0
 10
-50.9862
 20
16.3326
 30
0.0
 10
-50.9862
 20
16.3326
 30
0.0
 10
-51.0076
 20
16.2885
 30
0.0
 10
-51.0288
 20
16.2524
 30
0.0
 10
-51.0502
 20
16.2239
 30
0.0
 10
-51.0502
 20
16.2239
 30
0.0
 10
-51.0502
 20
16.2239
 30
0.0
 10
-50.7903
 20
16.1556
 30
0.0
 10
-50.7903
 20
16.1556
 30
0.0
 10
-50.7903
 20
16.1556
 30
0.0
 10
-50.7638
 20
16.1893
 30
0.0
 10
-50.7392
 20
16.2311
 30
0.0
 10
-50.7153
 20
16.2813
 30
0.0
 10
-50.7153
 20
16.2813
 30
0.0
 10
-50.692
 20
16.3315
 30
0.0
 10
-50.6732
 20
16.3884
 30
0.0
 10
-50.6583
 20
16.4521
 30
0.0
 10
-50.6583
 20
16.4521
 30
0.0
 10
-50.6435
 20
16.5162
 30
0.0
 10
-50.6356
 20
16.5851
 30
0.0
 10
-50.635
 20
16.6586
 30
0.0
 10
-50.635
 20
16.6586
 30
0.0
 10
-50.6356
 20
16.7687
 30
0.0
 10
-50.6576
 20
16.8691
 30
0.0
 10
-50.7003
 20
16.9607
 30
0.0
 10
-50.7003
 20
16.9607
 30
0.0
 10
-50.7431
 20
17.0522
 30
0.0
 10
-50.8032
 20
17.1315
 30
0.0
 10
-50.8807
 20
17.1981
 30
0.0
 10
-50.8807
 20
17.1981
 30
0.0
 10
-50.9583
 20
17.2655
 30
0.0
 10
-51.0495
 20
17.3172
 30
0.0
 10
-51.1536
 20
17.3539
 30
0.0
 10
-51.1536
 20
17.3539
 30
0.0
 10
-51.2585
 20
17.3906
 30
0.0
 10
-51.373
 20
17.4092
 30
0.0
 10
-51.4964
 20
17.4098
 30
0.0
 10
-51.4964
 20
17.4098
 30
0.0
 10
-51.6013
 20
17.4092
 30
0.0
 10
-51.6957
 20
17.3958
 30
0.0
 10
-51.7791
 20
17.37
 30
0.0
 10
-51.7791
 20
17.37
 30
0.0
 10
-51.8626
 20
17.3441
 30
0.0
 10
-51.9344
 20
17.31
 30
0.0
 10
-51.9951
 20
17.2665
 30
0.0
 10
-51.9951
 20
17.2665
 30
0.0
 10
-52.0558
 20
17.223
 30
0.0
 10
-52.1043
 20
17.1743
 30
0.0
 10
-52.1406
 20
17.1211
 30
0.0
 10
-52.1406
 20
17.1211
 30
0.0
 10
-52.1885
 20
17.0584
 30
0.0
 10
-52.2235
 20
16.9907
 30
0.0
 10
-52.2447
 20
16.9167
 30
0.0
 10
-52.2447
 20
16.9167
 30
0.0
 10
-52.2661
 20
16.8428
 30
0.0
 10
-52.277
 20
16.7661
 30
0.0
 10
-52.2765
 20
16.6864
 30
0.0
 10
-52.2765
 20
16.6864
 30
0.0
 10
-52.2765
 20
16.6503
 30
0.0
 10
-52.2757
 20
16.6192
 30
0.0
 10
-52.2738
 20
16.5938
 30
0.0
 10
-52.2738
 20
16.5938
 30
0.0
 10
-52.2719
 20
16.5685
 30
0.0
 10
-52.2686
 20
16.5447
 30
0.0
 10
-52.2648
 20
16.5219
 30
0.0
 10
-52.2648
 20
16.5219
 30
0.0
 10
-52.2648
 20
16.5219
 30
0.0
 10
-52.9129
 20
16.5995
 30
0.0
 10
-52.9129
 20
16.5995
 30
0.0
 10
-52.9129
 20
16.5995
 30
0.0
 10
-52.9129
 20
16.5995
 30
0.0
 10
-52.9129
 20
17.3694
 30
0.0
 10
-52.9129
 20
17.3694
 30
0.0
 10
-52.9129
 20
17.3694
 30
0.0
 10
-52.9129
 20
17.3694
 30
0.0
 10
-53.1999
 20
17.3694
 30
0.0
 10
-53.1999
 20
17.3694
 30
0.0
  0
ENDSEC
  0
SECTION
  2
OBJECTS
  0
DICTIONARY
  5
C
330
0
100
AcDbDictionary
281
     1
  3
ACAD_GROUP
350
D
  3
ACAD_LAYOUT
350
1A
  3
ACAD_MATERIAL
350
3B
  3
ACAD_MLEADERSTYLE
350
D7
  3
ACAD_MLINESTYLE
350
17
  3
ACAD_PLOTSETTINGS
350
19
  3
ACAD_PLOTSTYLENAME
350
E
  3
ACAD_VISUALSTYLE
350
2A
  3
AcDbVariableDictionary
350
D5
  0
DICTIONARY
  5
D
102
{ACAD_REACTORS
330
C
102
}
330
C
100
AcDbDictionary
281
     1
  0
DICTIONARY
  5
1A
102
{ACAD_REACTORS
330
C
102
}
330
C
100
AcDbDictionary
281
     1
  3
Layout1
350
1E
  3
Layout2
350
26
  3
Model
350
22
  0
DICTIONARY
  5
3B
102
{ACAD_REACTORS
330
C
102
}
330
C
100
AcDbDictionary
281
     1
  3
ByBlock
350
3D
  3
ByLayer
350
3C
  3
Global
350
3E
  0
DICTIONARY
  5
D7
102
{ACAD_REACTORS
330
C
102
}
330
C
100
AcDbDictionary
281
     1
  0
DICTIONARY
  5
17
102
{ACAD_REACTORS
330
C
102
}
330
C
100
AcDbDictionary
281
     1
  3
Standard
350
18
  0
DICTIONARY
  5
19
102
{ACAD_REACTORS
330
C
102
}
330
C
100
AcDbDictionary
281
     1
  0
ACDBDICTIONARYWDFLT
  5
E
102
{ACAD_REACTORS
330
C
102
}
330
C
100
AcDbDictionary
281
     1
  3
Normal
350
F
100
AcDbDictionaryWithDefault
340
F
  0
DICTIONARY
  5
2A
102
{ACAD_REACTORS
330
C
102
}
330
C
100
AcDbDictionary
281
     1
  3
2dWireframe
350
2F
  3
3D Hidden
350
31
  3
3dWireframe
350
30
  3
Basic
350
32
  3
Brighten
350
36
  3
ColorChange
350
3A
  3
Conceptual
350
34
  3
Dim
350
35
  3
Facepattern
350
39
  3
Flat
350
2B
  3
FlatWithEdges
350
2C
  3
Gouraud
350
2D
  3
GouraudWithEdges
350
2E
  3
Linepattern
350
38
  3
Realistic
350
33
  3
Thicken
350
37
  0
DICTIONARY
  5
D5
102
{ACAD_REACTORS
330
C
102
}
330
C
100
AcDbDictionary
281
     1
  3
DIMASSOC
350
D8
  3
HIDETEXT
350
D9
  0
LAYOUT
  5
1E
102
{ACAD_REACTORS
330
1A
102
}
330
1A
100
AcDbPlotSettings
  1

  2
none_device
  4

  6

 40
0.0
 41
0.0
 42
0.0
 43
0.0
 44
0.0
 45
0.0
 46
0.0
 47
0.0
 48
0.0
 49
0.0
140
0.0
141
0.0
142
1.0
143
1.0
 70
   688
 72
     0
 73
     0
 74
     5
  7

 75
    16
147
1.0
148
0.0
149
0.0
100
AcDbLayout
  1
Layout1
 70
     1
 71
     1
 10
0.0
 20
0.0
 11
12.0
 21
9.0
 12
0.0
 22
0.0
 32
0.0
 14
1.000000000000000E+20
 24
1.000000000000000E+20
 34
1.000000000000000E+20
 15
-1.000000000000000E+20
 25
-1.000000000000000E+20
 35
-1.000000000000000E+20
146
0.0
 13
0.0
 23
0.0
 33
0.0
 16
1.0
 26
0.0
 36
0.0
 17
0.0
 27
1.0
 37
0.0
 76
     0
330
1B
  0
LAYOUT
  5
26
102
{ACAD_REACTORS
330
1A
102
}
330
1A
100
AcDbPlotSettings
  1

  2
none_device
  4

  6

 40
0.0
 41
0.0
 42
0.0
 43
0.0
 44
0.0
 45
0.0
 46
0.0
 47
0.0
 48
0.0
 49
0.0
140
0.0
141
0.0
142
1.0
143
1.0
 70
   688
 72
     0
 73
     0
 74
     5
  7

 75
    16
147
1.0
148
0.0
149
0.0
100
AcDbLayout
  1
Layout2
 70
     1
 71
     2
 10
0.0
 20
0.0
 11
0.0
 21
0.0
 12
0.0
 22
0.0
 32
0.0
 14
0.0
 24
0.0
 34
0.0
 15
0.0
 25
0.0
 35
0.0
146
0.0
 13
0.0
 23
0.0
 33
0.0
 16
1.0
 26
0.0
 36
0.0
 17
0.0
 27
1.0
 37
0.0
 76
     0
330
23
  0
LAYOUT
  5
22
102
{ACAD_REACTORS
330
1A
102
}
330
1A
100
AcDbPlotSettings
  1

  2
none_device
  4

  6

 40
0.0
 41
0.0
 42
0.0
 43
0.0
 44
0.0
 45
0.0
 46
0.0
 47
0.0
 48
0.0
 49
0.0
140
0.0
141
0.0
142
1.0
143
1.0
 70
  1712
 72
     0
 73
     0
 74
     0
  7

 75
     0
147
1.0
148
0.0
149
0.0
100
AcDbLayout
  1
Model
 70
     1
 71
     0
 10
0.0
 20
0.0
 11
12.0
 21
9.0
 12
0.0
 22
0.0
 32
0.0
 14
-53.2426
 24
-34.0719
 34
0.0
 15
53.2427
 25
33.9309
 35
0.0
146
0.0
 13
0.0
 23
0.0
 33
0.0
 16
1.0
 26
0.0
 36
0.0
 17
0.0
 27
1.0
 37
0.0
 76
     0
330
1F
331
29
  0
MATERIAL
  5
3D
102
{ACAD_REACTORS
330
3B
102
}
102
{ACAD_XDICTIONARY
360
FC
102
}
330
3B
100
AcDbMaterial
  1
ByBlock
  0
MATERIAL
  5
3C
102
{ACAD_REACTORS
330
3B
102
}
102
{ACAD_XDICTIONARY
360
FA
102
}
330
3B
100
AcDbMaterial
  1
ByLayer
  0
MATERIAL
  5
3E
102
{ACAD_REACTORS
330
3B
102
}
102
{ACAD_XDICTIONARY
360
FE
102
}
330
3B
100
AcDbMaterial
  1
Global
  0
MLINESTYLE
  5
18
102
{ACAD_REACTORS
330
17
102
}
330
17
100
AcDbMlineStyle
  2
Standard
 70
     0
  3

 62
   256
 51
90.0
 52
90.0
 71
     2
 49
0.5
 62
   256
  6
BYLAYER
 49
-0.5
 62
   256
  6
BYLAYER
  0
ACDBPLACEHOLDER
  5
F
102
{ACAD_REACTORS
330
E
102
}
330
E
  0
VISUALSTYLE
  5
2F
102
{ACAD_REACTORS
330
2A
102
}
102
{ACAD_XDICTIONARY
360
E2
102
}
330
2A
100
AcDbVisualStyle
  2
2dWireframe
 70
     4
 71
     0
 72
     2
 73
     0
 90
        0
 40
-0.6
 41
-30.0
 62
     5
 63
     7
 74
     1
 91
        4
 64
     7
 65
   257
 75
     1
175
     1
 42
1.0
 92
        0
 66
   257
 43
1.0
 76
     1
 77
     6
 78
     2
 67
     7
 79
     5
170
     0
171
     0
290
     0
174
     0
 93
        1
 44
0.0
173
     0
291
     0
 45
0.0
1001
ACAD
1000
AcDbSavedByObjectVersion
1070
     0
  0
VISUALSTYLE
  5
31
102
{ACAD_REACTORS
330
2A
102
}
102
{ACAD_XDICTIONARY
360
E6
102
}
330
2A
100
AcDbVisualStyle
  2
3D Hidden
 70
     6
 71
     1
 72
     2
 73
     2
 90
        0
 40
-0.6
 41
-30.0
 62
     5
 63
     7
 74
     2
 91
        2
 64
     7
 65
   257
 75
     2
175
     1
 42
40.0
 92
        0
 66
   257
 43
1.0
 76
     1
 77
     6
 78
     2
 67
     7
 79
     3
170
     0
171
     0
290
     0
174
     0
 93
        1
 44
0.0
173
     0
291
     0
 45
0.0
1001
ACAD
1000
AcDbSavedByObjectVersion
1070
     0
  0
VISUALSTYLE
  5
30
102
{ACAD_REACTORS
330
2A
102
}
102
{ACAD_XDICTIONARY
360
E4
102
}
330
2A
100
AcDbVisualStyle
  2
3dWireframe
 70
     5
 71
     0
 72
     2
 73
     0
 90
        0
 40
-0.6
 41
-30.0
 62
     5
 63
     7
 74
     1
 91
        4
 64
     7
 65
   257
 75
     1
175
     1
 42
1.0
 92
        0
 66
   257
 43
1.0
 76
     1
 77
     6
 78
     2
 67
     7
 79
     5
170
     0
171
     0
290
     0
174
     0
 93
        1
 44
0.0
173
     0
291
     0
 45
0.0
1001
ACAD
1000
AcDbSavedByObjectVersion
1070
     0
  0
VISUALSTYLE
  5
32
102
{ACAD_REACTORS
330
2A
102
}
102
{ACAD_XDICTIONARY
360
E8
102
}
330
2A
100
AcDbVisualStyle
  2
Basic
 70
     7
 71
     1
 72
     0
 73
     1
 90
        0
 40
-0.6
 41
-30.0
 62
     5
 63
     7
 74
     0
 91
        4
 64
     7
 65
   257
 75
     1
175
     1
 42
1.0
 92
        8
 66
     7
 43
1.0
 76
     1
 77
     6
 78
     2
 67
     7
 79
     5
170
     0
171
     0
290
     0
174
     0
 93
        1
 44
0.0
173
     0
291
     1
 45
0.0
1001
ACAD
1000
AcDbSavedByObjectVersion
1070
     0
  0
VISUALSTYLE
  5
36
102
{ACAD_REACTORS
330
2A
102
}
102
{ACAD_XDICTIONARY
360
F0
102
}
330
2A
100
AcDbVisualStyle
  2
Brighten
 70
    12
 71
     2
 72
     2
 73
     0
 90
        0
 40
-0.6
 41
-30.0
 62
     5
 63
     7
 74
     1
 91
        4
 64
     7
 65
   257
 75
     1
175
     1
 42
1.0
 92
        8
 66
     7
 43
1.0
 76
     1
 77
     6
 78
     2
 67
     7
 79
     5
170
     0
171
     0
290
     0
174
     0
 93
        1
 44
50.0
173
     0
291
     1
 45
0.0
1001
ACAD
1000
AcDbSavedByObjectVersion
1070
     0
  0
VISUALSTYLE
  5
3A
102
{ACAD_REACTORS
330
2A
102
}
102
{ACAD_XDICTIONARY
360
F8
102
}
330
2A
100
AcDbVisualStyle
  2
ColorChange
 70
    16
 71
     2
 72
     2
 73
     3
 90
        0
 40
-0.6
 41
-30.0
 62
     5
 63
     8
 74
     1
 91
        4
 64
     7
 65
   257
 75
     1
175
     1
 42
1.0
 92
        8
 66
     8
 43
1.0
 76
     1
 77
     6
 78
     2
 67
     7
 79
     5
170
     0
171
     0
290
     0
174
     0
 93
        1
 44
0.0
173
     0
291
     1
 45
0.0
1001
ACAD
1000
AcDbSavedByObjectVersion
1070
     0
  0
VISUALSTYLE
  5
34
102
{ACAD_REACTORS
330
2A
102
}
102
{ACAD_XDICTIONARY
360
EC
102
}
330
2A
100
AcDbVisualStyle
  2
Conceptual
 70
     9
 71
     3
 72
     2
 73
     0
 90
        0
 40
-0.6
 41
-30.0
 62
     5
 63
     7
 74
     2
 91
        2
 64
     7
 65
   257
 75
     1
175
     1
 42
40.0
 92
        8
 66
     7
 43
1.0
 76
     1
 77
     6
 78
     2
 67
     7
 79
     3
170
     0
171
     0
290
     0
174
     0
 93
        1
 44
0.0
173
     0
291
     0
 45
0.0
1001
ACAD
1000
AcDbSavedByObjectVersion
1070
     0
  0
VISUALSTYLE
  5
35
102
{ACAD_REACTORS
330
2A
102
}
102
{ACAD_XDICTIONARY
360
EE
102
}
330
2A
100
AcDbVisualStyle
  2
Dim
 70
    11
 71
     2
 72
     2
 73
     0
 90
        0
 40
-0.6
 41
-30.0
 62
     5
 63
     7
 74
     1
 91
        4
 64
     7
 65
   257
 75
     1
175
     1
 42
1.0
 92
        8
 66
     7
 43
1.0
 76
     1
 77
     6
 78
     2
 67
     7
 79
     5
170
     0
171
     0
290
     0
174
     0
 93
        1
 44
-50.0
173
     0
291
     1
 45
0.0
1001
ACAD
1000
AcDbSavedByObjectVersion
1070
     0
  0
VISUALSTYLE
  5
39
102
{ACAD_REACTORS
330
2A
102
}
102
{ACAD_XDICTIONARY
360
F6
102
}
330
2A
100
AcDbVisualStyle
  2
Facepattern
 70
    15
 71
     2
 72
     2
 73
     0
 90
        0
 40
-0.6
 41
-30.0
 62
     5
 63
     7
 74
     1
 91
        4
 64
     7
 65
   257
 75
     1
175
     1
 42
1.0
 92
        8
 66
     7
 43
1.0
 76
     1
 77
     6
 78
     2
 67
     7
 79
     5
170
     0
171
     0
290
     0
174
     0
 93
        1
 44
0.0
173
     0
291
     1
 45
0.0
1001
ACAD
1000
AcDbSavedByObjectVersion
1070
     0
  0
VISUALSTYLE
  5
2B
102
{ACAD_REACTORS
330
2A
102
}
102
{ACAD_XDICTIONARY
360
DA
102
}
330
2A
100
AcDbVisualStyle
  2
Flat
 70
     0
 71
     2
 72
     1
 73
     1
 90
        2
 40
-0.6
 41
30.0
 62
     5
 63
     7
 74
     0
 91
        4
 64
     7
 65
   257
 75
     1
175
     1
 42
1.0
 92
        8
 66
     7
 43
1.0
 76
     1
 77
     6
 78
     2
 67
     7
 79
     5
170
     0
171
     0
290
     0
174
     0
 93
       13
 44
0.0
173
     0
291
     1
 45
0.0
1001
ACAD
1000
AcDbSavedByObjectVersion
1070
     0
  0
VISUALSTYLE
  5
2C
102
{ACAD_REACTORS
330
2A
102
}
102
{ACAD_XDICTIONARY
360
DC
102
}
330
2A
100
AcDbVisualStyle
  2
FlatWithEdges
 70
     1
 71
     2
 72
     1
 73
     1
 90
        2
 40
-0.6
 41
30.0
 62
     5
 63
     7
 74
     1
 91
        4
 64
     7
 65
   257
 75
     1
175
     1
 42
1.0
 92
        0
 66
   257
 43
1.0
 76
     1
 77
     6
 78
     2
 67
     7
 79
     5
170
     0
171
     0
290
     0
174
     0
 93
       13
 44
0.0
173
     0
291
     1
 45
0.0
1001
ACAD
1000
AcDbSavedByObjectVersion
1070
     0
  0
VISUALSTYLE
  5
2D
102
{ACAD_REACTORS
330
2A
102
}
102
{ACAD_XDICTIONARY
360
DE
102
}
330
2A
100
AcDbVisualStyle
  2
Gouraud
 70
     2
 71
     2
 72
     2
 73
     1
 90
        2
 40
-0.6
 41
30.0
 62
     5
 63
     7
 74
     0
 91
        4
 64
     7
 65
   257
 75
     1
175
     1
 42
1.0
 92
        0
 66
     7
 43
1.0
 76
     1
 77
     6
 78
     2
 67
     7
 79
     5
170
     0
171
     0
290
     0
174
     0
 93
       13
 44
0.0
173
     0
291
     1
 45
0.0
1001
ACAD
1000
AcDbSavedByObjectVersion
1070
     0
  0
VISUALSTYLE
  5
2E
102
{ACAD_REACTORS
330
2A
102
}
102
{ACAD_XDICTIONARY
360
E0
102
}
330
2A
100
AcDbVisualStyle
  2
GouraudWithEdges
 70
     3
 71
     2
 72
     2
 73
     1
 90
        2
 40
-0.6
 41
30.0
 62
     5
 63
     7
 74
     1
 91
        4
 64
     7
 65
   257
 75
     1
175
     1
 42
1.0
 92
        0
 66
   257
 43
1.0
 76
     1
 77
     6
 78
     2
 67
     7
 79
     5
170
     0
171
     0
290
     0
174
     0
 93
       13
 44
0.0
173
     0
291
     1
 45
0.0
1001
ACAD
1000
AcDbSavedByObjectVersion
1070
     0
  0
VISUALSTYLE
  5
38
102
{ACAD_REACTORS
330
2A
102
}
102
{ACAD_XDICTIONARY
360
F4
102
}
330
2A
100
AcDbVisualStyle
  2
Linepattern
 70
    14
 71
     2
 72
     2
 73
     0
 90
        0
 40
-0.6
 41
-30.0
 62
     5
 63
     7
 74
     1
 91
        4
 64
     7
 65
   257
 75
     7
175
     7
 42
1.0
 92
        8
 66
     7
 43
1.0
 76
     1
 77
     6
 78
     2
 67
     7
 79
     5
170
     0
171
     0
290
     0
174
     0
 93
        1
 44
0.0
173
     0
291
     1
 45
0.0
1001
ACAD
1000
AcDbSavedByObjectVersion
1070
     0
  0
VISUALSTYLE
  5
33
102
{ACAD_REACTORS
330
2A
102
}
102
{ACAD_XDICTIONARY
360
EA
102
}
330
2A
100
AcDbVisualStyle
  2
Realistic
 70
     8
 71
     2
 72
     2
 73
     0
 90
        0
 40
-0.6
 41
-30.0
 62
     5
 63
     7
 74
     1
 91
        0
 64
     7
 65
   257
 75
     1
175
     1
 42
1.0
 92
        8
 66
     8
 43
1.0
 76
     1
 77
     6
 78
     2
 67
     7
 79
     5
170
     0
171
     0
290
     0
174
     0
 93
       13
 44
0.0
173
     0
291
     0
 45
0.0
1001
ACAD
1000
AcDbSavedByObjectVersion
1070
     0
  0
VISUALSTYLE
  5
37
102
{ACAD_REACTORS
330
2A
102
}
102
{ACAD_XDICTIONARY
360
F2
102
}
330
2A
100
AcDbVisualStyle
  2
Thicken
 70
    13
 71
     2
 72
     2
 73
     0
 90
        0
 40
-0.6
 41
-30.0
 62
     5
 63
     7
 74
     1
 91
        4
 64
     7
 65
   257
 75
     1
175
     1
 42
1.0
 92
       12
 66
     7
 43
1.0
 76
     1
 77
     6
 78
     2
 67
     7
 79
     5
170
     0
171
     0
290
     0
174
     0
 93
        1
 44
0.0
173
     0
291
     1
 45
0.0
1001
ACAD
1000
AcDbSavedByObjectVersion
1070
     0
  0
DICTIONARYVAR
  5
D8
102
{ACAD_REACTORS
330
D5
102
}
330
D5
100
DictionaryVariables
280
     0
  1
2
  0
DICTIONARYVAR
  5
D9
102
{ACAD_REACTORS
330
D5
102
}
330
D5
100
DictionaryVariables
280
     0
  1
1
  0
DICTIONARY
  5
FC
330
3D
100
AcDbDictionary
280
     1
281
     1
  3
ACAD_XREC_ROUNDTRIP
360
FD
  0
DICTIONARY
  5
FA
330
3C
100
AcDbDictionary
280
     1
281
     1
  3
ACAD_XREC_ROUNDTRIP
360
FB
  0
DICTIONARY
  5
FE
330
3E
100
AcDbDictionary
280
     1
281
     1
  3
ACAD_XREC_ROUNDTRIP
360
FF
  0
DICTIONARY
  5
E2
330
2F
100
AcDbDictionary
280
     1
281
     1
  3
ACAD_XREC_ROUNDTRIP
360
E3
  0
DICTIONARY
  5
E6
330
31
100
AcDbDictionary
280
     1
281
     1
  3
ACAD_XREC_ROUNDTRIP
360
E7
  0
DICTIONARY
  5
E4
330
30
100
AcDbDictionary
280
     1
281
     1
  3
ACAD_XREC_ROUNDTRIP
360
E5
  0
DICTIONARY
  5
E8
330
32
100
AcDbDictionary
280
     1
281
     1
  3
ACAD_XREC_ROUNDTRIP
360
E9
  0
DICTIONARY
  5
F0
330
36
100
AcDbDictionary
280
     1
281
     1
  3
ACAD_XREC_ROUNDTRIP
360
F1
  0
DICTIONARY
  5
F8
330
3A
100
AcDbDictionary
280
     1
281
     1
  3
ACAD_XREC_ROUNDTRIP
360
F9
  0
DICTIONARY
  5
EC
330
34
100
AcDbDictionary
280
     1
281
     1
  3
ACAD_XREC_ROUNDTRIP
360
ED
  0
DICTIONARY
  5
EE
330
35
100
AcDbDictionary
280
     1
281
     1
  3
ACAD_XREC_ROUNDTRIP
360
EF
  0
DICTIONARY
  5
F6
330
39
100
AcDbDictionary
280
     1
281
     1
  3
ACAD_XREC_ROUNDTRIP
360
F7
  0
DICTIONARY
  5
DA
330
2B
100
AcDbDictionary
280
     1
281
     1
  3
ACAD_XREC_ROUNDTRIP
360
DB
  0
DICTIONARY
  5
DC
330
2C
100
AcDbDictionary
280
     1
281
     1
  3
ACAD_XREC_ROUNDTRIP
360
DD
  0
DICTIONARY
  5
DE
330
2D
100
AcDbDictionary
280
     1
281
     1
  3
ACAD_XREC_ROUNDTRIP
360
DF
  0
DICTIONARY
  5
E0
330
2E
100
AcDbDictionary
280
     1
281
     1
  3
ACAD_XREC_ROUNDTRIP
360
E1
  0
DICTIONARY
  5
F4
330
38
100
AcDbDictionary
280
     1
281
     1
  3
ACAD_XREC_ROUNDTRIP
360
F5
  0
DICTIONARY
  5
EA
330
33
100
AcDbDictionary
280
     1
281
     1
  3
ACAD_XREC_ROUNDTRIP
360
EB
  0
DICTIONARY
  5
F2
330
37
100
AcDbDictionary
280
     1
281
     1
  3
ACAD_XREC_ROUNDTRIP
360
F3
  0
XRECORD
  5
FD
102
{ACAD_REACTORS
330
FC
102
}
330
FC
100
AcDbXrecord
280
     1
102
MATERIAL
148
0.0
149
0.0
149
0.0
 93
        0
 94
      127
282
     0
 72
     1
 77
     1
171
     1
175
     1
179
     1
273
     0
  0
XRECORD
  5
FB
102
{ACAD_REACTORS
330
FA
102
}
330
FA
100
AcDbXrecord
280
     1
102
MATERIAL
148
0.0
149
0.0
149
0.0
 93
        0
 94
      127
282
     0
 72
     1
 77
     1
171
     1
175
     1
179
     1
273
     0
  0
XRECORD
  5
FF
102
{ACAD_REACTORS
330
FE
102
}
330
FE
100
AcDbXrecord
280
     1
102
MATERIAL
148
0.0
149
0.0
149
0.0
 93
        0
 94
      127
282
     0
 72
     1
 77
     1
171
     1
175
     1
179
     1
273
     0
  0
XRECORD
  5
E3
102
{ACAD_REACTORS
330
E2
102
}
330
E2
100
AcDbXrecord
280
     1
102
RTVSPropertyOp0
 70
     1
102
RTVSPropertyOp1
 70
     1
102
RTVSPropertyOp2
 70
     1
102
RTVSPropertyOp3
 70
     1
102
RTVSPropertyOp4
 70
     1
102
RTVSPropertyOp5
 70
     1
102
RTVSPropertyOp6
 70
     1
102
RTVSPropertyOp7
 70
     1
102
RTVSPropertyOp8
 70
     1
102
RTVSPropertyOp9
 70
     1
102
RTVSPropertyOp10
 70
     1
102
RTVSPropertyOp11
 70
     1
102
RTVSPropertyOp12
 70
     1
102
RTVSPropertyOp13
 70
     1
102
RTVSPropertyOp14
 70
     1
102
RTVSPropertyOp15
 70
     1
102
RTVSPropertyOp16
 70
     1
102
RTVSPropertyOp17
 70
     1
102
RTVSPropertyOp18
 70
     1
102
RTVSPropertyOp19
 70
     1
102
RTVSPropertyOp20
 70
     1
102
RTVSPropertyOp21
 70
     1
102
RTVSPropertyOp22
 70
     1
102
RTVSPropertyOp23
 70
     1
102
RTVSPropertyOp24
 70
     1
102
RTVSPropertyOp25
 70
     1
102
RTVSPropertyOp26
 70
     1
102
RTVSPropertyOp27
 70
     1
  0
XRECORD
  5
E7
102
{ACAD_REACTORS
330
E6
102
}
330
E6
100
AcDbXrecord
280
     1
102
RTVSPropertyOp0
 70
     1
102
RTVSPropertyOp1
 70
     1
102
RTVSPropertyOp2
 70
     1
102
RTVSPropertyOp3
 70
     1
102
RTVSPropertyOp4
 70
     1
102
RTVSPropertyOp5
 70
     1
102
RTVSPropertyOp6
 70
     1
102
RTVSPropertyOp7
 70
     1
102
RTVSPropertyOp8
 70
     1
102
RTVSPropertyOp9
 70
     1
102
RTVSPropertyOp10
 70
     1
102
RTVSPropertyOp11
 70
     1
102
RTVSPropertyOp12
 70
     1
102
RTVSPropertyOp13
 70
     1
102
RTVSPropertyOp14
 70
     1
102
RTVSPropertyOp15
 70
     1
102
RTVSPropertyOp16
 70
     1
102
RTVSPropertyOp17
 70
     1
102
RTVSPropertyOp18
 70
     1
102
RTVSPropertyOp19
 70
     1
102
RTVSPropertyOp20
 70
     1
102
RTVSPropertyOp21
 70
     1
102
RTVSPropertyOp22
 70
     1
102
RTVSPropertyOp23
 70
     1
102
RTVSPropertyOp24
 70
     1
102
RTVSPropertyOp25
 70
     1
102
RTVSPropertyOp26
 70
     1
102
RTVSPropertyOp27
 70
     1
  0
XRECORD
  5
E5
102
{ACAD_REACTORS
330
E4
102
}
330
E4
100
AcDbXrecord
280
     1
102
RTVSPropertyOp0
 70
     1
102
RTVSPropertyOp1
 70
     1
102
RTVSPropertyOp2
 70
     1
102
RTVSPropertyOp3
 70
     1
102
RTVSPropertyOp4
 70
     1
102
RTVSPropertyOp5
 70
     1
102
RTVSPropertyOp6
 70
     1
102
RTVSPropertyOp7
 70
     1
102
RTVSPropertyOp8
 70
     1
102
RTVSPropertyOp9
 70
     1
102
RTVSPropertyOp10
 70
     1
102
RTVSPropertyOp11
 70
     1
102
RTVSPropertyOp12
 70
     1
102
RTVSPropertyOp13
 70
     1
102
RTVSPropertyOp14
 70
     1
102
RTVSPropertyOp15
 70
     1
102
RTVSPropertyOp16
 70
     1
102
RTVSPropertyOp17
 70
     1
102
RTVSPropertyOp18
 70
     1
102
RTVSPropertyOp19
 70
     1
102
RTVSPropertyOp20
 70
     1
102
RTVSPropertyOp21
 70
     1
102
RTVSPropertyOp22
 70
     1
102
RTVSPropertyOp23
 70
     1
102
RTVSPropertyOp24
 70
     1
102
RTVSPropertyOp25
 70
     1
102
RTVSPropertyOp26
 70
     1
102
RTVSPropertyOp27
 70
     1
  0
XRECORD
  5
E9
102
{ACAD_REACTORS
330
E8
102
}
330
E8
100
AcDbXrecord
280
     1
102
RTVSPropertyOp0
 70
     1
102
RTVSPropertyOp1
 70
     1
102
RTVSPropertyOp2
 70
     1
102
RTVSPropertyOp3
 70
     1
102
RTVSPropertyOp4
 70
     1
102
RTVSPropertyOp5
 70
     1
102
RTVSPropertyOp6
 70
     1
102
RTVSPropertyOp7
 70
     1
102
RTVSPropertyOp8
 70
     1
102
RTVSPropertyOp9
 70
     1
102
RTVSPropertyOp10
 70
     1
102
RTVSPropertyOp11
 70
     1
102
RTVSPropertyOp12
 70
     1
102
RTVSPropertyOp13
 70
     1
102
RTVSPropertyOp14
 70
     1
102
RTVSPropertyOp15
 70
     1
102
RTVSPropertyOp16
 70
     1
102
RTVSPropertyOp17
 70
     1
102
RTVSPropertyOp18
 70
     1
102
RTVSPropertyOp19
 70
     1
102
RTVSPropertyOp20
 70
     1
102
RTVSPropertyOp21
 70
     1
102
RTVSPropertyOp22
 70
     1
102
RTVSPropertyOp23
 70
     1
102
RTVSPropertyOp24
 70
     1
102
RTVSPropertyOp25
 70
     1
102
RTVSPropertyOp26
 70
     1
102
RTVSPropertyOp27
 70
     1
  0
XRECORD
  5
F1
102
{ACAD_REACTORS
330
F0
102
}
330
F0
100
AcDbXrecord
280
     1
102
RTVSPropertyOp0
 70
     1
102
RTVSPropertyOp1
 70
     1
102
RTVSPropertyOp2
 70
     1
102
RTVSPropertyOp3
 70
     1
102
RTVSPropertyOp4
 70
     1
102
RTVSPropertyOp5
 70
     1
102
RTVSPropertyOp6
 70
     1
102
RTVSPropertyOp7
 70
     1
102
RTVSPropertyOp8
 70
     1
102
RTVSPropertyOp9
 70
     1
102
RTVSPropertyOp10
 70
     1
102
RTVSPropertyOp11
 70
     1
102
RTVSPropertyOp12
 70
     1
102
RTVSPropertyOp13
 70
     1
102
RTVSPropertyOp14
 70
     1
102
RTVSPropertyOp15
 70
     1
102
RTVSPropertyOp16
 70
     1
102
RTVSPropertyOp17
 70
     1
102
RTVSPropertyOp18
 70
     1
102
RTVSPropertyOp19
 70
     1
102
RTVSPropertyOp20
 70
     1
102
RTVSPropertyOp21
 70
     1
102
RTVSPropertyOp22
 70
     1
102
RTVSPropertyOp23
 70
     1
102
RTVSPropertyOp24
 70
     1
102
RTVSPropertyOp25
 70
     1
102
RTVSPropertyOp26
 70
     1
102
RTVSPropertyOp27
 70
     1
  0
XRECORD
  5
F9
102
{ACAD_REACTORS
330
F8
102
}
330
F8
100
AcDbXrecord
280
     1
102
RTVSPropertyOp0
 70
     1
102
RTVSPropertyOp1
 70
     1
102
RTVSPropertyOp2
 70
     1
102
RTVSPropertyOp3
 70
     1
102
RTVSPropertyOp4
 70
     1
102
RTVSPropertyOp5
 70
     1
102
RTVSPropertyOp6
 70
     1
102
RTVSPropertyOp7
 70
     1
102
RTVSPropertyOp8
 70
     1
102
RTVSPropertyOp9
 70
     1
102
RTVSPropertyOp10
 70
     1
102
RTVSPropertyOp11
 70
     1
102
RTVSPropertyOp12
 70
     1
102
RTVSPropertyOp13
 70
     1
102
RTVSPropertyOp14
 70
     1
102
RTVSPropertyOp15
 70
     1
102
RTVSPropertyOp16
 70
     1
102
RTVSPropertyOp17
 70
     1
102
RTVSPropertyOp18
 70
     1
102
RTVSPropertyOp19
 70
     1
102
RTVSPropertyOp20
 70
     1
102
RTVSPropertyOp21
 70
     1
102
RTVSPropertyOp22
 70
     1
102
RTVSPropertyOp23
 70
     1
102
RTVSPropertyOp24
 70
     1
102
RTVSPropertyOp25
 70
     1
102
RTVSPropertyOp26
 70
     1
102
RTVSPropertyOp27
 70
     1
  0
XRECORD
  5
ED
102
{ACAD_REACTORS
330
EC
102
}
330
EC
100
AcDbXrecord
280
     1
102
RTVSPropertyOp0
 70
     1
102
RTVSPropertyOp1
 70
     1
102
RTVSPropertyOp2
 70
     1
102
RTVSPropertyOp3
 70
     1
102
RTVSPropertyOp4
 70
     1
102
RTVSPropertyOp5
 70
     1
102
RTVSPropertyOp6
 70
     1
102
RTVSPropertyOp7
 70
     1
102
RTVSPropertyOp8
 70
     1
102
RTVSPropertyOp9
 70
     1
102
RTVSPropertyOp10
 70
     1
102
RTVSPropertyOp11
 70
     1
102
RTVSPropertyOp12
 70
     1
102
RTVSPropertyOp13
 70
     1
102
RTVSPropertyOp14
 70
     1
102
RTVSPropertyOp15
 70
     1
102
RTVSPropertyOp16
 70
     1
102
RTVSPropertyOp17
 70
     1
102
RTVSPropertyOp18
 70
     1
102
RTVSPropertyOp19
 70
     1
102
RTVSPropertyOp20
 70
     1
102
RTVSPropertyOp21
 70
     1
102
RTVSPropertyOp22
 70
     1
102
RTVSPropertyOp23
 70
     1
102
RTVSPropertyOp24
 70
     1
102
RTVSPropertyOp25
 70
     1
102
RTVSPropertyOp26
 70
     1
102
RTVSPropertyOp27
 70
     1
  0
XRECORD
  5
EF
102
{ACAD_REACTORS
330
EE
102
}
330
EE
100
AcDbXrecord
280
     1
102
RTVSPropertyOp0
 70
     1
102
RTVSPropertyOp1
 70
     1
102
RTVSPropertyOp2
 70
     1
102
RTVSPropertyOp3
 70
     1
102
RTVSPropertyOp4
 70
     1
102
RTVSPropertyOp5
 70
     1
102
RTVSPropertyOp6
 70
     1
102
RTVSPropertyOp7
 70
     1
102
RTVSPropertyOp8
 70
     1
102
RTVSPropertyOp9
 70
     1
102
RTVSPropertyOp10
 70
     1
102
RTVSPropertyOp11
 70
     1
102
RTVSPropertyOp12
 70
     1
102
RTVSPropertyOp13
 70
     1
102
RTVSPropertyOp14
 70
     1
102
RTVSPropertyOp15
 70
     1
102
RTVSPropertyOp16
 70
     1
102
RTVSPropertyOp17
 70
     1
102
RTVSPropertyOp18
 70
     1
102
RTVSPropertyOp19
 70
     1
102
RTVSPropertyOp20
 70
     1
102
RTVSPropertyOp21
 70
     1
102
RTVSPropertyOp22
 70
     1
102
RTVSPropertyOp23
 70
     1
102
RTVSPropertyOp24
 70
     1
102
RTVSPropertyOp25
 70
     1
102
RTVSPropertyOp26
 70
     1
102
RTVSPropertyOp27
 70
     1
  0
XRECORD
  5
F7
102
{ACAD_REACTORS
330
F6
102
}
330
F6
100
AcDbXrecord
280
     1
102
RTVSPropertyOp0
 70
     1
102
RTVSPropertyOp1
 70
     1
102
RTVSPropertyOp2
 70
     1
102
RTVSPropertyOp3
 70
     1
102
RTVSPropertyOp4
 70
     1
102
RTVSPropertyOp5
 70
     1
102
RTVSPropertyOp6
 70
     1
102
RTVSPropertyOp7
 70
     1
102
RTVSPropertyOp8
 70
     1
102
RTVSPropertyOp9
 70
     1
102
RTVSPropertyOp10
 70
     1
102
RTVSPropertyOp11
 70
     1
102
RTVSPropertyOp12
 70
     1
102
RTVSPropertyOp13
 70
     1
102
RTVSPropertyOp14
 70
     1
102
RTVSPropertyOp15
 70
     1
102
RTVSPropertyOp16
 70
     1
102
RTVSPropertyOp17
 70
     1
102
RTVSPropertyOp18
 70
     1
102
RTVSPropertyOp19
 70
     1
102
RTVSPropertyOp20
 70
     1
102
RTVSPropertyOp21
 70
     1
102
RTVSPropertyOp22
 70
     1
102
RTVSPropertyOp23
 70
     1
102
RTVSPropertyOp24
 70
     1
102
RTVSPropertyOp25
 70
     1
102
RTVSPropertyOp26
 70
     1
102
RTVSPropertyOp27
 70
     1
  0
XRECORD
  5
DB
102
{ACAD_REACTORS
330
DA
102
}
330
DA
100
AcDbXrecord
280
     1
102
RTVSPropertyOp0
 70
     1
102
RTVSPropertyOp1
 70
     1
102
RTVSPropertyOp2
 70
     1
102
RTVSPropertyOp3
 70
     1
102
RTVSPropertyOp4
 70
     1
102
RTVSPropertyOp5
 70
     1
102
RTVSPropertyOp6
 70
     1
102
RTVSPropertyOp7
 70
     1
102
RTVSPropertyOp8
 70
     1
102
RTVSPropertyOp9
 70
     1
102
RTVSPropertyOp10
 70
     1
102
RTVSPropertyOp11
 70
     1
102
RTVSPropertyOp12
 70
     1
102
RTVSPropertyOp13
 70
     1
102
RTVSPropertyOp14
 70
     1
102
RTVSPropertyOp15
 70
     1
102
RTVSPropertyOp16
 70
     1
102
RTVSPropertyOp17
 70
     1
102
RTVSPropertyOp18
 70
     1
102
RTVSPropertyOp19
 70
     1
102
RTVSPropertyOp20
 70
     1
102
RTVSPropertyOp21
 70
     1
102
RTVSPropertyOp22
 70
     1
102
RTVSPropertyOp23
 70
     1
102
RTVSPropertyOp24
 70
     1
102
RTVSPropertyOp25
 70
     1
102
RTVSPropertyOp26
 70
     1
102
RTVSPropertyOp27
 70
     1
  0
XRECORD
  5
DD
102
{ACAD_REACTORS
330
DC
102
}
330
DC
100
AcDbXrecord
280
     1
102
RTVSPropertyOp0
 70
     1
102
RTVSPropertyOp1
 70
     1
102
RTVSPropertyOp2
 70
     1
102
RTVSPropertyOp3
 70
     1
102
RTVSPropertyOp4
 70
     1
102
RTVSPropertyOp5
 70
     1
102
RTVSPropertyOp6
 70
     1
102
RTVSPropertyOp7
 70
     1
102
RTVSPropertyOp8
 70
     1
102
RTVSPropertyOp9
 70
     1
102
RTVSPropertyOp10
 70
     1
102
RTVSPropertyOp11
 70
     1
102
RTVSPropertyOp12
 70
     1
102
RTVSPropertyOp13
 70
     1
102
RTVSPropertyOp14
 70
     1
102
RTVSPropertyOp15
 70
     1
102
RTVSPropertyOp16
 70
     1
102
RTVSPropertyOp17
 70
     1
102
RTVSPropertyOp18
 70
     1
102
RTVSPropertyOp19
 70
     1
102
RTVSPropertyOp20
 70
     1
102
RTVSPropertyOp21
 70
     1
102
RTVSPropertyOp22
 70
     1
102
RTVSPropertyOp23
 70
     1
102
RTVSPropertyOp24
 70
     1
102
RTVSPropertyOp25
 70
     1
102
RTVSPropertyOp26
 70
     1
102
RTVSPropertyOp27
 70
     1
  0
XRECORD
  5
DF
102
{ACAD_REACTORS
330
DE
102
}
330
DE
100
AcDbXrecord
280
     1
102
RTVSPropertyOp0
 70
     1
102
RTVSPropertyOp1
 70
     1
102
RTVSPropertyOp2
 70
     1
102
RTVSPropertyOp3
 70
     1
102
RTVSPropertyOp4
 70
     1
102
RTVSPropertyOp5
 70
     1
102
RTVSPropertyOp6
 70
     1
102
RTVSPropertyOp7
 70
     1
102
RTVSPropertyOp8
 70
     1
102
RTVSPropertyOp9
 70
     1
102
RTVSPropertyOp10
 70
     1
102
RTVSPropertyOp11
 70
     1
102
RTVSPropertyOp12
 70
     1
102
RTVSPropertyOp13
 70
     1
102
RTVSPropertyOp14
 70
     1
102
RTVSPropertyOp15
 70
     1
102
RTVSPropertyOp16
 70
     1
102
RTVSPropertyOp17
 70
     1
102
RTVSPropertyOp18
 70
     1
102
RTVSPropertyOp19
 70
     1
102
RTVSPropertyOp20
 70
     1
102
RTVSPropertyOp21
 70
     1
102
RTVSPropertyOp22
 70
     1
102
RTVSPropertyOp23
 70
     1
102
RTVSPropertyOp24
 70
     1
102
RTVSPropertyOp25
 70
     1
102
RTVSPropertyOp26
 70
     1
102
RTVSPropertyOp27
 70
     1
  0
XRECORD
  5
E1
102
{ACAD_REACTORS
330
E0
102
}
330
E0
100
AcDbXrecord
280
     1
102
RTVSPropertyOp0
 70
     1
102
RTVSPropertyOp1
 70
     1
102
RTVSPropertyOp2
 70
     1
102
RTVSPropertyOp3
 70
     1
102
RTVSPropertyOp4
 70
     1
102
RTVSPropertyOp5
 70
     1
102
RTVSPropertyOp6
 70
     1
102
RTVSPropertyOp7
 70
     1
102
RTVSPropertyOp8
 70
     1
102
RTVSPropertyOp9
 70
     1
102
RTVSPropertyOp10
 70
     1
102
RTVSPropertyOp11
 70
     1
102
RTVSPropertyOp12
 70
     1
102
RTVSPropertyOp13
 70
     1
102
RTVSPropertyOp14
 70
     1
102
RTVSPropertyOp15
 70
     1
102
RTVSPropertyOp16
 70
     1
102
RTVSPropertyOp17
 70
     1
102
RTVSPropertyOp18
 70
     1
102
RTVSPropertyOp19
 70
     1
102
RTVSPropertyOp20
 70
     1
102
RTVSPropertyOp21
 70
     1
102
RTVSPropertyOp22
 70
     1
102
RTVSPropertyOp23
 70
     1
102
RTVSPropertyOp24
 70
     1
102
RTVSPropertyOp25
 70
     1
102
RTVSPropertyOp26
 70
     1
102
RTVSPropertyOp27
 70
     1
  0
XRECORD
  5
F5
102
{ACAD_REACTORS
330
F4
102
}
330
F4
100
AcDbXrecord
280
     1
102
RTVSPropertyOp0
 70
     1
102
RTVSPropertyOp1
 70
     1
102
RTVSPropertyOp2
 70
     1
102
RTVSPropertyOp3
 70
     1
102
RTVSPropertyOp4
 70
     1
102
RTVSPropertyOp5
 70
     1
102
RTVSPropertyOp6
 70
     1
102
RTVSPropertyOp7
 70
     1
102
RTVSPropertyOp8
 70
     1
102
RTVSPropertyOp9
 70
     1
102
RTVSPropertyOp10
 70
     1
102
RTVSPropertyOp11
 70
     1
102
RTVSPropertyOp12
 70
     1
102
RTVSPropertyOp13
 70
     1
102
RTVSPropertyOp14
 70
     1
102
RTVSPropertyOp15
 70
     1
102
RTVSPropertyOp16
 70
     1
102
RTVSPropertyOp17
 70
     1
102
RTVSPropertyOp18
 70
     1
102
RTVSPropertyOp19
 70
     1
102
RTVSPropertyOp20
 70
     1
102
RTVSPropertyOp21
 70
     1
102
RTVSPropertyOp22
 70
     1
102
RTVSPropertyOp23
 70
     1
102
RTVSPropertyOp24
 70
     1
102
RTVSPropertyOp25
 70
     1
102
RTVSPropertyOp26
 70
     1
102
RTVSPropertyOp27
 70
     1
  0
XRECORD
  5
EB
102
{ACAD_REACTORS
330
EA
102
}
330
EA
100
AcDbXrecord
280
     1
102
RTVSPropertyOp0
 70
     1
102
RTVSPropertyOp1
 70
     1
102
RTVSPropertyOp2
 70
     1
102
RTVSPropertyOp3
 70
     1
102
RTVSPropertyOp4
 70
     1
102
RTVSPropertyOp5
 70
     1
102
RTVSPropertyOp6
 70
     1
102
RTVSPropertyOp7
 70
     1
102
RTVSPropertyOp8
 70
     1
102
RTVSPropertyOp9
 70
     1
102
RTVSPropertyOp10
 70
     1
102
RTVSPropertyOp11
 70
     1
102
RTVSPropertyOp12
 70
     1
102
RTVSPropertyOp13
 70
     1
102
RTVSPropertyOp14
 70
     1
102
RTVSPropertyOp15
 70
     1
102
RTVSPropertyOp16
 70
     1
102
RTVSPropertyOp17
 70
     1
102
RTVSPropertyOp18
 70
     1
102
RTVSPropertyOp19
 70
     1
102
RTVSPropertyOp20
 70
     1
102
RTVSPropertyOp21
 70
     1
102
RTVSPropertyOp22
 70
     1
102
RTVSPropertyOp23
 70
     1
102
RTVSPropertyOp24
 70
     1
102
RTVSPropertyOp25
 70
     1
102
RTVSPropertyOp26
 70
     1
102
RTVSPropertyOp27
 70
     1
  0
XRECORD
  5
F3
102
{ACAD_REACTORS
330
F2
102
}
330
F2
100
AcDbXrecord
280
     1
102
RTVSPropertyOp0
 70
     1
102
RTVSPropertyOp1
 70
     1
102
RTVSPropertyOp2
 70
     1
102
RTVSPropertyOp3
 70
     1
102
RTVSPropertyOp4
 70
     1
102
RTVSPropertyOp5
 70
     1
102
RTVSPropertyOp6
 70
     1
102
RTVSPropertyOp7
 70
     1
102
RTVSPropertyOp8
 70
     1
102
RTVSPropertyOp9
 70
     1
102
RTVSPropertyOp10
 70
     1
102
RTVSPropertyOp11
 70
     1
102
RTVSPropertyOp12
 70
     1
102
RTVSPropertyOp13
 70
     1
102
RTVSPropertyOp14
 70
     1
102
RTVSPropertyOp15
 70
     1
102
RTVSPropertyOp16
 70
     1
102
RTVSPropertyOp17
 70
     1
102
RTVSPropertyOp18
 70
     1
102
RTVSPropertyOp19
 70
     1
102
RTVSPropertyOp20
 70
     1
102
RTVSPropertyOp21
 70
     1
102
RTVSPropertyOp22
 70
     1
102
RTVSPropertyOp23
 70
     1
102
RTVSPropertyOp24
 70
     1
102
RTVSPropertyOp25
 70
     1
102
RTVSPropertyOp26
 70
     1
102
RTVSPropertyOp27
 70
     1
  0
ENDSEC
  0
EOF
