  0
SECTION
  2
HEADER
  9
$ACADVER
  1
AC1014
  9
$ACADMAINTVER
 70
     9
  9
$DWGCODEPAGE
  3
ANSI_1250
  9
$INSBASE
 10
0.0
 20
0.0
 30
0.0
  9
$EXTMIN
 10
-35.0666
 20
-53.7535
 30
0.0
  9
$EXTMAX
 10
35.0667
 20
53.7533
 30
0.0
  9
$LIMMIN
 10
0.0
 20
0.0
  9
$LIMMAX
 10
12.0
 20
9.0
  9
$ORTHOMODE
 70
     0
  9
$REGENMODE
 70
     1
  9
$FILLMODE
 70
     1
  9
$QTEXTMODE
 70
     0
  9
$MIRRTEXT
 70
     1
  9
$DRAGMODE
 70
     2
  9
$LTSCALE
 40
1.0
  9
$OSMODE
 70
    37
  9
$ATTMODE
 70
     1
  9
$TEXTSIZE
 40
0.2
  9
$TRACEWID
 40
0.05
  9
$TEXTSTYLE
  7
STANDARD
  9
$CLAYER
  8
0
  9
$CELTYPE
  6
BYLAYER
  9
$CECOLOR
 62
   256
  9
$CELTSCALE
 40
1.0
  9
$DELOBJ
 70
     1
  9
$DISPSILH
 70
     0
  9
$DIMSCALE
 40
1.0
  9
$DIMASZ
 40
0.18
  9
$DIMEXO
 40
0.0625
  9
$DIMDLI
 40
0.38
  9
$DIMRND
 40
0.0
  9
$DIMDLE
 40
0.0
  9
$DIMEXE
 40
0.18
  9
$DIMTP
 40
0.0
  9
$DIMTM
 40
0.0
  9
$DIMTXT
 40
0.18
  9
$DIMCEN
 40
0.09
  9
$DIMTSZ
 40
0.0
  9
$DIMTOL
 70
     0
  9
$DIMLIM
 70
     0
  9
$DIMTIH
 70
     1
  9
$DIMTOH
 70
     1
  9
$DIMSE1
 70
     0
  9
$DIMSE2
 70
     0
  9
$DIMTAD
 70
     0
  9
$DIMZIN
 70
     0
  9
$DIMBLK
  1

  9
$DIMASO
 70
     1
  9
$DIMSHO
 70
     1
  9
$DIMPOST
  1

  9
$DIMAPOST
  1

  9
$DIMALT
 70
     0
  9
$DIMALTD
 70
     2
  9
$DIMALTF
 40
25.4
  9
$DIMLFAC
 40
1.0
  9
$DIMTOFL
 70
     0
  9
$DIMTVP
 40
0.0
  9
$DIMTIX
 70
     0
  9
$DIMSOXD
 70
     0
  9
$DIMSAH
 70
     0
  9
$DIMBLK1
  1

  9
$DIMBLK2
  1

  9
$DIMSTYLE
  2
STANDARD
  9
$DIMCLRD
 70
     0
  9
$DIMCLRE
 70
     0
  9
$DIMCLRT
 70
     0
  9
$DIMTFAC
 40
1.0
  9
$DIMGAP
 40
0.09
  9
$DIMJUST
 70
     0
  9
$DIMSD1
 70
     0
  9
$DIMSD2
 70
     0
  9
$DIMTOLJ
 70
     1
  9
$DIMTZIN
 70
     0
  9
$DIMALTZ
 70
     0
  9
$DIMALTTZ
 70
     0
  9
$DIMFIT
 70
     3
  9
$DIMUPT
 70
     0
  9
$DIMUNIT
 70
     2
  9
$DIMDEC
 70
     4
  9
$DIMTDEC
 70
     4
  9
$DIMALTU
 70
     2
  9
$DIMALTTD
 70
     2
  9
$DIMTXSTY
  7
STANDARD
  9
$DIMAUNIT
 70
     0
  9
$LUNITS
 70
     2
  9
$LUPREC
 70
     4
  9
$SKETCHINC
 40
0.1
  9
$FILLETRAD
 40
0.5
  9
$AUNITS
 70
     0
  9
$AUPREC
 70
     0
  9
$MENU
  1
.
  9
$ELEVATION
 40
0.0
  9
$PELEVATION
 40
0.0
  9
$THICKNESS
 40
0.0
  9
$LIMCHECK
 70
     0
  9
$CHAMFERA
 40
0.5
  9
$CHAMFERB
 40
0.5
  9
$CHAMFERC
 40
1.0
  9
$CHAMFERD
 40
0.0
  9
$SKPOLY
 70
     0
  9
$TDCREATE
 40
2456272.404417616
  9
$TDUPDATE
 40
2456272.404417627
  9
$TDINDWG
 40
0.0000000116
  9
$TDUSRTIMER
 40
0.0000000116
  9
$USRTIMER
 70
     1
  9
$ANGBASE
 50
0.0
  9
$ANGDIR
 70
     0
  9
$PDMODE
 70
     0
  9
$PDSIZE
 40
0.0
  9
$PLINEWID
 40
0.0
  9
$COORDS
 70
     1
  9
$SPLFRAME
 70
     0
  9
$SPLINETYPE
 70
     6
  9
$SPLINESEGS
 70
     8
  9
$ATTDIA
 70
     0
  9
$ATTREQ
 70
     1
  9
$HANDLING
 70
     1
  9
$HANDSEED
  5
FD
  9
$SURFTAB1
 70
     6
  9
$SURFTAB2
 70
     6
  9
$SURFTYPE
 70
     6
  9
$SURFU
 70
     6
  9
$SURFV
 70
     6
  9
$UCSNAME
  2

  9
$UCSORG
 10
0.0
 20
0.0
 30
0.0
  9
$UCSXDIR
 10
1.0
 20
0.0
 30
0.0
  9
$UCSYDIR
 10
0.0
 20
1.0
 30
0.0
  9
$PUCSNAME
  2

  9
$PUCSORG
 10
0.0
 20
0.0
 30
0.0
  9
$PUCSXDIR
 10
1.0
 20
0.0
 30
0.0
  9
$PUCSYDIR
 10
0.0
 20
1.0
 30
0.0
  9
$USERI1
 70
     0
  9
$USERI2
 70
     0
  9
$USERI3
 70
     0
  9
$USERI4
 70
     0
  9
$USERI5
 70
     0
  9
$USERR1
 40
0.0
  9
$USERR2
 40
0.0
  9
$USERR3
 40
0.0
  9
$USERR4
 40
0.0
  9
$USERR5
 40
0.0
  9
$WORLDVIEW
 70
     1
  9
$SHADEDGE
 70
     3
  9
$SHADEDIF
 70
    70
  9
$TILEMODE
 70
     1
  9
$MAXACTVP
 70
    64
  9
$PINSBASE
 10
0.0
 20
0.0
 30
0.0
  9
$PLIMCHECK
 70
     0
  9
$PEXTMIN
 10
1.000000000000000E+20
 20
1.000000000000000E+20
 30
1.000000000000000E+20
  9
$PEXTMAX
 10
-1.000000000000000E+20
 20
-1.000000000000000E+20
 30
-1.000000000000000E+20
  9
$PLIMMIN
 10
0.0
 20
0.0
  9
$PLIMMAX
 10
12.0
 20
9.0
  9
$UNITMODE
 70
     0
  9
$VISRETAIN
 70
     1
  9
$PLINEGEN
 70
     0
  9
$PSLTSCALE
 70
     1
  9
$TREEDEPTH
 70
  3020
  9
$PICKSTYLE
 70
     1
  9
$CMLSTYLE
  2
STANDARD
  9
$CMLJUST
 70
     0
  9
$CMLSCALE
 40
1.0
  9
$PROXYGRAPHICS
 70
     1
  9
$MEASUREMENT
 70
     0
  0
ENDSEC
  0
SECTION
  2
CLASSES
  0
CLASS
  1
ACDBDICTIONARYWDFLT
  2
AcDbDictionaryWithDefault
  3
ObjectDBX Classes
 90
        0
280
     0
281
     0
  0
CLASS
  1
VISUALSTYLE
  2
AcDbVisualStyle
  3
ObjectDBX Classes
 90
     4095
280
     0
281
     0
  0
CLASS
  1
MATERIAL
  2
AcDbMaterial
  3
ObjectDBX Classes
 90
     1153
280
     0
281
     0
  0
CLASS
  1
DICTIONARYVAR
  2
AcDbDictionaryVar
  3
ObjectDBX Classes
 90
        0
280
     0
281
     0
  0
CLASS
  1
XRECORD
  2
AcDbXrecord
  3
AutoCAD 2000
 90
        0
280
     0
281
     0
  0
CLASS
  1
LWPOLYLINE
  2
AcDbPolyline
  3
AutoCAD 2000
 90
        0
280
     0
281
     1
  0
CLASS
  1
HATCH
  2
AcDbHatch
  3
AutoCAD 2000
 90
        0
280
     0
281
     1
  0
CLASS
  1
ACDBPLACEHOLDER
  2
AcDbPlaceHolder
  3
ObjectDBX Classes
 90
        0
280
     0
281
     0
  0
CLASS
  1
LAYOUT
  2
AcDbLayout
  3
ObjectDBX Classes
 90
        0
280
     0
281
     0
  0
ENDSEC
  0
SECTION
  2
TABLES
  0
TABLE
  2
VPORT
  5
8
330
0
100
AcDbSymbolTable
 70
     1
  0
VPORT
  5
29
330
8
100
AcDbSymbolTableRecord
100
AcDbViewportTableRecord
  2
*ACTIVE
 70
     0
 10
0.0
 20
0.0
 11
1.0
 21
1.0
 12
10.42990654205607
 22
4.5
 13
0.0
 23
0.0
 14
0.5
 24
0.5
 15
0.5
 25
0.5
 16
0.0
 26
0.0
 36
1.0
 17
0.0
 27
0.0
 37
0.0
 40
9.0
 41
1.972972972850329
 42
50.0
 43
0.0
 44
0.0
 50
0.0
 51
0.0
 71
     0
 72
   100
 73
     1
 74
     3
 75
     0
 76
     0
 77
     0
 78
     0
  0
ENDTAB
  0
TABLE
  2
LTYPE
  5
5
330
0
100
AcDbSymbolTable
 70
     3
  0
LTYPE
  5
14
330
5
100
AcDbSymbolTableRecord
100
AcDbLinetypeTableRecord
  2
BYBLOCK
 70
     0
  3

 72
    65
 73
     0
 40
0.0
  0
LTYPE
  5
15
330
5
100
AcDbSymbolTableRecord
100
AcDbLinetypeTableRecord
  2
BYLAYER
 70
     0
  3

 72
    65
 73
     0
 40
0.0
  0
LTYPE
  5
16
330
5
100
AcDbSymbolTableRecord
100
AcDbLinetypeTableRecord
  2
CONTINUOUS
 70
     0
  3
Solid line
 72
    65
 73
     0
 40
0.0
  0
LTYPE
  5
C4
330
5
100
AcDbSymbolTableRecord
100
AcDbLinetypeTableRecord
  2
NEW_LINE1
 70
     0
  3

 72
    65
 73
     4
 40
1.2
 49
0.5
 74
     4
 75
     0
340
0
 46
1.0
 50
0.0
 44
0.0
 45
0.0
 49
-0.3
 74
     4
 75
     0
340
0
 46
1.0
 50
0.0
 44
0.0
 45
0.0
 49
0.1
 74
     4
 75
     0
340
0
 46
1.0
 50
0.0
 44
0.0
 45
0.0
 49
-0.3
 74
     4
 75
     0
340
0
 46
1.0
 50
0.0
 44
0.0
 45
0.0
  0
LTYPE
  5
C8
330
5
100
AcDbSymbolTableRecord
100
AcDbLinetypeTableRecord
  2
NEW_LINE2
 70
     0
  3

 72
    65
 73
     4
 40
1.2
 49
0.5
 74
     4
 75
     0
340
0
 46
1.0
 50
0.0
 44
0.0
 45
0.0
 49
-0.3
 74
     4
 75
     0
340
0
 46
1.0
 50
0.0
 44
0.0
 45
0.0
 49
0.1
 74
     4
 75
     0
340
0
 46
1.0
 50
0.0
 44
0.0
 45
0.0
 49
-0.3
 74
     4
 75
     0
340
0
 46
1.0
 50
0.0
 44
0.0
 45
0.0
  0
ENDTAB
  0
TABLE
  2
LAYER
  5
2
330
0
100
AcDbSymbolTable
 70
     2
  0
LAYER
  5
10
330
2
100
AcDbSymbolTableRecord
100
AcDbLayerTableRecord
  2
0
 70
     0
 62
     7
  6
CONTINUOUS
  0
LAYER
  5
40
330
2
100
AcDbSymbolTableRecord
100
AcDbLayerTableRecord
  2
DEFAULT_1
 70
     0
 62
     7
  6
CONTINUOUS
  0
ENDTAB
  0
TABLE
  2
STYLE
  5
3
330
0
100
AcDbSymbolTable
 70
     1
  0
STYLE
  5
11
330
3
100
AcDbSymbolTableRecord
100
AcDbTextStyleTableRecord
  2
STANDARD
 70
     0
 40
0.0
 41
1.0
 50
0.0
 71
     0
 42
0.2
  3
txt
  4

  0
ENDTAB
  0
TABLE
  2
VIEW
  5
6
330
0
100
AcDbSymbolTable
 70
     0
  0
ENDTAB
  0
TABLE
  2
UCS
  5
7
330
0
100
AcDbSymbolTable
 70
     0
  0
ENDTAB
  0
TABLE
  2
APPID
  5
9
330
0
100
AcDbSymbolTable
 70
     2
  0
APPID
  5
12
330
9
100
AcDbSymbolTableRecord
100
AcDbRegAppTableRecord
  2
ACAD
 70
     0
  0
APPID
  5
3F
330
9
100
AcDbSymbolTableRecord
100
AcDbRegAppTableRecord
  2
ODA
 70
     0
  0
ENDTAB
  0
TABLE
  2
DIMSTYLE
  5
A
330
0
100
AcDbSymbolTable
 70
     1
  0
DIMSTYLE
105
27
330
A
100
AcDbSymbolTableRecord
100
AcDbDimStyleTableRecord
  2
STANDARD
 70
     0
  3

  4

  5

  6

  7

 40
1.0
 41
0.18
 42
0.0625
 43
0.38
 44
0.18
 45
0.0
 46
0.0
 47
0.0
 48
0.0
140
0.18
141
0.09
142
0.0
143
25.4
144
1.0
145
0.0
146
1.0
147
0.09
 71
     0
 72
     0
 73
     1
 74
     1
 75
     0
 76
     0
 77
     0
 78
     0
170
     0
171
     2
172
     0
173
     0
174
     0
175
     0
176
     0
177
     0
178
     0
270
     2
271
     4
272
     4
273
     2
274
     2
340
11
275
     0
280
     0
281
     0
282
     0
283
     1
284
     0
285
     0
286
     0
287
     3
288
     0
  0
ENDTAB
  0
TABLE
  2
BLOCK_RECORD
  5
1
330
0
100
AcDbSymbolTable
 70
     1
  0
BLOCK_RECORD
  5
1F
330
1
100
AcDbSymbolTableRecord
100
AcDbBlockTableRecord
  2
*MODEL_SPACE
  0
BLOCK_RECORD
  5
1B
330
1
100
AcDbSymbolTableRecord
100
AcDbBlockTableRecord
  2
*PAPER_SPACE
  0
ENDTAB
  0
ENDSEC
  0
SECTION
  2
BLOCKS
  0
BLOCK
  5
20
330
1F
100
AcDbEntity
  8
0
100
AcDbBlockBegin
  2
*MODEL_SPACE
 70
     0
 10
0.0
 20
0.0
 30
0.0
  3
*MODEL_SPACE
  1

  0
ENDBLK
  5
21
330
1F
100
AcDbEntity
  8
0
100
AcDbBlockEnd
  0
BLOCK
  5
1C
330
1B
100
AcDbEntity
 67
     1
  8
0
100
AcDbBlockBegin
  2
*PAPER_SPACE
 70
     0
 10
0.0
 20
0.0
 30
0.0
  3
*PAPER_SPACE
  1

  0
ENDBLK
  5
1D
330
1B
100
AcDbEntity
 67
     1
  8
0
100
AcDbBlockEnd
  0
ENDSEC
  0
SECTION
  2
ENTITIES
  0
SPLINE
  5
41
330
1F
100
AcDbEntity
  8
DEFAULT_1
 62
   250
100
AcDbSpline
210
0.0
220
0.0
230
1.0
 70
    11
 71
     3
 72
    20
 73
    16
 74
     0
 42
0.0000000001
 43
0.0000000001
 40
0.0
 40
0.0
 40
0.0
 40
0.0
 40
0.2
 40
0.2
 40
0.2
 40
0.2
 40
0.4
 40
0.4
 40
0.4
 40
0.4
 40
0.6
 40
0.6
 40
0.6
 40
0.6
 40
1.0
 40
1.0
 40
1.0
 40
1.0
 10
19.9354
 20
-52.1386
 30
0.0
 10
19.9354
 20
-52.1386
 30
0.0
 10
23.8242
 20
-52.6874
 30
0.0
 10
23.8242
 20
-52.6874
 30
0.0
 10
23.8242
 20
-52.6874
 30
0.0
 10
23.8242
 20
-52.6874
 30
0.0
 10
23.8242
 20
-52.8093
 30
0.0
 10
23.8242
 20
-52.8093
 30
0.0
 10
23.8242
 20
-52.8093
 30
0.0
 10
23.8242
 20
-52.8093
 30
0.0
 10
19.9354
 20
-53.3946
 30
0.0
 10
19.9354
 20
-53.3946
 30
0.0
 10
19.9354
 20
-53.3946
 30
0.0
 10
19.9354
 20
-53.3946
 30
0.0
 10
19.9354
 20
-52.1386
 30
0.0
 10
19.9354
 20
-52.1386
 30
0.0
  0
SPLINE
  5
42
330
1F
100
AcDbEntity
  8
DEFAULT_1
 62
   250
100
AcDbSpline
210
0.0
220
0.0
230
1.0
 70
    11
 71
     3
 72
    20
 73
    16
 74
     0
 42
0.0000000001
 43
0.0000000001
 40
0.0
 40
0.0
 40
0.0
 40
0.0
 40
0.2
 40
0.2
 40
0.2
 40
0.2
 40
0.4
 40
0.4
 40
0.4
 40
0.4
 40
0.6
 40
0.6
 40
0.6
 40
0.6
 40
1.0
 40
1.0
 40
1.0
 40
1.0
 10
-5.9401
 20
-53.355
 30
0.0
 10
-5.9401
 20
-53.355
 30
0.0
 10
-9.8288
 20
-52.8062
 30
0.0
 10
-9.8288
 20
-52.8062
 30
0.0
 10
-9.8288
 20
-52.8062
 30
0.0
 10
-9.8288
 20
-52.8062
 30
0.0
 10
-9.8288
 20
-52.6843
 30
0.0
 10
-9.8288
 20
-52.6843
 30
0.0
 10
-9.8288
 20
-52.6843
 30
0.0
 10
-9.8288
 20
-52.6843
 30
0.0
 10
-5.9401
 20
-52.099
 30
0.0
 10
-5.9401
 20
-52.099
 30
0.0
 10
-5.9401
 20
-52.099
 30
0.0
 10
-5.9401
 20
-52.099
 30
0.0
 10
-5.9401
 20
-53.355
 30
0.0
 10
-5.9401
 20
-53.355
 30
0.0
  0
SPLINE
  5
43
330
1F
100
AcDbEntity
  8
DEFAULT_1
 62
   250
100
AcDbSpline
210
0.0
220
0.0
230
1.0
 70
    11
 71
     3
 72
    84
 73
    80
 74
     0
 42
0.0000000001
 43
0.0000000001
 40
0.0
 40
0.0
 40
0.0
 40
0.0
 40
0.0476190476190476
 40
0.0476190476190476
 40
0.0476190476190476
 40
0.0476190476190476
 40
0.0952380952380952
 40
0.0952380952380952
 40
0.0952380952380952
 40
0.0952380952380952
 40
0.1428571428571428
 40
0.1428571428571428
 40
0.1428571428571428
 40
0.1428571428571428
 40
0.1904761904761905
 40
0.1904761904761905
 40
0.1904761904761905
 40
0.1904761904761905
 40
0.2380952380952381
 40
0.2380952380952381
 40
0.2380952380952381
 40
0.2380952380952381
 40
0.2857142857142857
 40
0.2857142857142857
 40
0.2857142857142857
 40
0.2857142857142857
 40
0.3333333333333333
 40
0.3333333333333333
 40
0.3333333333333333
 40
0.3333333333333333
 40
0.3809523809523809
 40
0.3809523809523809
 40
0.3809523809523809
 40
0.3809523809523809
 40
0.4285714285714285
 40
0.4285714285714285
 40
0.4285714285714285
 40
0.4285714285714285
 40
0.4761904761904762
 40
0.4761904761904762
 40
0.4761904761904762
 40
0.4761904761904762
 40
0.5238095238095238
 40
0.5238095238095238
 40
0.5238095238095238
 40
0.5238095238095238
 40
0.5714285714285714
 40
0.5714285714285714
 40
0.5714285714285714
 40
0.5714285714285714
 40
0.6190476190476191
 40
0.6190476190476191
 40
0.6190476190476191
 40
0.6190476190476191
 40
0.6666666666666666
 40
0.6666666666666666
 40
0.6666666666666666
 40
0.6666666666666666
 40
0.7142857142857143
 40
0.7142857142857143
 40
0.7142857142857143
 40
0.7142857142857143
 40
0.7619047619047619
 40
0.7619047619047619
 40
0.7619047619047619
 40
0.7619047619047619
 40
0.8095238095238095
 40
0.8095238095238095
 40
0.8095238095238095
 40
0.8095238095238095
 40
0.8571428571428571
 40
0.8571428571428571
 40
0.8571428571428571
 40
0.8571428571428571
 40
0.9047619047619048
 40
0.9047619047619048
 40
0.9047619047619048
 40
0.9047619047619048
 40
1.0
 40
1.0
 40
1.0
 40
1.0
 10
-34.6634
 20
15.243
 30
0.0
 10
-34.6634
 20
15.243
 30
0.0
 10
-35.0666
 20
15.603
 30
0.0
 10
-35.0666
 20
15.603
 30
0.0
 10
-35.0666
 20
15.603
 30
0.0
 10
-35.0666
 20
15.603
 30
0.0
 10
-34.8866
 20
15.8152
 30
0.0
 10
-34.8866
 20
15.8152
 30
0.0
 10
-34.8866
 20
15.8152
 30
0.0
 10
-34.8866
 20
15.8152
 30
0.0
 10
-34.4622
 20
15.4384
 30
0.0
 10
-34.4622
 20
15.4384
 30
0.0
 10
-34.4622
 20
15.4384
 30
0.0
 10
-34.2793
 20
15.5613
 30
0.0
 10
-34.1191
 20
15.644
 30
0.0
 10
-33.9823
 20
15.6871
 30
0.0
 10
-33.9823
 20
15.6871
 30
0.0
 10
-33.8023
 20
15.7442
 30
0.0
 10
-33.6004
 20
15.7727
 30
0.0
 10
-33.378
 20
15.7727
 30
0.0
 10
-33.378
 20
15.7727
 30
0.0
 10
-33.056
 20
15.7727
 30
0.0
 10
-32.7692
 20
15.7076
 30
0.0
 10
-32.5183
 20
15.5774
 30
0.0
 10
-32.5183
 20
15.5774
 30
0.0
 10
-32.2666
 20
15.4472
 30
0.0
 10
-32.0764
 20
15.265
 30
0.0
 10
-31.9476
 20
15.0301
 30
0.0
 10
-31.9476
 20
15.0301
 30
0.0
 10
-31.8196
 20
14.7946
 30
0.0
 10
-31.7552
 20
14.5451
 30
0.0
 10
-31.7552
 20
14.2809
 30
0.0
 10
-31.7552
 20
14.2809
 30
0.0
 10
-31.7552
 20
14.0834
 30
0.0
 10
-31.783
 20
13.9049
 30
0.0
 10
-31.8386
 20
13.7447
 30
0.0
 10
-31.8386
 20
13.7447
 30
0.0
 10
-31.8818
 20
13.6217
 30
0.0
 10
-31.9637
 20
13.4783
 30
0.0
 10
-32.0852
 20
13.3137
 30
0.0
 10
-32.0852
 20
13.3137
 30
0.0
 10
-32.0852
 20
13.3137
 30
0.0
 10
-31.682
 20
12.9538
 30
0.0
 10
-31.682
 20
12.9538
 30
0.0
 10
-31.682
 20
12.9538
 30
0.0
 10
-31.682
 20
12.9538
 30
0.0
 10
-31.862
 20
12.7416
 30
0.0
 10
-31.862
 20
12.7416
 30
0.0
 10
-31.862
 20
12.7416
 30
0.0
 10
-31.862
 20
12.7416
 30
0.0
 10
-32.2842
 20
13.1191
 30
0.0
 10
-32.2842
 20
13.1191
 30
0.0
 10
-32.2842
 20
13.1191
 30
0.0
 10
-32.4971
 20
12.9786
 30
0.0
 10
-32.6792
 20
12.885
 30
0.0
 10
-32.83
 20
12.8382
 30
0.0
 10
-32.83
 20
12.8382
 30
0.0
 10
-32.9807
 20
12.7913
 30
0.0
 10
-33.1621
 20
12.7672
 30
0.0
 10
-33.3736
 20
12.7672
 30
0.0
 10
-33.3736
 20
12.7672
 30
0.0
 10
-33.6962
 20
12.7672
 30
0.0
 10
-33.9837
 20
12.8316
 30
0.0
 10
-34.2362
 20
12.9603
 30
0.0
 10
-34.2362
 20
12.9603
 30
0.0
 10
-34.4886
 20
13.0891
 30
0.0
 10
-34.6795
 20
13.2691
 30
0.0
 10
-34.8098
 20
13.5018
 30
0.0
 10
-34.8098
 20
13.5018
 30
0.0
 10
-34.9393
 20
13.7337
 30
0.0
 10
-35.0044
 20
13.9919
 30
0.0
 10
-35.0044
 20
14.2766
 30
0.0
 10
-35.0044
 20
14.2766
 30
0.0
 10
-35.0044
 20
14.4682
 30
0.0
 10
-34.9795
 20
14.6358
 30
0.0
 10
-34.9283
 20
14.7792
 30
0.0
 10
-34.9283
 20
14.7792
 30
0.0
 10
-34.8778
 20
14.9226
 30
0.0
 10
-34.7893
 20
15.0777
 30
0.0
 10
-34.6634
 20
15.243
 30
0.0
  0
SPLINE
  5
44
330
1F
100
AcDbEntity
  8
DEFAULT_1
 62
   250
100
AcDbSpline
210
0.0
220
0.0
230
1.0
 70
    11
 71
     3
 72
    32
 73
    28
 74
     0
 42
0.0000000001
 43
0.0000000001
 40
0.0
 40
0.0
 40
0.0
 40
0.0
 40
0.125
 40
0.125
 40
0.125
 40
0.125
 40
0.25
 40
0.25
 40
0.25
 40
0.25
 40
0.375
 40
0.375
 40
0.375
 40
0.375
 40
0.5
 40
0.5
 40
0.5
 40
0.5
 40
0.625
 40
0.625
 40
0.625
 40
0.625
 40
0.75
 40
0.75
 40
0.75
 40
0.75
 40
1.0
 40
1.0
 40
1.0
 40
1.0
 10
-34.3744
 20
14.9862
 30
0.0
 10
-34.4798
 20
14.8516
 30
0.0
 10
-34.5522
 20
14.7338
 30
0.0
 10
-34.591
 20
14.6336
 30
0.0
 10
-34.591
 20
14.6336
 30
0.0
 10
-34.629
 20
14.5326
 30
0.0
 10
-34.6488
 20
14.4141
 30
0.0
 10
-34.6488
 20
14.2787
 30
0.0
 10
-34.6488
 20
14.2787
 30
0.0
 10
-34.6488
 20
13.9656
 30
0.0
 10
-34.5427
 20
13.7073
 30
0.0
 10
-34.3305
 20
13.5025
 30
0.0
 10
-34.3305
 20
13.5025
 30
0.0
 10
-34.1184
 20
13.2984
 30
0.0
 10
-33.8016
 20
13.1959
 30
0.0
 10
-33.3794
 20
13.1959
 30
0.0
 10
-33.3794
 20
13.1959
 30
0.0
 10
-33.2141
 20
13.1959
 30
0.0
 10
-33.067
 20
13.212
 30
0.0
 10
-32.9382
 20
13.2435
 30
0.0
 10
-32.9382
 20
13.2435
 30
0.0
 10
-32.8424
 20
13.2662
 30
0.0
 10
-32.7246
 20
13.3137
 30
0.0
 10
-32.5849
 20
13.3869
 30
0.0
 10
-32.5849
 20
13.3869
 30
0.0
 10
-32.5849
 20
13.3869
 30
0.0
 10
-34.3744
 20
14.9862
 30
0.0
 10
-34.3744
 20
14.9862
 30
0.0
  0
SPLINE
  5
45
330
1F
100
AcDbEntity
  8
DEFAULT_1
 62
   250
100
AcDbSpline
210
0.0
220
0.0
230
1.0
 70
    11
 71
     3
 72
    28
 73
    24
 74
     0
 42
0.0000000001
 43
0.0000000001
 40
0.0
 40
0.0
 40
0.0
 40
0.0
 40
0.1428571428571428
 40
0.1428571428571428
 40
0.1428571428571428
 40
0.1428571428571428
 40
0.2857142857142857
 40
0.2857142857142857
 40
0.2857142857142857
 40
0.2857142857142857
 40
0.4285714285714285
 40
0.4285714285714285
 40
0.4285714285714285
 40
0.4285714285714285
 40
0.5714285714285714
 40
0.5714285714285714
 40
0.5714285714285714
 40
0.5714285714285714
 40
0.7142857142857143
 40
0.7142857142857143
 40
0.7142857142857143
 40
0.7142857142857143
 40
1.0
 40
1.0
 40
1.0
 40
1.0
 10
-34.1535
 20
15.1618
 30
0.0
 10
-34.1535
 20
15.1618
 30
0.0
 10
-32.3705
 20
13.5691
 30
0.0
 10
-32.3705
 20
13.5691
 30
0.0
 10
-32.3705
 20
13.5691
 30
0.0
 10
-32.2805
 20
13.6788
 30
0.0
 10
-32.2176
 20
13.7805
 30
0.0
 10
-32.1817
 20
13.8734
 30
0.0
 10
-32.1817
 20
13.8734
 30
0.0
 10
-32.1342
 20
13.9949
 30
0.0
 10
-32.1108
 20
14.1266
 30
0.0
 10
-32.1108
 20
14.2678
 30
0.0
 10
-32.1108
 20
14.2678
 30
0.0
 10
-32.1108
 20
14.5794
 30
0.0
 10
-32.2205
 20
14.8363
 30
0.0
 10
-32.4407
 20
15.0396
 30
0.0
 10
-32.4407
 20
15.0396
 30
0.0
 10
-32.661
 20
15.2423
 30
0.0
 10
-32.9697
 20
15.344
 30
0.0
 10
-33.367
 20
15.344
 30
0.0
 10
-33.367
 20
15.344
 30
0.0
 10
-33.664
 20
15.344
 30
0.0
 10
-33.9267
 20
15.2833
 30
0.0
 10
-34.1535
 20
15.1618
 30
0.0
  0
SPLINE
  5
46
330
1F
100
AcDbEntity
  8
DEFAULT_1
 62
   250
100
AcDbSpline
210
0.0
220
0.0
230
1.0
 70
    11
 71
     3
 72
    40
 73
    36
 74
     0
 42
0.0000000001
 43
0.0000000001
 40
0.0
 40
0.0
 40
0.0
 40
0.0
 40
0.1
 40
0.1
 40
0.1
 40
0.1
 40
0.2
 40
0.2
 40
0.2
 40
0.2
 40
0.3
 40
0.3
 40
0.3
 40
0.3
 40
0.4
 40
0.4
 40
0.4
 40
0.4
 40
0.5
 40
0.5
 40
0.5
 40
0.5
 40
0.6
 40
0.6
 40
0.6
 40
0.6
 40
0.7
 40
0.7
 40
0.7
 40
0.7
 40
0.8
 40
0.8
 40
0.8
 40
0.8
 40
1.0
 40
1.0
 40
1.0
 40
1.0
 10
-31.8086
 20
17.6135
 30
0.0
 10
-31.8086
 20
17.6135
 30
0.0
 10
-31.8086
 20
17.2279
 30
0.0
 10
-31.8086
 20
17.2279
 30
0.0
 10
-31.8086
 20
17.2279
 30
0.0
 10
-31.8086
 20
17.2279
 30
0.0
 10
-34.2669
 20
17.2279
 30
0.0
 10
-34.2669
 20
17.2279
 30
0.0
 10
-34.2669
 20
17.2279
 30
0.0
 10
-34.1784
 20
17.135
 30
0.0
 10
-34.0898
 20
17.0136
 30
0.0
 10
-34.0013
 20
16.8628
 30
0.0
 10
-34.0013
 20
16.8628
 30
0.0
 10
-33.9128
 20
16.7114
 30
0.0
 10
-33.8462
 20
16.576
 30
0.0
 10
-33.8023
 20
16.4561
 30
0.0
 10
-33.8023
 20
16.4561
 30
0.0
 10
-33.8023
 20
16.4561
 30
0.0
 10
-34.1747
 20
16.4561
 30
0.0
 10
-34.1747
 20
16.4561
 30
0.0
 10
-34.1747
 20
16.4561
 30
0.0
 10
-34.2764
 20
16.6719
 30
0.0
 10
-34.3993
 20
16.8606
 30
0.0
 10
-34.5434
 20
17.0223
 30
0.0
 10
-34.5434
 20
17.0223
 30
0.0
 10
-34.6883
 20
17.1833
 30
0.0
 10
-34.8281
 20
17.2982
 30
0.0
 10
-34.9641
 20
17.3655
 30
0.0
 10
-34.9641
 20
17.3655
 30
0.0
 10
-34.9641
 20
17.3655
 30
0.0
 10
-34.9641
 20
17.6135
 30
0.0
 10
-34.9641
 20
17.6135
 30
0.0
 10
-34.9641
 20
17.6135
 30
0.0
 10
-34.9641
 20
17.6135
 30
0.0
 10
-31.8086
 20
17.6135
 30
0.0
 10
-31.8086
 20
17.6135
 30
0.0
  0
SPLINE
  5
47
330
1F
100
AcDbEntity
  8
DEFAULT_1
 62
   250
100
AcDbSpline
210
0.0
220
0.0
230
1.0
 70
    11
 71
     3
 72
   124
 73
   120
 74
     0
 42
0.0000000001
 43
0.0000000001
 40
0.0
 40
0.0
 40
0.0
 40
0.0
 40
0.032258064516129
 40
0.032258064516129
 40
0.032258064516129
 40
0.032258064516129
 40
0.0645161290322581
 40
0.0645161290322581
 40
0.0645161290322581
 40
0.0645161290322581
 40
0.0967741935483871
 40
0.0967741935483871
 40
0.0967741935483871
 40
0.0967741935483871
 40
0.1290322580645161
 40
0.1290322580645161
 40
0.1290322580645161
 40
0.1290322580645161
 40
0.1612903225806452
 40
0.1612903225806452
 40
0.1612903225806452
 40
0.1612903225806452
 40
0.1935483870967742
 40
0.1935483870967742
 40
0.1935483870967742
 40
0.1935483870967742
 40
0.2258064516129032
 40
0.2258064516129032
 40
0.2258064516129032
 40
0.2258064516129032
 40
0.2580645161290323
 40
0.2580645161290323
 40
0.2580645161290323
 40
0.2580645161290323
 40
0.2903225806451613
 40
0.2903225806451613
 40
0.2903225806451613
 40
0.2903225806451613
 40
0.3225806451612903
 40
0.3225806451612903
 40
0.3225806451612903
 40
0.3225806451612903
 40
0.3548387096774194
 40
0.3548387096774194
 40
0.3548387096774194
 40
0.3548387096774194
 40
0.3870967741935484
 40
0.3870967741935484
 40
0.3870967741935484
 40
0.3870967741935484
 40
0.4193548387096774
 40
0.4193548387096774
 40
0.4193548387096774
 40
0.4193548387096774
 40
0.4516129032258064
 40
0.4516129032258064
 40
0.4516129032258064
 40
0.4516129032258064
 40
0.4838709677419355
 40
0.4838709677419355
 40
0.4838709677419355
 40
0.4838709677419355
 40
0.5161290322580645
 40
0.5161290322580645
 40
0.5161290322580645
 40
0.5161290322580645
 40
0.5483870967741935
 40
0.5483870967741935
 40
0.5483870967741935
 40
0.5483870967741935
 40
0.5806451612903226
 40
0.5806451612903226
 40
0.5806451612903226
 40
0.5806451612903226
 40
0.6129032258064516
 40
0.6129032258064516
 40
0.6129032258064516
 40
0.6129032258064516
 40
0.6451612903225806
 40
0.6451612903225806
 40
0.6451612903225806
 40
0.6451612903225806
 40
0.6774193548387096
 40
0.6774193548387096
 40
0.6774193548387096
 40
0.6774193548387096
 40
0.7096774193548387
 40
0.7096774193548387
 40
0.7096774193548387
 40
0.7096774193548387
 40
0.7419354838709677
 40
0.7419354838709677
 40
0.7419354838709677
 40
0.7419354838709677
 40
0.7741935483870968
 40
0.7741935483870968
 40
0.7741935483870968
 40
0.7741935483870968
 40
0.8064516129032258
 40
0.8064516129032258
 40
0.8064516129032258
 40
0.8064516129032258
 40
0.8387096774193549
 40
0.8387096774193549
 40
0.8387096774193549
 40
0.8387096774193549
 40
0.8709677419354839
 40
0.8709677419354839
 40
0.8709677419354839
 40
0.8709677419354839
 40
0.9032258064516129
 40
0.9032258064516129
 40
0.9032258064516129
 40
0.9032258064516129
 40
0.9354838709677419
 40
0.9354838709677419
 40
0.9354838709677419
 40
0.9354838709677419
 40
1.0
 40
1.0
 40
1.0
 40
1.0
 10
-32.6383
 20
18.6042
 30
0.0
 10
-32.6383
 20
18.6042
 30
0.0
 10
-32.6895
 20
18.9897
 30
0.0
 10
-32.6895
 20
18.9897
 30
0.0
 10
-32.6895
 20
18.9897
 30
0.0
 10
-32.4707
 20
19.0344
 30
0.0
 10
-32.3134
 20
19.1097
 30
0.0
 10
-32.2169
 20
19.2158
 30
0.0
 10
-32.2169
 20
19.2158
 30
0.0
 10
-32.1203
 20
19.3226
 30
0.0
 10
-32.072
 20
19.4521
 30
0.0
 10
-32.072
 20
19.605
 30
0.0
 10
-32.072
 20
19.605
 30
0.0
 10
-32.072
 20
19.7865
 30
0.0
 10
-32.1349
 20
19.9401
 30
0.0
 10
-32.2607
 20
20.0652
 30
0.0
 10
-32.2607
 20
20.0652
 30
0.0
 10
-32.3866
 20
20.1896
 30
0.0
 10
-32.5424
 20
20.2525
 30
0.0
 10
-32.7283
 20
20.2525
 30
0.0
 10
-32.7283
 20
20.2525
 30
0.0
 10
-32.9053
 20
20.2525
 30
0.0
 10
-33.0516
 20
20.1947
 30
0.0
 10
-33.1665
 20
20.0791
 30
0.0
 10
-33.1665
 20
20.0791
 30
0.0
 10
-33.2814
 20
19.9628
 30
0.0
 10
-33.3392
 20
19.8158
 30
0.0
 10
-33.3392
 20
19.6372
 30
0.0
 10
-33.3392
 20
19.6372
 30
0.0
 10
-33.3392
 20
19.5641
 30
0.0
 10
-33.3245
 20
19.4734
 30
0.0
 10
-33.296
 20
19.3651
 30
0.0
 10
-33.296
 20
19.3651
 30
0.0
 10
-33.296
 20
19.3651
 30
0.0
 10
-33.6348
 20
19.4082
 30
0.0
 10
-33.6348
 20
19.4082
 30
0.0
 10
-33.6348
 20
19.4082
 30
0.0
 10
-33.6318
 20
19.4338
 30
0.0
 10
-33.6304
 20
19.4543
 30
0.0
 10
-33.6304
 20
19.4704
 30
0.0
 10
-33.6304
 20
19.4704
 30
0.0
 10
-33.6304
 20
19.6343
 30
0.0
 10
-33.6735
 20
19.7821
 30
0.0
 10
-33.7591
 20
19.9138
 30
0.0
 10
-33.7591
 20
19.9138
 30
0.0
 10
-33.8447
 20
20.0455
 30
0.0
 10
-33.9772
 20
20.1113
 30
0.0
 10
-34.1557
 20
20.1113
 30
0.0
 10
-34.1557
 20
20.1113
 30
0.0
 10
-34.2969
 20
20.1113
 30
0.0
 10
-34.4147
 20
20.063
 30
0.0
 10
-34.5069
 20
19.9672
 30
0.0
 10
-34.5069
 20
19.9672
 30
0.0
 10
-34.5998
 20
19.8714
 30
0.0
 10
-34.6466
 20
19.7477
 30
0.0
 10
-34.6466
 20
19.5963
 30
0.0
 10
-34.6466
 20
19.5963
 30
0.0
 10
-34.6466
 20
19.4463
 30
0.0
 10
-34.599
 20
19.3212
 30
0.0
 10
-34.5054
 20
19.2217
 30
0.0
 10
-34.5054
 20
19.2217
 30
0.0
 10
-34.411
 20
19.1214
 30
0.0
 10
-34.2691
 20
19.0571
 30
0.0
 10
-34.0803
 20
19.0285
 30
0.0
 10
-34.0803
 20
19.0285
 30
0.0
 10
-34.0803
 20
19.0285
 30
0.0
 10
-34.1491
 20
18.6429
 30
0.0
 10
-34.1491
 20
18.6429
 30
0.0
 10
-34.1491
 20
18.6429
 30
0.0
 10
-34.4081
 20
18.6898
 30
0.0
 10
-34.6086
 20
18.7973
 30
0.0
 10
-34.7505
 20
18.9641
 30
0.0
 10
-34.7505
 20
18.9641
 30
0.0
 10
-34.8924
 20
19.1317
 30
0.0
 10
-34.9641
 20
19.3395
 30
0.0
 10
-34.9641
 20
19.5882
 30
0.0
 10
-34.9641
 20
19.5882
 30
0.0
 10
-34.9641
 20
19.7594
 30
0.0
 10
-34.9268
 20
19.9175
 30
0.0
 10
-34.8537
 20
20.0616
 30
0.0
 10
-34.8537
 20
20.0616
 30
0.0
 10
-34.7798
 20
20.2057
 30
0.0
 10
-34.6795
 20
20.3162
 30
0.0
 10
-34.5522
 20
20.393
 30
0.0
 10
-34.5522
 20
20.393
 30
0.0
 10
-34.4249
 20
20.4691
 30
0.0
 10
-34.2903
 20
20.5079
 30
0.0
 10
-34.1469
 20
20.5079
 30
0.0
 10
-34.1469
 20
20.5079
 30
0.0
 10
-34.0115
 20
20.5079
 30
0.0
 10
-33.8879
 20
20.4713
 30
0.0
 10
-33.776
 20
20.3981
 30
0.0
 10
-33.776
 20
20.3981
 30
0.0
 10
-33.6648
 20
20.325
 30
0.0
 10
-33.5762
 20
20.2174
 30
0.0
 10
-33.5104
 20
20.0748
 30
0.0
 10
-33.5104
 20
20.0748
 30
0.0
 10
-33.4679
 20
20.2606
 30
0.0
 10
-33.3787
 20
20.4047
 30
0.0
 10
-33.2433
 20
20.5079
 30
0.0
 10
-33.2433
 20
20.5079
 30
0.0
 10
-33.1087
 20
20.6103
 30
0.0
 10
-32.9397
 20
20.6615
 30
0.0
 10
-32.737
 20
20.6615
 30
0.0
 10
-32.737
 20
20.6615
 30
0.0
 10
-32.4627
 20
20.6615
 30
0.0
 10
-32.23
 20
20.562
 30
0.0
 10
-32.0391
 20
20.3616
 30
0.0
 10
-32.0391
 20
20.3616
 30
0.0
 10
-31.8481
 20
20.1618
 30
0.0
 10
-31.753
 20
19.9087
 30
0.0
 10
-31.753
 20
19.6029
 30
0.0
 10
-31.753
 20
19.6029
 30
0.0
 10
-31.753
 20
19.327
 30
0.0
 10
-31.8349
 20
19.098
 30
0.0
 10
-31.9996
 20
18.9158
 30
0.0
 10
-31.9996
 20
18.9158
 30
0.0
 10
-32.1634
 20
18.7337
 30
0.0
 10
-32.3763
 20
18.6298
 30
0.0
 10
-32.6383
 20
18.6042
 30
0.0
  0
SPLINE
  5
48
330
1F
100
AcDbEntity
  8
DEFAULT_1
 62
   250
100
AcDbSpline
210
0.0
220
0.0
230
1.0
 70
    11
 71
     3
 72
   124
 73
   120
 74
     0
 42
0.0000000001
 43
0.0000000001
 40
0.0
 40
0.0
 40
0.0
 40
0.0
 40
0.032258064516129
 40
0.032258064516129
 40
0.032258064516129
 40
0.032258064516129
 40
0.0645161290322581
 40
0.0645161290322581
 40
0.0645161290322581
 40
0.0645161290322581
 40
0.0967741935483871
 40
0.0967741935483871
 40
0.0967741935483871
 40
0.0967741935483871
 40
0.1290322580645161
 40
0.1290322580645161
 40
0.1290322580645161
 40
0.1290322580645161
 40
0.1612903225806452
 40
0.1612903225806452
 40
0.1612903225806452
 40
0.1612903225806452
 40
0.1935483870967742
 40
0.1935483870967742
 40
0.1935483870967742
 40
0.1935483870967742
 40
0.2258064516129032
 40
0.2258064516129032
 40
0.2258064516129032
 40
0.2258064516129032
 40
0.2580645161290323
 40
0.2580645161290323
 40
0.2580645161290323
 40
0.2580645161290323
 40
0.2903225806451613
 40
0.2903225806451613
 40
0.2903225806451613
 40
0.2903225806451613
 40
0.3225806451612903
 40
0.3225806451612903
 40
0.3225806451612903
 40
0.3225806451612903
 40
0.3548387096774194
 40
0.3548387096774194
 40
0.3548387096774194
 40
0.3548387096774194
 40
0.3870967741935484
 40
0.3870967741935484
 40
0.3870967741935484
 40
0.3870967741935484
 40
0.4193548387096774
 40
0.4193548387096774
 40
0.4193548387096774
 40
0.4193548387096774
 40
0.4516129032258064
 40
0.4516129032258064
 40
0.4516129032258064
 40
0.4516129032258064
 40
0.4838709677419355
 40
0.4838709677419355
 40
0.4838709677419355
 40
0.4838709677419355
 40
0.5161290322580645
 40
0.5161290322580645
 40
0.5161290322580645
 40
0.5161290322580645
 40
0.5483870967741935
 40
0.5483870967741935
 40
0.5483870967741935
 40
0.5483870967741935
 40
0.5806451612903226
 40
0.5806451612903226
 40
0.5806451612903226
 40
0.5806451612903226
 40
0.6129032258064516
 40
0.6129032258064516
 40
0.6129032258064516
 40
0.6129032258064516
 40
0.6451612903225806
 40
0.6451612903225806
 40
0.6451612903225806
 40
0.6451612903225806
 40
0.6774193548387096
 40
0.6774193548387096
 40
0.6774193548387096
 40
0.6774193548387096
 40
0.7096774193548387
 40
0.7096774193548387
 40
0.7096774193548387
 40
0.7096774193548387
 40
0.7419354838709677
 40
0.7419354838709677
 40
0.7419354838709677
 40
0.7419354838709677
 40
0.7741935483870968
 40
0.7741935483870968
 40
0.7741935483870968
 40
0.7741935483870968
 40
0.8064516129032258
 40
0.8064516129032258
 40
0.8064516129032258
 40
0.8064516129032258
 40
0.8387096774193549
 40
0.8387096774193549
 40
0.8387096774193549
 40
0.8387096774193549
 40
0.8709677419354839
 40
0.8709677419354839
 40
0.8709677419354839
 40
0.8709677419354839
 40
0.9032258064516129
 40
0.9032258064516129
 40
0.9032258064516129
 40
0.9032258064516129
 40
0.9354838709677419
 40
0.9354838709677419
 40
0.9354838709677419
 40
0.9354838709677419
 40
1.0
 40
1.0
 40
1.0
 40
1.0
 10
-32.6383
 20
21.0457
 30
0.0
 10
-32.6383
 20
21.0457
 30
0.0
 10
-32.6895
 20
21.4312
 30
0.0
 10
-32.6895
 20
21.4312
 30
0.0
 10
-32.6895
 20
21.4312
 30
0.0
 10
-32.4707
 20
21.4759
 30
0.0
 10
-32.3134
 20
21.5512
 30
0.0
 10
-32.2169
 20
21.6573
 30
0.0
 10
-32.2169
 20
21.6573
 30
0.0
 10
-32.1203
 20
21.7641
 30
0.0
 10
-32.072
 20
21.8936
 30
0.0
 10
-32.072
 20
22.0465
 30
0.0
 10
-32.072
 20
22.0465
 30
0.0
 10
-32.072
 20
22.228
 30
0.0
 10
-32.1349
 20
22.3816
 30
0.0
 10
-32.2607
 20
22.5067
 30
0.0
 10
-32.2607
 20
22.5067
 30
0.0
 10
-32.3866
 20
22.6311
 30
0.0
 10
-32.5424
 20
22.694
 30
0.0
 10
-32.7283
 20
22.694
 30
0.0
 10
-32.7283
 20
22.694
 30
0.0
 10
-32.9053
 20
22.694
 30
0.0
 10
-33.0516
 20
22.6362
 30
0.0
 10
-33.1665
 20
22.5206
 30
0.0
 10
-33.1665
 20
22.5206
 30
0.0
 10
-33.2814
 20
22.4043
 30
0.0
 10
-33.3392
 20
22.2573
 30
0.0
 10
-33.3392
 20
22.0787
 30
0.0
 10
-33.3392
 20
22.0787
 30
0.0
 10
-33.3392
 20
22.0056
 30
0.0
 10
-33.3245
 20
21.9149
 30
0.0
 10
-33.296
 20
21.8066
 30
0.0
 10
-33.296
 20
21.8066
 30
0.0
 10
-33.296
 20
21.8066
 30
0.0
 10
-33.6348
 20
21.8497
 30
0.0
 10
-33.6348
 20
21.8497
 30
0.0
 10
-33.6348
 20
21.8497
 30
0.0
 10
-33.6318
 20
21.8753
 30
0.0
 10
-33.6304
 20
21.8958
 30
0.0
 10
-33.6304
 20
21.9119
 30
0.0
 10
-33.6304
 20
21.9119
 30
0.0
 10
-33.6304
 20
22.0758
 30
0.0
 10
-33.6735
 20
22.2236
 30
0.0
 10
-33.7591
 20
22.3553
 30
0.0
 10
-33.7591
 20
22.3553
 30
0.0
 10
-33.8447
 20
22.487
 30
0.0
 10
-33.9772
 20
22.5528
 30
0.0
 10
-34.1557
 20
22.5528
 30
0.0
 10
-34.1557
 20
22.5528
 30
0.0
 10
-34.2969
 20
22.5528
 30
0.0
 10
-34.4147
 20
22.5045
 30
0.0
 10
-34.5069
 20
22.4087
 30
0.0
 10
-34.5069
 20
22.4087
 30
0.0
 10
-34.5998
 20
22.3129
 30
0.0
 10
-34.6466
 20
22.1892
 30
0.0
 10
-34.6466
 20
22.0378
 30
0.0
 10
-34.6466
 20
22.0378
 30
0.0
 10
-34.6466
 20
21.8878
 30
0.0
 10
-34.599
 20
21.7627
 30
0.0
 10
-34.5054
 20
21.6632
 30
0.0
 10
-34.5054
 20
21.6632
 30
0.0
 10
-34.411
 20
21.5629
 30
0.0
 10
-34.2691
 20
21.4986
 30
0.0
 10
-34.0803
 20
21.47
 30
0.0
 10
-34.0803
 20
21.47
 30
0.0
 10
-34.0803
 20
21.47
 30
0.0
 10
-34.1491
 20
21.0844
 30
0.0
 10
-34.1491
 20
21.0844
 30
0.0
 10
-34.1491
 20
21.0844
 30
0.0
 10
-34.4081
 20
21.1313
 30
0.0
 10
-34.6086
 20
21.2388
 30
0.0
 10
-34.7505
 20
21.4056
 30
0.0
 10
-34.7505
 20
21.4056
 30
0.0
 10
-34.8924
 20
21.5732
 30
0.0
 10
-34.9641
 20
21.781
 30
0.0
 10
-34.9641
 20
22.0297
 30
0.0
 10
-34.9641
 20
22.0297
 30
0.0
 10
-34.9641
 20
22.2009
 30
0.0
 10
-34.9268
 20
22.359
 30
0.0
 10
-34.8537
 20
22.5031
 30
0.0
 10
-34.8537
 20
22.5031
 30
0.0
 10
-34.7798
 20
22.6472
 30
0.0
 10
-34.6795
 20
22.7577
 30
0.0
 10
-34.5522
 20
22.8345
 30
0.0
 10
-34.5522
 20
22.8345
 30
0.0
 10
-34.4249
 20
22.9106
 30
0.0
 10
-34.2903
 20
22.9494
 30
0.0
 10
-34.1469
 20
22.9494
 30
0.0
 10
-34.1469
 20
22.9494
 30
0.0
 10
-34.0115
 20
22.9494
 30
0.0
 10
-33.8879
 20
22.9128
 30
0.0
 10
-33.776
 20
22.8396
 30
0.0
 10
-33.776
 20
22.8396
 30
0.0
 10
-33.6648
 20
22.7665
 30
0.0
 10
-33.5762
 20
22.6589
 30
0.0
 10
-33.5104
 20
22.5163
 30
0.0
 10
-33.5104
 20
22.5163
 30
0.0
 10
-33.4679
 20
22.7021
 30
0.0
 10
-33.3787
 20
22.8462
 30
0.0
 10
-33.2433
 20
22.9494
 30
0.0
 10
-33.2433
 20
22.9494
 30
0.0
 10
-33.1087
 20
23.0518
 30
0.0
 10
-32.9397
 20
23.103
 30
0.0
 10
-32.737
 20
23.103
 30
0.0
 10
-32.737
 20
23.103
 30
0.0
 10
-32.4627
 20
23.103
 30
0.0
 10
-32.23
 20
23.0035
 30
0.0
 10
-32.0391
 20
22.8031
 30
0.0
 10
-32.0391
 20
22.8031
 30
0.0
 10
-31.8481
 20
22.6033
 30
0.0
 10
-31.753
 20
22.3502
 30
0.0
 10
-31.753
 20
22.0444
 30
0.0
 10
-31.753
 20
22.0444
 30
0.0
 10
-31.753
 20
21.7685
 30
0.0
 10
-31.8349
 20
21.5395
 30
0.0
 10
-31.9996
 20
21.3573
 30
0.0
 10
-31.9996
 20
21.3573
 30
0.0
 10
-32.1634
 20
21.1752
 30
0.0
 10
-32.3763
 20
21.0713
 30
0.0
 10
-32.6383
 20
21.0457
 30
0.0
  0
SPLINE
  5
49
330
1F
100
AcDbEntity
  8
DEFAULT_1
 62
   250
100
AcDbSpline
210
0.0
220
0.0
230
1.0
 70
    11
 71
     3
 72
    20
 73
    16
 74
     0
 42
0.0000000001
 43
0.0000000001
 40
0.0
 40
0.0
 40
0.0
 40
0.0
 40
0.2
 40
0.2
 40
0.2
 40
0.2
 40
0.4
 40
0.4
 40
0.4
 40
0.4
 40
0.6
 40
0.6
 40
0.6
 40
0.6
 40
1.0
 40
1.0
 40
1.0
 40
1.0
 10
32.8345
 20
12.7403
 30
0.0
 10
32.8345
 20
12.7403
 30
0.0
 10
33.3833
 20
16.6291
 30
0.0
 10
33.3833
 20
16.6291
 30
0.0
 10
33.3833
 20
16.6291
 30
0.0
 10
33.3833
 20
16.6291
 30
0.0
 10
33.5052
 20
16.6291
 30
0.0
 10
33.5052
 20
16.6291
 30
0.0
 10
33.5052
 20
16.6291
 30
0.0
 10
33.5052
 20
16.6291
 30
0.0
 10
34.0905
 20
12.7403
 30
0.0
 10
34.0905
 20
12.7403
 30
0.0
 10
34.0905
 20
12.7403
 30
0.0
 10
34.0905
 20
12.7403
 30
0.0
 10
32.8345
 20
12.7403
 30
0.0
 10
32.8345
 20
12.7403
 30
0.0
  0
SPLINE
  5
4A
330
1F
100
AcDbEntity
  8
DEFAULT_1
 62
   250
100
AcDbSpline
210
0.0
220
0.0
230
1.0
 70
    11
 71
     3
 72
    20
 73
    16
 74
     0
 42
0.0000000001
 43
0.0000000001
 40
0.0
 40
0.0
 40
0.0
 40
0.0
 40
0.2
 40
0.2
 40
0.2
 40
0.2
 40
0.4
 40
0.4
 40
0.4
 40
0.4
 40
0.6
 40
0.6
 40
0.6
 40
0.6
 40
1.0
 40
1.0
 40
1.0
 40
1.0
 10
34.0612
 20
-40.9466
 30
0.0
 10
34.0612
 20
-40.9466
 30
0.0
 10
33.5124
 20
-44.8354
 30
0.0
 10
33.5124
 20
-44.8354
 30
0.0
 10
33.5124
 20
-44.8354
 30
0.0
 10
33.5124
 20
-44.8354
 30
0.0
 10
33.3905
 20
-44.8354
 30
0.0
 10
33.3905
 20
-44.8354
 30
0.0
 10
33.3905
 20
-44.8354
 30
0.0
 10
33.3905
 20
-44.8354
 30
0.0
 10
32.8052
 20
-40.9466
 30
0.0
 10
32.8052
 20
-40.9466
 30
0.0
 10
32.8052
 20
-40.9466
 30
0.0
 10
32.8052
 20
-40.9466
 30
0.0
 10
34.0612
 20
-40.9466
 30
0.0
 10
34.0612
 20
-40.9466
 30
0.0
  0
SPLINE
  5
4B
330
1F
100
AcDbEntity
  8
DEFAULT_1
 62
   250
100
AcDbSpline
210
0.0
220
0.0
230
1.0
 70
    11
 71
     3
 72
    84
 73
    80
 74
     0
 42
0.0000000001
 43
0.0000000001
 40
0.0
 40
0.0
 40
0.0
 40
0.0
 40
0.0476190476190476
 40
0.0476190476190476
 40
0.0476190476190476
 40
0.0476190476190476
 40
0.0952380952380952
 40
0.0952380952380952
 40
0.0952380952380952
 40
0.0952380952380952
 40
0.1428571428571428
 40
0.1428571428571428
 40
0.1428571428571428
 40
0.1428571428571428
 40
0.1904761904761905
 40
0.1904761904761905
 40
0.1904761904761905
 40
0.1904761904761905
 40
0.2380952380952381
 40
0.2380952380952381
 40
0.2380952380952381
 40
0.2380952380952381
 40
0.2857142857142857
 40
0.2857142857142857
 40
0.2857142857142857
 40
0.2857142857142857
 40
0.3333333333333333
 40
0.3333333333333333
 40
0.3333333333333333
 40
0.3333333333333333
 40
0.3809523809523809
 40
0.3809523809523809
 40
0.3809523809523809
 40
0.3809523809523809
 40
0.4285714285714285
 40
0.4285714285714285
 40
0.4285714285714285
 40
0.4285714285714285
 40
0.4761904761904762
 40
0.4761904761904762
 40
0.4761904761904762
 40
0.4761904761904762
 40
0.5238095238095238
 40
0.5238095238095238
 40
0.5238095238095238
 40
0.5238095238095238
 40
0.5714285714285714
 40
0.5714285714285714
 40
0.5714285714285714
 40
0.5714285714285714
 40
0.6190476190476191
 40
0.6190476190476191
 40
0.6190476190476191
 40
0.6190476190476191
 40
0.6666666666666666
 40
0.6666666666666666
 40
0.6666666666666666
 40
0.6666666666666666
 40
0.7142857142857143
 40
0.7142857142857143
 40
0.7142857142857143
 40
0.7142857142857143
 40
0.7619047619047619
 40
0.7619047619047619
 40
0.7619047619047619
 40
0.7619047619047619
 40
0.8095238095238095
 40
0.8095238095238095
 40
0.8095238095238095
 40
0.8095238095238095
 40
0.8571428571428571
 40
0.8571428571428571
 40
0.8571428571428571
 40
0.8571428571428571
 40
0.9047619047619048
 40
0.9047619047619048
 40
0.9047619047619048
 40
0.9047619047619048
 40
1.0
 40
1.0
 40
1.0
 40
1.0
 10
3.5135
 20
-48.9348
 30
0.0
 10
3.5135
 20
-48.9348
 30
0.0
 10
3.8735
 20
-48.5316
 30
0.0
 10
3.8735
 20
-48.5316
 30
0.0
 10
3.8735
 20
-48.5316
 30
0.0
 10
3.8735
 20
-48.5316
 30
0.0
 10
4.0857
 20
-48.7116
 30
0.0
 10
4.0857
 20
-48.7116
 30
0.0
 10
4.0857
 20
-48.7116
 30
0.0
 10
4.0857
 20
-48.7116
 30
0.0
 10
3.7089
 20
-49.136
 30
0.0
 10
3.7089
 20
-49.136
 30
0.0
 10
3.7089
 20
-49.136
 30
0.0
 10
3.8318
 20
-49.3189
 30
0.0
 10
3.9145
 20
-49.4791
 30
0.0
 10
3.9576
 20
-49.6159
 30
0.0
 10
3.9576
 20
-49.6159
 30
0.0
 10
4.0147
 20
-49.7959
 30
0.0
 10
4.0432
 20
-49.9978
 30
0.0
 10
4.0432
 20
-50.2202
 30
0.0
 10
4.0432
 20
-50.2202
 30
0.0
 10
4.0432
 20
-50.5422
 30
0.0
 10
3.9781
 20
-50.829
 30
0.0
 10
3.8479
 20
-51.0799
 30
0.0
 10
3.8479
 20
-51.0799
 30
0.0
 10
3.7177
 20
-51.3316
 30
0.0
 10
3.5355
 20
-51.5218
 30
0.0
 10
3.3006
 20
-51.6506
 30
0.0
 10
3.3006
 20
-51.6506
 30
0.0
 10
3.0651
 20
-51.7786
 30
0.0
 10
2.8156
 20
-51.843
 30
0.0
 10
2.5514
 20
-51.843
 30
0.0
 10
2.5514
 20
-51.843
 30
0.0
 10
2.3539
 20
-51.843
 30
0.0
 10
2.1754
 20
-51.8152
 30
0.0
 10
2.0152
 20
-51.7596
 30
0.0
 10
2.0152
 20
-51.7596
 30
0.0
 10
1.8922
 20
-51.7164
 30
0.0
 10
1.7488
 20
-51.6345
 30
0.0
 10
1.5842
 20
-51.513
 30
0.0
 10
1.5842
 20
-51.513
 30
0.0
 10
1.5842
 20
-51.513
 30
0.0
 10
1.2243
 20
-51.9162
 30
0.0
 10
1.2243
 20
-51.9162
 30
0.0
 10
1.2243
 20
-51.9162
 30
0.0
 10
1.2243
 20
-51.9162
 30
0.0
 10
1.0121
 20
-51.7362
 30
0.0
 10
1.0121
 20
-51.7362
 30
0.0
 10
1.0121
 20
-51.7362
 30
0.0
 10
1.0121
 20
-51.7362
 30
0.0
 10
1.3896
 20
-51.314
 30
0.0
 10
1.3896
 20
-51.314
 30
0.0
 10
1.3896
 20
-51.314
 30
0.0
 10
1.2491
 20
-51.1011
 30
0.0
 10
1.1555
 20
-50.919
 30
0.0
 10
1.1087
 20
-50.7682
 30
0.0
 10
1.1087
 20
-50.7682
 30
0.0
 10
1.0618
 20
-50.6175
 30
0.0
 10
1.0377
 20
-50.4361
 30
0.0
 10
1.0377
 20
-50.2246
 30
0.0
 10
1.0377
 20
-50.2246
 30
0.0
 10
1.0377
 20
-49.902
 30
0.0
 10
1.1021
 20
-49.6145
 30
0.0
 10
1.2308
 20
-49.362
 30
0.0
 10
1.2308
 20
-49.362
 30
0.0
 10
1.3596
 20
-49.1096
 30
0.0
 10
1.5396
 20
-48.9187
 30
0.0
 10
1.7723
 20
-48.7884
 30
0.0
 10
1.7723
 20
-48.7884
 30
0.0
 10
2.0042
 20
-48.6589
 30
0.0
 10
2.2624
 20
-48.5938
 30
0.0
 10
2.5471
 20
-48.5938
 30
0.0
 10
2.5471
 20
-48.5938
 30
0.0
 10
2.7387
 20
-48.5938
 30
0.0
 10
2.9063
 20
-48.6187
 30
0.0
 10
3.0497
 20
-48.6699
 30
0.0
 10
3.0497
 20
-48.6699
 30
0.0
 10
3.1931
 20
-48.7204
 30
0.0
 10
3.3482
 20
-48.8089
 30
0.0
 10
3.5135
 20
-48.9348
 30
0.0
  0
SPLINE
  5
4C
330
1F
100
AcDbEntity
  8
DEFAULT_1
 62
   250
100
AcDbSpline
210
0.0
220
0.0
230
1.0
 70
    11
 71
     3
 72
    32
 73
    28
 74
     0
 42
0.0000000001
 43
0.0000000001
 40
0.0
 40
0.0
 40
0.0
 40
0.0
 40
0.125
 40
0.125
 40
0.125
 40
0.125
 40
0.25
 40
0.25
 40
0.25
 40
0.25
 40
0.375
 40
0.375
 40
0.375
 40
0.375
 40
0.5
 40
0.5
 40
0.5
 40
0.5
 40
0.625
 40
0.625
 40
0.625
 40
0.625
 40
0.75
 40
0.75
 40
0.75
 40
0.75
 40
1.0
 40
1.0
 40
1.0
 40
1.0
 10
3.2567
 20
-49.2238
 30
0.0
 10
3.1221
 20
-49.1184
 30
0.0
 10
3.0043
 20
-49.046
 30
0.0
 10
2.9041
 20
-49.0072
 30
0.0
 10
2.9041
 20
-49.0072
 30
0.0
 10
2.8031
 20
-48.9692
 30
0.0
 10
2.6846
 20
-48.9494
 30
0.0
 10
2.5492
 20
-48.9494
 30
0.0
 10
2.5492
 20
-48.9494
 30
0.0
 10
2.2361
 20
-48.9494
 30
0.0
 10
1.9778
 20
-49.0555
 30
0.0
 10
1.773
 20
-49.2677
 30
0.0
 10
1.773
 20
-49.2677
 30
0.0
 10
1.5689
 20
-49.4798
 30
0.0
 10
1.4664
 20
-49.7966
 30
0.0
 10
1.4664
 20
-50.2188
 30
0.0
 10
1.4664
 20
-50.2188
 30
0.0
 10
1.4664
 20
-50.3841
 30
0.0
 10
1.4825
 20
-50.5312
 30
0.0
 10
1.514
 20
-50.66
 30
0.0
 10
1.514
 20
-50.66
 30
0.0
 10
1.5367
 20
-50.7558
 30
0.0
 10
1.5842
 20
-50.8736
 30
0.0
 10
1.6574
 20
-51.0133
 30
0.0
 10
1.6574
 20
-51.0133
 30
0.0
 10
1.6574
 20
-51.0133
 30
0.0
 10
3.2567
 20
-49.2238
 30
0.0
 10
3.2567
 20
-49.2238
 30
0.0
  0
SPLINE
  5
4D
330
1F
100
AcDbEntity
  8
DEFAULT_1
 62
   250
100
AcDbSpline
210
0.0
220
0.0
230
1.0
 70
    11
 71
     3
 72
    28
 73
    24
 74
     0
 42
0.0000000001
 43
0.0000000001
 40
0.0
 40
0.0
 40
0.0
 40
0.0
 40
0.1428571428571428
 40
0.1428571428571428
 40
0.1428571428571428
 40
0.1428571428571428
 40
0.2857142857142857
 40
0.2857142857142857
 40
0.2857142857142857
 40
0.2857142857142857
 40
0.4285714285714285
 40
0.4285714285714285
 40
0.4285714285714285
 40
0.4285714285714285
 40
0.5714285714285714
 40
0.5714285714285714
 40
0.5714285714285714
 40
0.5714285714285714
 40
0.7142857142857143
 40
0.7142857142857143
 40
0.7142857142857143
 40
0.7142857142857143
 40
1.0
 40
1.0
 40
1.0
 40
1.0
 10
3.4323
 20
-49.4447
 30
0.0
 10
3.4323
 20
-49.4447
 30
0.0
 10
1.8396
 20
-51.2277
 30
0.0
 10
1.8396
 20
-51.2277
 30
0.0
 10
1.8396
 20
-51.2277
 30
0.0
 10
1.9493
 20
-51.3177
 30
0.0
 10
2.051
 20
-51.3806
 30
0.0
 10
2.1439
 20
-51.4165
 30
0.0
 10
2.1439
 20
-51.4165
 30
0.0
 10
2.2654
 20
-51.464
 30
0.0
 10
2.3971
 20
-51.4874
 30
0.0
 10
2.5383
 20
-51.4874
 30
0.0
 10
2.5383
 20
-51.4874
 30
0.0
 10
2.8499
 20
-51.4874
 30
0.0
 10
3.1068
 20
-51.3777
 30
0.0
 10
3.3101
 20
-51.1575
 30
0.0
 10
3.3101
 20
-51.1575
 30
0.0
 10
3.5128
 20
-50.9372
 30
0.0
 10
3.6145
 20
-50.6285
 30
0.0
 10
3.6145
 20
-50.2312
 30
0.0
 10
3.6145
 20
-50.2312
 30
0.0
 10
3.6145
 20
-49.9342
 30
0.0
 10
3.5538
 20
-49.6715
 30
0.0
 10
3.4323
 20
-49.4447
 30
0.0
  0
SPLINE
  5
4E
330
1F
100
AcDbEntity
  8
DEFAULT_1
 62
   250
100
AcDbSpline
210
0.0
220
0.0
230
1.0
 70
    11
 71
     3
 72
    40
 73
    36
 74
     0
 42
0.0000000001
 43
0.0000000001
 40
0.0
 40
0.0
 40
0.0
 40
0.0
 40
0.1
 40
0.1
 40
0.1
 40
0.1
 40
0.2
 40
0.2
 40
0.2
 40
0.2
 40
0.3
 40
0.3
 40
0.3
 40
0.3
 40
0.4
 40
0.4
 40
0.4
 40
0.4
 40
0.5
 40
0.5
 40
0.5
 40
0.5
 40
0.6
 40
0.6
 40
0.6
 40
0.6
 40
0.7
 40
0.7
 40
0.7
 40
0.7
 40
0.8
 40
0.8
 40
0.8
 40
0.8
 40
1.0
 40
1.0
 40
1.0
 40
1.0
 10
5.884
 20
-51.7896
 30
0.0
 10
5.884
 20
-51.7896
 30
0.0
 10
5.4984
 20
-51.7896
 30
0.0
 10
5.4984
 20
-51.7896
 30
0.0
 10
5.4984
 20
-51.7896
 30
0.0
 10
5.4984
 20
-51.7896
 30
0.0
 10
5.4984
 20
-49.3313
 30
0.0
 10
5.4984
 20
-49.3313
 30
0.0
 10
5.4984
 20
-49.3313
 30
0.0
 10
5.4055
 20
-49.4198
 30
0.0
 10
5.2841
 20
-49.5084
 30
0.0
 10
5.1333
 20
-49.5969
 30
0.0
 10
5.1333
 20
-49.5969
 30
0.0
 10
4.9819
 20
-49.6854
 30
0.0
 10
4.8465
 20
-49.752
 30
0.0
 10
4.7266
 20
-49.7959
 30
0.0
 10
4.7266
 20
-49.7959
 30
0.0
 10
4.7266
 20
-49.7959
 30
0.0
 10
4.7266
 20
-49.4235
 30
0.0
 10
4.7266
 20
-49.4235
 30
0.0
 10
4.7266
 20
-49.4235
 30
0.0
 10
4.9424
 20
-49.3218
 30
0.0
 10
5.1311
 20
-49.1989
 30
0.0
 10
5.2928
 20
-49.0548
 30
0.0
 10
5.2928
 20
-49.0548
 30
0.0
 10
5.4538
 20
-48.9099
 30
0.0
 10
5.5687
 20
-48.7701
 30
0.0
 10
5.636
 20
-48.6341
 30
0.0
 10
5.636
 20
-48.6341
 30
0.0
 10
5.636
 20
-48.6341
 30
0.0
 10
5.884
 20
-48.6341
 30
0.0
 10
5.884
 20
-48.6341
 30
0.0
 10
5.884
 20
-48.6341
 30
0.0
 10
5.884
 20
-48.6341
 30
0.0
 10
5.884
 20
-51.7896
 30
0.0
 10
5.884
 20
-51.7896
 30
0.0
  0
SPLINE
  5
4F
330
1F
100
AcDbEntity
  8
DEFAULT_1
 62
   250
100
AcDbSpline
210
0.0
220
0.0
230
1.0
 70
    11
 71
     3
 72
    40
 73
    36
 74
     0
 42
0.0000000001
 43
0.0000000001
 40
0.0
 40
0.0
 40
0.0
 40
0.0
 40
0.1
 40
0.1
 40
0.1
 40
0.1
 40
0.2
 40
0.2
 40
0.2
 40
0.2
 40
0.3
 40
0.3
 40
0.3
 40
0.3
 40
0.4
 40
0.4
 40
0.4
 40
0.4
 40
0.5
 40
0.5
 40
0.5
 40
0.5
 40
0.6
 40
0.6
 40
0.6
 40
0.6
 40
0.7
 40
0.7
 40
0.7
 40
0.7
 40
0.8
 40
0.8
 40
0.8
 40
0.8
 40
1.0
 40
1.0
 40
1.0
 40
1.0
 10
7.9999
 20
-51.7896
 30
0.0
 10
7.9999
 20
-51.7896
 30
0.0
 10
7.6143
 20
-51.7896
 30
0.0
 10
7.6143
 20
-51.7896
 30
0.0
 10
7.6143
 20
-51.7896
 30
0.0
 10
7.6143
 20
-51.7896
 30
0.0
 10
7.6143
 20
-49.3313
 30
0.0
 10
7.6143
 20
-49.3313
 30
0.0
 10
7.6143
 20
-49.3313
 30
0.0
 10
7.5214
 20
-49.4198
 30
0.0
 10
7.4
 20
-49.5084
 30
0.0
 10
7.2492
 20
-49.5969
 30
0.0
 10
7.2492
 20
-49.5969
 30
0.0
 10
7.0978
 20
-49.6854
 30
0.0
 10
6.9624
 20
-49.752
 30
0.0
 10
6.8425
 20
-49.7959
 30
0.0
 10
6.8425
 20
-49.7959
 30
0.0
 10
6.8425
 20
-49.7959
 30
0.0
 10
6.8425
 20
-49.4235
 30
0.0
 10
6.8425
 20
-49.4235
 30
0.0
 10
6.8425
 20
-49.4235
 30
0.0
 10
7.0583
 20
-49.3218
 30
0.0
 10
7.247
 20
-49.1989
 30
0.0
 10
7.4087
 20
-49.0548
 30
0.0
 10
7.4087
 20
-49.0548
 30
0.0
 10
7.5697
 20
-48.9099
 30
0.0
 10
7.6846
 20
-48.7701
 30
0.0
 10
7.7519
 20
-48.6341
 30
0.0
 10
7.7519
 20
-48.6341
 30
0.0
 10
7.7519
 20
-48.6341
 30
0.0
 10
7.9999
 20
-48.6341
 30
0.0
 10
7.9999
 20
-48.6341
 30
0.0
 10
7.9999
 20
-48.6341
 30
0.0
 10
7.9999
 20
-48.6341
 30
0.0
 10
7.9999
 20
-51.7896
 30
0.0
 10
7.9999
 20
-51.7896
 30
0.0
  0
SPLINE
  5
50
330
1F
100
AcDbEntity
  8
DEFAULT_1
 62
   250
100
AcDbSpline
210
0.0
220
0.0
230
1.0
 70
    11
 71
     3
 72
    52
 73
    48
 74
     0
 42
0.0000000001
 43
0.0000000001
 40
0.0
 40
0.0
 40
0.0
 40
0.0
 40
0.0769230769230769
 40
0.0769230769230769
 40
0.0769230769230769
 40
0.0769230769230769
 40
0.1538461538461539
 40
0.1538461538461539
 40
0.1538461538461539
 40
0.1538461538461539
 40
0.2307692307692308
 40
0.2307692307692308
 40
0.2307692307692308
 40
0.2307692307692308
 40
0.3076923076923077
 40
0.3076923076923077
 40
0.3076923076923077
 40
0.3076923076923077
 40
0.3846153846153846
 40
0.3846153846153846
 40
0.3846153846153846
 40
0.3846153846153846
 40
0.4615384615384616
 40
0.4615384615384616
 40
0.4615384615384616
 40
0.4615384615384616
 40
0.5384615384615384
 40
0.5384615384615384
 40
0.5384615384615384
 40
0.5384615384615384
 40
0.6153846153846154
 40
0.6153846153846154
 40
0.6153846153846154
 40
0.6153846153846154
 40
0.6923076923076923
 40
0.6923076923076923
 40
0.6923076923076923
 40
0.6923076923076923
 40
0.7692307692307693
 40
0.7692307692307693
 40
0.7692307692307693
 40
0.7692307692307693
 40
0.8461538461538461
 40
0.8461538461538461
 40
0.8461538461538461
 40
0.8461538461538461
 40
1.0
 40
1.0
 40
1.0
 40
1.0
 10
8.9884
 20
-50.24
 30
0.0
 10
8.9884
 20
-49.8683
 30
0.0
 10
9.0264
 20
-49.5691
 30
0.0
 10
9.1032
 20
-49.343
 30
0.0
 10
9.1032
 20
-49.343
 30
0.0
 10
9.1793
 20
-49.1162
 30
0.0
 10
9.2935
 20
-48.9414
 30
0.0
 10
9.4442
 20
-48.8184
 30
0.0
 10
9.4442
 20
-48.8184
 30
0.0
 10
9.5949
 20
-48.6955
 30
0.0
 10
9.7844
 20
-48.6341
 30
0.0
 10
10.0127
 20
-48.6341
 30
0.0
 10
10.0127
 20
-48.6341
 30
0.0
 10
10.1817
 20
-48.6341
 30
0.0
 10
10.3295
 20
-48.6685
 30
0.0
 10
10.4568
 20
-48.7365
 30
0.0
 10
10.4568
 20
-48.7365
 30
0.0
 10
10.5841
 20
-48.8038
 30
0.0
 10
10.6887
 20
-48.9018
 30
0.0
 10
10.7721
 20
-49.0299
 30
0.0
 10
10.7721
 20
-49.0299
 30
0.0
 10
10.8548
 20
-49.1579
 30
0.0
 10
10.9199
 20
-49.3138
 30
0.0
 10
10.9667
 20
-49.4974
 30
0.0
 10
10.9667
 20
-49.4974
 30
0.0
 10
11.0143
 20
-49.681
 30
0.0
 10
11.0377
 20
-49.9283
 30
0.0
 10
11.0377
 20
-50.24
 30
0.0
 10
11.0377
 20
-50.24
 30
0.0
 10
11.0377
 20
-50.6087
 30
0.0
 10
10.9996
 20
-50.9058
 30
0.0
 10
10.9243
 20
-51.1326
 30
0.0
 10
10.9243
 20
-51.1326
 30
0.0
 10
10.8482
 20
-51.3594
 30
0.0
 10
10.7348
 20
-51.5343
 30
0.0
 10
10.5841
 20
-51.6579
 30
0.0
 10
10.5841
 20
-51.6579
 30
0.0
 10
10.4334
 20
-51.7816
 30
0.0
 10
10.2431
 20
-51.843
 30
0.0
 10
10.0127
 20
-51.843
 30
0.0
 10
10.0127
 20
-51.843
 30
0.0
 10
9.7098
 20
-51.843
 30
0.0
 10
9.472
 20
-51.7347
 30
0.0
 10
9.2993
 20
-51.5174
 30
0.0
 10
9.2993
 20
-51.5174
 30
0.0
 10
9.0923
 20
-51.2562
 30
0.0
 10
8.9884
 20
-50.8297
 30
0.0
 10
8.9884
 20
-50.24
 30
0.0
  0
SPLINE
  5
51
330
1F
100
AcDbEntity
  8
DEFAULT_1
 62
   250
100
AcDbSpline
210
0.0
220
0.0
230
1.0
 70
    11
 71
     3
 72
    36
 73
    32
 74
     0
 42
0.0000000001
 43
0.0000000001
 40
0.0
 40
0.0
 40
0.0
 40
0.0
 40
0.1111111111111111
 40
0.1111111111111111
 40
0.1111111111111111
 40
0.1111111111111111
 40
0.2222222222222222
 40
0.2222222222222222
 40
0.2222222222222222
 40
0.2222222222222222
 40
0.3333333333333333
 40
0.3333333333333333
 40
0.3333333333333333
 40
0.3333333333333333
 40
0.4444444444444444
 40
0.4444444444444444
 40
0.4444444444444444
 40
0.4444444444444444
 40
0.5555555555555556
 40
0.5555555555555556
 40
0.5555555555555556
 40
0.5555555555555556
 40
0.6666666666666666
 40
0.6666666666666666
 40
0.6666666666666666
 40
0.6666666666666666
 40
0.7777777777777778
 40
0.7777777777777778
 40
0.7777777777777778
 40
0.7777777777777778
 40
1.0
 40
1.0
 40
1.0
 40
1.0
 10
9.3849
 20
-50.24
 30
0.0
 10
9.3849
 20
-50.7558
 30
0.0
 10
9.4456
 20
-51.0989
 30
0.0
 10
9.5664
 20
-51.2701
 30
0.0
 10
9.5664
 20
-51.2701
 30
0.0
 10
9.6871
 20
-51.4406
 30
0.0
 10
9.8356
 20
-51.5262
 30
0.0
 10
10.0127
 20
-51.5262
 30
0.0
 10
10.0127
 20
-51.5262
 30
0.0
 10
10.1905
 20
-51.5262
 30
0.0
 10
10.339
 20
-51.4399
 30
0.0
 10
10.4597
 20
-51.2687
 30
0.0
 10
10.4597
 20
-51.2687
 30
0.0
 10
10.5804
 20
-51.0975
 30
0.0
 10
10.6411
 20
-50.7543
 30
0.0
 10
10.6411
 20
-50.24
 30
0.0
 10
10.6411
 20
-50.24
 30
0.0
 10
10.6411
 20
-49.7227
 30
0.0
 10
10.5804
 20
-49.3789
 30
0.0
 10
10.4597
 20
-49.2091
 30
0.0
 10
10.4597
 20
-49.2091
 30
0.0
 10
10.339
 20
-49.0387
 30
0.0
 10
10.189
 20
-48.9538
 30
0.0
 10
10.009
 20
-48.9538
 30
0.0
 10
10.009
 20
-48.9538
 30
0.0
 10
9.8312
 20
-48.9538
 30
0.0
 10
9.69
 20
-49.0291
 30
0.0
 10
9.5839
 20
-49.1791
 30
0.0
 10
9.5839
 20
-49.1791
 30
0.0
 10
9.4515
 20
-49.3701
 30
0.0
 10
9.3849
 20
-49.7242
 30
0.0
 10
9.3849
 20
-50.24
 30
0.0
  0
SPLINE
  5
52
330
1F
100
AcDbEntity
  8
DEFAULT_1
 62
   250
100
AcDbSpline
210
0.0
220
0.0
230
1.0
 70
    11
 71
     3
 72
    92
 73
    88
 74
     0
 42
0.0000000001
 43
0.0000000001
 40
0.0
 40
0.0
 40
0.0
 40
0.0
 40
0.0434782608695652
 40
0.0434782608695652
 40
0.0434782608695652
 40
0.0434782608695652
 40
0.0869565217391304
 40
0.0869565217391304
 40
0.0869565217391304
 40
0.0869565217391304
 40
0.1304347826086956
 40
0.1304347826086956
 40
0.1304347826086956
 40
0.1304347826086956
 40
0.1739130434782609
 40
0.1739130434782609
 40
0.1739130434782609
 40
0.1739130434782609
 40
0.2173913043478261
 40
0.2173913043478261
 40
0.2173913043478261
 40
0.2173913043478261
 40
0.2608695652173913
 40
0.2608695652173913
 40
0.2608695652173913
 40
0.2608695652173913
 40
0.3043478260869565
 40
0.3043478260869565
 40
0.3043478260869565
 40
0.3043478260869565
 40
0.3478260869565217
 40
0.3478260869565217
 40
0.3478260869565217
 40
0.3478260869565217
 40
0.391304347826087
 40
0.391304347826087
 40
0.391304347826087
 40
0.391304347826087
 40
0.4347826086956522
 40
0.4347826086956522
 40
0.4347826086956522
 40
0.4347826086956522
 40
0.4782608695652174
 40
0.4782608695652174
 40
0.4782608695652174
 40
0.4782608695652174
 40
0.5217391304347826
 40
0.5217391304347826
 40
0.5217391304347826
 40
0.5217391304347826
 40
0.5652173913043478
 40
0.5652173913043478
 40
0.5652173913043478
 40
0.5652173913043478
 40
0.6086956521739131
 40
0.6086956521739131
 40
0.6086956521739131
 40
0.6086956521739131
 40
0.6521739130434783
 40
0.6521739130434783
 40
0.6521739130434783
 40
0.6521739130434783
 40
0.6956521739130435
 40
0.6956521739130435
 40
0.6956521739130435
 40
0.6956521739130435
 40
0.7391304347826086
 40
0.7391304347826086
 40
0.7391304347826086
 40
0.7391304347826086
 40
0.782608695652174
 40
0.782608695652174
 40
0.782608695652174
 40
0.782608695652174
 40
0.8260869565217391
 40
0.8260869565217391
 40
0.8260869565217391
 40
0.8260869565217391
 40
0.8695652173913043
 40
0.8695652173913043
 40
0.8695652173913043
 40
0.8695652173913043
 40
0.9130434782608695
 40
0.9130434782608695
 40
0.9130434782608695
 40
0.9130434782608695
 40
1.0
 40
1.0
 40
1.0
 40
1.0
 10
31.6321
 20
-23.2612
 30
0.0
 10
31.6321
 20
-23.2612
 30
0.0
 10
32.003
 20
-23.2612
 30
0.0
 10
32.003
 20
-23.2612
 30
0.0
 10
32.003
 20
-23.2612
 30
0.0
 10
32.003
 20
-23.2612
 30
0.0
 10
32.003
 20
-25.3383
 30
0.0
 10
32.003
 20
-25.3383
 30
0.0
 10
32.003
 20
-25.3383
 30
0.0
 10
31.9101
 20
-25.3413
 30
0.0
 10
31.8208
 20
-25.3266
 30
0.0
 10
31.7352
 20
-25.2937
 30
0.0
 10
31.7352
 20
-25.2937
 30
0.0
 10
31.5933
 20
-25.241
 30
0.0
 10
31.4543
 20
-25.1562
 30
0.0
 10
31.3167
 20
-25.0398
 30
0.0
 10
31.3167
 20
-25.0398
 30
0.0
 10
31.1799
 20
-24.9228
 30
0.0
 10
31.0211
 20
-24.7545
 30
0.0
 10
30.8412
 20
-24.535
 30
0.0
 10
30.8412
 20
-24.535
 30
0.0
 10
30.561
 20
-24.1933
 30
0.0
 10
30.3393
 20
-23.9621
 30
0.0
 10
30.1754
 20
-23.8422
 30
0.0
 10
30.1754
 20
-23.8422
 30
0.0
 10
30.0122
 20
-23.7222
 30
0.0
 10
29.8571
 20
-23.6622
 30
0.0
 10
29.7115
 20
-23.6622
 30
0.0
 10
29.7115
 20
-23.6622
 30
0.0
 10
29.5586
 20
-23.6622
 30
0.0
 10
29.4298
 20
-23.717
 30
0.0
 10
29.3245
 20
-23.8261
 30
0.0
 10
29.3245
 20
-23.8261
 30
0.0
 10
29.2199
 20
-23.9358
 30
0.0
 10
29.1672
 20
-24.0785
 30
0.0
 10
29.1672
 20
-24.2541
 30
0.0
 10
29.1672
 20
-24.2541
 30
0.0
 10
29.1672
 20
-24.4399
 30
0.0
 10
29.2228
 20
-24.5884
 30
0.0
 10
29.3347
 20
-24.6996
 30
0.0
 10
29.3347
 20
-24.6996
 30
0.0
 10
29.4459
 20
-24.8116
 30
0.0
 10
29.6003
 20
-24.8679
 30
0.0
 10
29.7971
 20
-24.8694
 30
0.0
 10
29.7971
 20
-24.8694
 30
0.0
 10
29.7971
 20
-24.8694
 30
0.0
 10
29.7569
 20
-25.2659
 30
0.0
 10
29.7569
 20
-25.2659
 30
0.0
 10
29.7569
 20
-25.2659
 30
0.0
 10
29.4606
 20
-25.2388
 30
0.0
 10
29.2352
 20
-25.1364
 30
0.0
 10
29.0801
 20
-24.9594
 30
0.0
 10
29.0801
 20
-24.9594
 30
0.0
 10
28.925
 20
-24.7823
 30
0.0
 10
28.8475
 20
-24.5438
 30
0.0
 10
28.8475
 20
-24.2453
 30
0.0
 10
28.8475
 20
-24.2453
 30
0.0
 10
28.8475
 20
-23.9438
 30
0.0
 10
28.9316
 20
-23.7053
 30
0.0
 10
29.0984
 20
-23.5297
 30
0.0
 10
29.0984
 20
-23.5297
 30
0.0
 10
29.266
 20
-23.3534
 30
0.0
 10
29.473
 20
-23.2656
 30
0.0
 10
29.7203
 20
-23.2656
 30
0.0
 10
29.7203
 20
-23.2656
 30
0.0
 10
29.8461
 20
-23.2656
 30
0.0
 10
29.9698
 20
-23.2912
 30
0.0
 10
30.0912
 20
-23.3432
 30
0.0
 10
30.0912
 20
-23.3432
 30
0.0
 10
30.2127
 20
-23.3944
 30
0.0
 10
30.3407
 20
-23.48
 30
0.0
 10
30.4746
 20
-23.5993
 30
0.0
 10
30.4746
 20
-23.5993
 30
0.0
 10
30.6092
 20
-23.7185
 30
0.0
 10
30.7936
 20
-23.9168
 30
0.0
 10
31.0277
 20
-24.1941
 30
0.0
 10
31.0277
 20
-24.1941
 30
0.0
 10
31.2223
 20
-24.4253
 30
0.0
 10
31.354
 20
-24.5738
 30
0.0
 10
31.4235
 20
-24.6396
 30
0.0
 10
31.4235
 20
-24.6396
 30
0.0
 10
31.4923
 20
-24.7055
 30
0.0
 10
31.5618
 20
-24.7596
 30
0.0
 10
31.6321
 20
-24.8028
 30
0.0
 10
31.6321
 20
-24.8028
 30
0.0
 10
31.6321
 20
-24.8028
 30
0.0
 10
31.6321
 20
-23.2612
 30
0.0
 10
31.6321
 20
-23.2612
 30
0.0
  0
SPLINE
  5
53
330
1F
100
AcDbEntity
  8
DEFAULT_1
 62
   250
100
AcDbSpline
210
0.0
220
0.0
230
1.0
 70
    11
 71
     3
 72
   124
 73
   120
 74
     0
 42
0.0000000001
 43
0.0000000001
 40
0.0
 40
0.0
 40
0.0
 40
0.0
 40
0.032258064516129
 40
0.032258064516129
 40
0.032258064516129
 40
0.032258064516129
 40
0.0645161290322581
 40
0.0645161290322581
 40
0.0645161290322581
 40
0.0645161290322581
 40
0.0967741935483871
 40
0.0967741935483871
 40
0.0967741935483871
 40
0.0967741935483871
 40
0.1290322580645161
 40
0.1290322580645161
 40
0.1290322580645161
 40
0.1290322580645161
 40
0.1612903225806452
 40
0.1612903225806452
 40
0.1612903225806452
 40
0.1612903225806452
 40
0.1935483870967742
 40
0.1935483870967742
 40
0.1935483870967742
 40
0.1935483870967742
 40
0.2258064516129032
 40
0.2258064516129032
 40
0.2258064516129032
 40
0.2258064516129032
 40
0.2580645161290323
 40
0.2580645161290323
 40
0.2580645161290323
 40
0.2580645161290323
 40
0.2903225806451613
 40
0.2903225806451613
 40
0.2903225806451613
 40
0.2903225806451613
 40
0.3225806451612903
 40
0.3225806451612903
 40
0.3225806451612903
 40
0.3225806451612903
 40
0.3548387096774194
 40
0.3548387096774194
 40
0.3548387096774194
 40
0.3548387096774194
 40
0.3870967741935484
 40
0.3870967741935484
 40
0.3870967741935484
 40
0.3870967741935484
 40
0.4193548387096774
 40
0.4193548387096774
 40
0.4193548387096774
 40
0.4193548387096774
 40
0.4516129032258064
 40
0.4516129032258064
 40
0.4516129032258064
 40
0.4516129032258064
 40
0.4838709677419355
 40
0.4838709677419355
 40
0.4838709677419355
 40
0.4838709677419355
 40
0.5161290322580645
 40
0.5161290322580645
 40
0.5161290322580645
 40
0.5161290322580645
 40
0.5483870967741935
 40
0.5483870967741935
 40
0.5483870967741935
 40
0.5483870967741935
 40
0.5806451612903226
 40
0.5806451612903226
 40
0.5806451612903226
 40
0.5806451612903226
 40
0.6129032258064516
 40
0.6129032258064516
 40
0.6129032258064516
 40
0.6129032258064516
 40
0.6451612903225806
 40
0.6451612903225806
 40
0.6451612903225806
 40
0.6451612903225806
 40
0.6774193548387096
 40
0.6774193548387096
 40
0.6774193548387096
 40
0.6774193548387096
 40
0.7096774193548387
 40
0.7096774193548387
 40
0.7096774193548387
 40
0.7096774193548387
 40
0.7419354838709677
 40
0.7419354838709677
 40
0.7419354838709677
 40
0.7419354838709677
 40
0.7741935483870968
 40
0.7741935483870968
 40
0.7741935483870968
 40
0.7741935483870968
 40
0.8064516129032258
 40
0.8064516129032258
 40
0.8064516129032258
 40
0.8064516129032258
 40
0.8387096774193549
 40
0.8387096774193549
 40
0.8387096774193549
 40
0.8387096774193549
 40
0.8709677419354839
 40
0.8709677419354839
 40
0.8709677419354839
 40
0.8709677419354839
 40
0.9032258064516129
 40
0.9032258064516129
 40
0.9032258064516129
 40
0.9032258064516129
 40
0.9354838709677419
 40
0.9354838709677419
 40
0.9354838709677419
 40
0.9354838709677419
 40
1.0
 40
1.0
 40
1.0
 40
1.0
 10
31.1733
 20
-22.8456
 30
0.0
 10
31.1733
 20
-22.8456
 30
0.0
 10
31.1221
 20
-22.4601
 30
0.0
 10
31.1221
 20
-22.4601
 30
0.0
 10
31.1221
 20
-22.4601
 30
0.0
 10
31.3409
 20
-22.4154
 30
0.0
 10
31.4982
 20
-22.3401
 30
0.0
 10
31.5947
 20
-22.234
 30
0.0
 10
31.5947
 20
-22.234
 30
0.0
 10
31.6913
 20
-22.1272
 30
0.0
 10
31.7396
 20
-21.9977
 30
0.0
 10
31.7396
 20
-21.8448
 30
0.0
 10
31.7396
 20
-21.8448
 30
0.0
 10
31.7396
 20
-21.6633
 30
0.0
 10
31.6767
 20
-21.5097
 30
0.0
 10
31.5509
 20
-21.3846
 30
0.0
 10
31.5509
 20
-21.3846
 30
0.0
 10
31.425
 20
-21.2602
 30
0.0
 10
31.2692
 20
-21.1973
 30
0.0
 10
31.0833
 20
-21.1973
 30
0.0
 10
31.0833
 20
-21.1973
 30
0.0
 10
30.9063
 20
-21.1973
 30
0.0
 10
30.76
 20
-21.2551
 30
0.0
 10
30.6451
 20
-21.3707
 30
0.0
 10
30.6451
 20
-21.3707
 30
0.0
 10
30.5302
 20
-21.487
 30
0.0
 10
30.4724
 20
-21.634
 30
0.0
 10
30.4724
 20
-21.8126
 30
0.0
 10
30.4724
 20
-21.8126
 30
0.0
 10
30.4724
 20
-21.8857
 30
0.0
 10
30.4871
 20
-21.9764
 30
0.0
 10
30.5156
 20
-22.0847
 30
0.0
 10
30.5156
 20
-22.0847
 30
0.0
 10
30.5156
 20
-22.0847
 30
0.0
 10
30.1768
 20
-22.0416
 30
0.0
 10
30.1768
 20
-22.0416
 30
0.0
 10
30.1768
 20
-22.0416
 30
0.0
 10
30.1798
 20
-22.016
 30
0.0
 10
30.1812
 20
-21.9955
 30
0.0
 10
30.1812
 20
-21.9794
 30
0.0
 10
30.1812
 20
-21.9794
 30
0.0
 10
30.1812
 20
-21.8155
 30
0.0
 10
30.1381
 20
-21.6677
 30
0.0
 10
30.0525
 20
-21.536
 30
0.0
 10
30.0525
 20
-21.536
 30
0.0
 10
29.9669
 20
-21.4043
 30
0.0
 10
29.8344
 20
-21.3385
 30
0.0
 10
29.6559
 20
-21.3385
 30
0.0
 10
29.6559
 20
-21.3385
 30
0.0
 10
29.5147
 20
-21.3385
 30
0.0
 10
29.3969
 20
-21.3868
 30
0.0
 10
29.3047
 20
-21.4826
 30
0.0
 10
29.3047
 20
-21.4826
 30
0.0
 10
29.2118
 20
-21.5784
 30
0.0
 10
29.165
 20
-21.7021
 30
0.0
 10
29.165
 20
-21.8535
 30
0.0
 10
29.165
 20
-21.8535
 30
0.0
 10
29.165
 20
-22.0035
 30
0.0
 10
29.2126
 20
-22.1286
 30
0.0
 10
29.3062
 20
-22.2281
 30
0.0
 10
29.3062
 20
-22.2281
 30
0.0
 10
29.4006
 20
-22.3284
 30
0.0
 10
29.5425
 20
-22.3927
 30
0.0
 10
29.7313
 20
-22.4213
 30
0.0
 10
29.7313
 20
-22.4213
 30
0.0
 10
29.7313
 20
-22.4213
 30
0.0
 10
29.6625
 20
-22.8069
 30
0.0
 10
29.6625
 20
-22.8069
 30
0.0
 10
29.6625
 20
-22.8069
 30
0.0
 10
29.4035
 20
-22.76
 30
0.0
 10
29.203
 20
-22.6525
 30
0.0
 10
29.0611
 20
-22.4857
 30
0.0
 10
29.0611
 20
-22.4857
 30
0.0
 10
28.9192
 20
-22.3181
 30
0.0
 10
28.8475
 20
-22.1103
 30
0.0
 10
28.8475
 20
-21.8616
 30
0.0
 10
28.8475
 20
-21.8616
 30
0.0
 10
28.8475
 20
-21.6904
 30
0.0
 10
28.8848
 20
-21.5323
 30
0.0
 10
28.9579
 20
-21.3882
 30
0.0
 10
28.9579
 20
-21.3882
 30
0.0
 10
29.0318
 20
-21.2441
 30
0.0
 10
29.1321
 20
-21.1336
 30
0.0
 10
29.2594
 20
-21.0568
 30
0.0
 10
29.2594
 20
-21.0568
 30
0.0
 10
29.3867
 20
-20.9807
 30
0.0
 10
29.5213
 20
-20.9419
 30
0.0
 10
29.6647
 20
-20.9419
 30
0.0
 10
29.6647
 20
-20.9419
 30
0.0
 10
29.8001
 20
-20.9419
 30
0.0
 10
29.9237
 20
-20.9785
 30
0.0
 10
30.0356
 20
-21.0517
 30
0.0
 10
30.0356
 20
-21.0517
 30
0.0
 10
30.1468
 20
-21.1248
 30
0.0
 10
30.2354
 20
-21.2324
 30
0.0
 10
30.3012
 20
-21.375
 30
0.0
 10
30.3012
 20
-21.375
 30
0.0
 10
30.3437
 20
-21.1892
 30
0.0
 10
30.4329
 20
-21.0451
 30
0.0
 10
30.5683
 20
-20.9419
 30
0.0
 10
30.5683
 20
-20.9419
 30
0.0
 10
30.7029
 20
-20.8395
 30
0.0
 10
30.8719
 20
-20.7883
 30
0.0
 10
31.0746
 20
-20.7883
 30
0.0
 10
31.0746
 20
-20.7883
 30
0.0
 10
31.3489
 20
-20.7883
 30
0.0
 10
31.5816
 20
-20.8878
 30
0.0
 10
31.7725
 20
-21.0882
 30
0.0
 10
31.7725
 20
-21.0882
 30
0.0
 10
31.9635
 20
-21.288
 30
0.0
 10
32.0586
 20
-21.5411
 30
0.0
 10
32.0586
 20
-21.8469
 30
0.0
 10
32.0586
 20
-21.8469
 30
0.0
 10
32.0586
 20
-22.1228
 30
0.0
 10
31.9767
 20
-22.3518
 30
0.0
 10
31.812
 20
-22.534
 30
0.0
 10
31.812
 20
-22.534
 30
0.0
 10
31.6482
 20
-22.7161
 30
0.0
 10
31.4353
 20
-22.82
 30
0.0
 10
31.1733
 20
-22.8456
 30
0.0
  0
SPLINE
  5
54
330
1F
100
AcDbEntity
  8
DEFAULT_1
 62
   250
100
AcDbSpline
210
0.0
220
0.0
230
1.0
 70
    11
 71
     3
 72
    52
 73
    48
 74
     0
 42
0.0000000001
 43
0.0000000001
 40
0.0
 40
0.0
 40
0.0
 40
0.0
 40
0.0769230769230769
 40
0.0769230769230769
 40
0.0769230769230769
 40
0.0769230769230769
 40
0.1538461538461539
 40
0.1538461538461539
 40
0.1538461538461539
 40
0.1538461538461539
 40
0.2307692307692308
 40
0.2307692307692308
 40
0.2307692307692308
 40
0.2307692307692308
 40
0.3076923076923077
 40
0.3076923076923077
 40
0.3076923076923077
 40
0.3076923076923077
 40
0.3846153846153846
 40
0.3846153846153846
 40
0.3846153846153846
 40
0.3846153846153846
 40
0.4615384615384616
 40
0.4615384615384616
 40
0.4615384615384616
 40
0.4615384615384616
 40
0.5384615384615384
 40
0.5384615384615384
 40
0.5384615384615384
 40
0.5384615384615384
 40
0.6153846153846154
 40
0.6153846153846154
 40
0.6153846153846154
 40
0.6153846153846154
 40
0.6923076923076923
 40
0.6923076923076923
 40
0.6923076923076923
 40
0.6923076923076923
 40
0.7692307692307693
 40
0.7692307692307693
 40
0.7692307692307693
 40
0.7692307692307693
 40
0.8461538461538461
 40
0.8461538461538461
 40
0.8461538461538461
 40
0.8461538461538461
 40
1.0
 40
1.0
 40
1.0
 40
1.0
 10
30.4534
 20
-20.4063
 30
0.0
 10
30.0817
 20
-20.4063
 30
0.0
 10
29.7825
 20
-20.3683
 30
0.0
 10
29.5564
 20
-20.2915
 30
0.0
 10
29.5564
 20
-20.2915
 30
0.0
 10
29.3296
 20
-20.2154
 30
0.0
 10
29.1548
 20
-20.1012
 30
0.0
 10
29.0318
 20
-19.9505
 30
0.0
 10
29.0318
 20
-19.9505
 30
0.0
 10
28.9089
 20
-19.7998
 30
0.0
 10
28.8475
 20
-19.6103
 30
0.0
 10
28.8475
 20
-19.382
 30
0.0
 10
28.8475
 20
-19.382
 30
0.0
 10
28.8475
 20
-19.213
 30
0.0
 10
28.8819
 20
-19.0652
 30
0.0
 10
28.9499
 20
-18.9379
 30
0.0
 10
28.9499
 20
-18.9379
 30
0.0
 10
29.0172
 20
-18.8106
 30
0.0
 10
29.1152
 20
-18.706
 30
0.0
 10
29.2433
 20
-18.6226
 30
0.0
 10
29.2433
 20
-18.6226
 30
0.0
 10
29.3713
 20
-18.5399
 30
0.0
 10
29.5272
 20
-18.4748
 30
0.0
 10
29.7108
 20
-18.428
 30
0.0
 10
29.7108
 20
-18.428
 30
0.0
 10
29.8944
 20
-18.3804
 30
0.0
 10
30.1417
 20
-18.357
 30
0.0
 10
30.4534
 20
-18.357
 30
0.0
 10
30.4534
 20
-18.357
 30
0.0
 10
30.8221
 20
-18.357
 30
0.0
 10
31.1192
 20
-18.3951
 30
0.0
 10
31.346
 20
-18.4704
 30
0.0
 10
31.346
 20
-18.4704
 30
0.0
 10
31.5728
 20
-18.5465
 30
0.0
 10
31.7477
 20
-18.6599
 30
0.0
 10
31.8713
 20
-18.8106
 30
0.0
 10
31.8713
 20
-18.8106
 30
0.0
 10
31.995
 20
-18.9613
 30
0.0
 10
32.0564
 20
-19.1516
 30
0.0
 10
32.0564
 20
-19.382
 30
0.0
 10
32.0564
 20
-19.382
 30
0.0
 10
32.0564
 20
-19.6849
 30
0.0
 10
31.9481
 20
-19.9227
 30
0.0
 10
31.7308
 20
-20.0954
 30
0.0
 10
31.7308
 20
-20.0954
 30
0.0
 10
31.4696
 20
-20.3024
 30
0.0
 10
31.0431
 20
-20.4063
 30
0.0
 10
30.4534
 20
-20.4063
 30
0.0
  0
SPLINE
  5
55
330
1F
100
AcDbEntity
  8
DEFAULT_1
 62
   250
100
AcDbSpline
210
0.0
220
0.0
230
1.0
 70
    11
 71
     3
 72
    36
 73
    32
 74
     0
 42
0.0000000001
 43
0.0000000001
 40
0.0
 40
0.0
 40
0.0
 40
0.0
 40
0.1111111111111111
 40
0.1111111111111111
 40
0.1111111111111111
 40
0.1111111111111111
 40
0.2222222222222222
 40
0.2222222222222222
 40
0.2222222222222222
 40
0.2222222222222222
 40
0.3333333333333333
 40
0.3333333333333333
 40
0.3333333333333333
 40
0.3333333333333333
 40
0.4444444444444444
 40
0.4444444444444444
 40
0.4444444444444444
 40
0.4444444444444444
 40
0.5555555555555556
 40
0.5555555555555556
 40
0.5555555555555556
 40
0.5555555555555556
 40
0.6666666666666666
 40
0.6666666666666666
 40
0.6666666666666666
 40
0.6666666666666666
 40
0.7777777777777778
 40
0.7777777777777778
 40
0.7777777777777778
 40
0.7777777777777778
 40
1.0
 40
1.0
 40
1.0
 40
1.0
 10
30.4534
 20
-20.0098
 30
0.0
 10
30.9692
 20
-20.0098
 30
0.0
 10
31.3123
 20
-19.9491
 30
0.0
 10
31.4835
 20
-19.8283
 30
0.0
 10
31.4835
 20
-19.8283
 30
0.0
 10
31.654
 20
-19.7076
 30
0.0
 10
31.7396
 20
-19.5591
 30
0.0
 10
31.7396
 20
-19.382
 30
0.0
 10
31.7396
 20
-19.382
 30
0.0
 10
31.7396
 20
-19.2042
 30
0.0
 10
31.6533
 20
-19.0557
 30
0.0
 10
31.4821
 20
-18.935
 30
0.0
 10
31.4821
 20
-18.935
 30
0.0
 10
31.3109
 20
-18.8143
 30
0.0
 10
30.9677
 20
-18.7536
 30
0.0
 10
30.4534
 20
-18.7536
 30
0.0
 10
30.4534
 20
-18.7536
 30
0.0
 10
29.9361
 20
-18.7536
 30
0.0
 10
29.5923
 20
-18.8143
 30
0.0
 10
29.4225
 20
-18.935
 30
0.0
 10
29.4225
 20
-18.935
 30
0.0
 10
29.2521
 20
-19.0557
 30
0.0
 10
29.1672
 20
-19.2057
 30
0.0
 10
29.1672
 20
-19.3857
 30
0.0
 10
29.1672
 20
-19.3857
 30
0.0
 10
29.1672
 20
-19.5635
 30
0.0
 10
29.2425
 20
-19.7047
 30
0.0
 10
29.3925
 20
-19.8108
 30
0.0
 10
29.3925
 20
-19.8108
 30
0.0
 10
29.5835
 20
-19.9432
 30
0.0
 10
29.9376
 20
-20.0098
 30
0.0
 10
30.4534
 20
-20.0098
 30
0.0
  0
SPLINE
  5
56
330
1F
100
AcDbEntity
  8
DEFAULT_1
 62
   250
100
AcDbSpline
210
0.0
220
0.0
230
1.0
 70
    11
 71
     3
 72
    20
 73
    16
 74
     0
 42
0.0000000001
 43
0.0000000001
 40
0.0
 40
0.0
 40
0.0
 40
0.0
 40
0.2
 40
0.2
 40
0.2
 40
0.2
 40
0.4
 40
0.4
 40
0.4
 40
0.4
 40
0.6
 40
0.6
 40
0.6
 40
0.6
 40
1.0
 40
1.0
 40
1.0
 40
1.0
 10
-24.3079
 20
24.1888
 30
0.0
 10
-24.3079
 20
24.1888
 30
0.0
 10
-23.7591
 20
28.0776
 30
0.0
 10
-23.7591
 20
28.0776
 30
0.0
 10
-23.7591
 20
28.0776
 30
0.0
 10
-23.7591
 20
28.0776
 30
0.0
 10
-23.6372
 20
28.0776
 30
0.0
 10
-23.6372
 20
28.0776
 30
0.0
 10
-23.6372
 20
28.0776
 30
0.0
 10
-23.6372
 20
28.0776
 30
0.0
 10
-23.0519
 20
24.1888
 30
0.0
 10
-23.0519
 20
24.1888
 30
0.0
 10
-23.0519
 20
24.1888
 30
0.0
 10
-23.0519
 20
24.1888
 30
0.0
 10
-24.3079
 20
24.1888
 30
0.0
 10
-24.3079
 20
24.1888
 30
0.0
  0
SPLINE
  5
57
330
1F
100
AcDbEntity
  8
DEFAULT_1
 62
   250
100
AcDbSpline
210
0.0
220
0.0
230
1.0
 70
    11
 71
     3
 72
    20
 73
    16
 74
     0
 42
0.0000000001
 43
0.0000000001
 40
0.0
 40
0.0
 40
0.0
 40
0.0
 40
0.2
 40
0.2
 40
0.2
 40
0.2
 40
0.4
 40
0.4
 40
0.4
 40
0.4
 40
0.6
 40
0.6
 40
0.6
 40
0.6
 40
1.0
 40
1.0
 40
1.0
 40
1.0
 10
-23.0971
 20
9.3907
 30
0.0
 10
-23.0971
 20
9.3907
 30
0.0
 10
-23.6459
 20
5.502
 30
0.0
 10
-23.6459
 20
5.502
 30
0.0
 10
-23.6459
 20
5.502
 30
0.0
 10
-23.6459
 20
5.502
 30
0.0
 10
-23.7678
 20
5.502
 30
0.0
 10
-23.7678
 20
5.502
 30
0.0
 10
-23.7678
 20
5.502
 30
0.0
 10
-23.7678
 20
5.502
 30
0.0
 10
-24.3531
 20
9.3907
 30
0.0
 10
-24.3531
 20
9.3907
 30
0.0
 10
-24.3531
 20
9.3907
 30
0.0
 10
-24.3531
 20
9.3907
 30
0.0
 10
-23.0971
 20
9.3907
 30
0.0
 10
-23.0971
 20
9.3907
 30
0.0
  0
SPLINE
  5
58
330
1F
100
AcDbEntity
  8
DEFAULT_1
 62
   250
100
AcDbSpline
210
0.0
220
0.0
230
1.0
 70
    11
 71
     3
 72
    20
 73
    16
 74
     0
 42
0.0000000001
 43
0.0000000001
 40
0.0
 40
0.0
 40
0.0
 40
0.0
 40
0.2
 40
0.2
 40
0.2
 40
0.2
 40
0.4
 40
0.4
 40
0.4
 40
0.4
 40
0.6
 40
0.6
 40
0.6
 40
0.6
 40
1.0
 40
1.0
 40
1.0
 40
1.0
 10
-3.6013
 20
50.0564
 30
0.0
 10
-3.6013
 20
50.0564
 30
0.0
 10
0.2874
 20
49.5076
 30
0.0
 10
0.2874
 20
49.5076
 30
0.0
 10
0.2874
 20
49.5076
 30
0.0
 10
0.2874
 20
49.5076
 30
0.0
 10
0.2874
 20
49.3857
 30
0.0
 10
0.2874
 20
49.3857
 30
0.0
 10
0.2874
 20
49.3857
 30
0.0
 10
0.2874
 20
49.3857
 30
0.0
 10
-3.6013
 20
48.8004
 30
0.0
 10
-3.6013
 20
48.8004
 30
0.0
 10
-3.6013
 20
48.8004
 30
0.0
 10
-3.6013
 20
48.8004
 30
0.0
 10
-3.6013
 20
50.0564
 30
0.0
 10
-3.6013
 20
50.0564
 30
0.0
  0
SPLINE
  5
59
330
1F
100
AcDbEntity
  8
DEFAULT_1
 62
   250
100
AcDbSpline
210
0.0
220
0.0
230
1.0
 70
    11
 71
     3
 72
    20
 73
    16
 74
     0
 42
0.0000000001
 43
0.0000000001
 40
0.0
 40
0.0
 40
0.0
 40
0.0
 40
0.2
 40
0.2
 40
0.2
 40
0.2
 40
0.4
 40
0.4
 40
0.4
 40
0.4
 40
0.6
 40
0.6
 40
0.6
 40
0.6
 40
1.0
 40
1.0
 40
1.0
 40
1.0
 10
17.0117
 20
48.84
 30
0.0
 10
17.0117
 20
48.84
 30
0.0
 10
13.1229
 20
49.3888
 30
0.0
 10
13.1229
 20
49.3888
 30
0.0
 10
13.1229
 20
49.3888
 30
0.0
 10
13.1229
 20
49.3888
 30
0.0
 10
13.1229
 20
49.5107
 30
0.0
 10
13.1229
 20
49.5107
 30
0.0
 10
13.1229
 20
49.5107
 30
0.0
 10
13.1229
 20
49.5107
 30
0.0
 10
17.0117
 20
50.096
 30
0.0
 10
17.0117
 20
50.096
 30
0.0
 10
17.0117
 20
50.096
 30
0.0
 10
17.0117
 20
50.096
 30
0.0
 10
17.0117
 20
48.84
 30
0.0
 10
17.0117
 20
48.84
 30
0.0
  0
SPLINE
  5
5A
330
1F
100
AcDbEntity
  8
DEFAULT_1
 62
   250
100
AcDbSpline
210
0.0
220
0.0
230
1.0
 70
    11
 71
     3
 72
   120
 73
   116
 74
     0
 42
0.0000000001
 43
0.0000000001
 40
0.0
 40
0.0
 40
0.0
 40
0.0
 40
0.0333333333333333
 40
0.0333333333333333
 40
0.0333333333333333
 40
0.0333333333333333
 40
0.0666666666666667
 40
0.0666666666666667
 40
0.0666666666666667
 40
0.0666666666666667
 40
0.1
 40
0.1
 40
0.1
 40
0.1
 40
0.1333333333333333
 40
0.1333333333333333
 40
0.1333333333333333
 40
0.1333333333333333
 40
0.1666666666666667
 40
0.1666666666666667
 40
0.1666666666666667
 40
0.1666666666666667
 40
0.2
 40
0.2
 40
0.2
 40
0.2
 40
0.2333333333333333
 40
0.2333333333333333
 40
0.2333333333333333
 40
0.2333333333333333
 40
0.2666666666666667
 40
0.2666666666666667
 40
0.2666666666666667
 40
0.2666666666666667
 40
0.3
 40
0.3
 40
0.3
 40
0.3
 40
0.3333333333333333
 40
0.3333333333333333
 40
0.3333333333333333
 40
0.3333333333333333
 40
0.3666666666666666
 40
0.3666666666666666
 40
0.3666666666666666
 40
0.3666666666666666
 40
0.4
 40
0.4
 40
0.4
 40
0.4
 40
0.4333333333333333
 40
0.4333333333333333
 40
0.4333333333333333
 40
0.4333333333333333
 40
0.4666666666666667
 40
0.4666666666666667
 40
0.4666666666666667
 40
0.4666666666666667
 40
0.5
 40
0.5
 40
0.5
 40
0.5
 40
0.5333333333333333
 40
0.5333333333333333
 40
0.5333333333333333
 40
0.5333333333333333
 40
0.5666666666666667
 40
0.5666666666666667
 40
0.5666666666666667
 40
0.5666666666666667
 40
0.6
 40
0.6
 40
0.6
 40
0.6
 40
0.6333333333333333
 40
0.6333333333333333
 40
0.6333333333333333
 40
0.6333333333333333
 40
0.6666666666666666
 40
0.6666666666666666
 40
0.6666666666666666
 40
0.6666666666666666
 40
0.7
 40
0.7
 40
0.7
 40
0.7
 40
0.7333333333333333
 40
0.7333333333333333
 40
0.7333333333333333
 40
0.7333333333333333
 40
0.7666666666666667
 40
0.7666666666666667
 40
0.7666666666666667
 40
0.7666666666666667
 40
0.8
 40
0.8
 40
0.8
 40
0.8
 40
0.8333333333333334
 40
0.8333333333333334
 40
0.8333333333333334
 40
0.8333333333333334
 40
0.8666666666666667
 40
0.8666666666666667
 40
0.8666666666666667
 40
0.8666666666666667
 40
0.9
 40
0.9
 40
0.9
 40
0.9
 40
0.9333333333333333
 40
0.9333333333333333
 40
0.9333333333333333
 40
0.9333333333333333
 40
1.0
 40
1.0
 40
1.0
 40
1.0
 10
2.582
 20
51.7903
 30
0.0
 10
2.582
 20
51.7903
 30
0.0
 10
2.582
 20
52.1583
 30
0.0
 10
2.582
 20
52.1583
 30
0.0
 10
2.582
 20
52.1583
 30
0.0
 10
2.582
 20
52.1583
 30
0.0
 10
3.9129
 20
52.1605
 30
0.0
 10
3.9129
 20
52.1605
 30
0.0
 10
3.9129
 20
52.1605
 30
0.0
 10
3.9129
 20
52.1605
 30
0.0
 10
3.9129
 20
50.995
 30
0.0
 10
3.9129
 20
50.995
 30
0.0
 10
3.9129
 20
50.995
 30
0.0
 10
3.7087
 20
50.8319
 30
0.0
 10
3.498
 20
50.7097
 30
0.0
 10
3.2807
 20
50.627
 30
0.0
 10
3.2807
 20
50.627
 30
0.0
 10
3.0634
 20
50.5451
 30
0.0
 10
2.8403
 20
50.5041
 30
0.0
 10
2.612
 20
50.5041
 30
0.0
 10
2.612
 20
50.5041
 30
0.0
 10
2.3033
 20
50.5041
 30
0.0
 10
2.0223
 20
50.5699
 30
0.0
 10
1.7706
 20
50.7024
 30
0.0
 10
1.7706
 20
50.7024
 30
0.0
 10
1.5182
 20
50.8341
 30
0.0
 10
1.328
 20
51.0257
 30
0.0
 10
1.1992
 20
51.2752
 30
0.0
 10
1.1992
 20
51.2752
 30
0.0
 10
1.0705
 20
51.5255
 30
0.0
 10
1.0061
 20
51.8049
 30
0.0
 10
1.0061
 20
52.1137
 30
0.0
 10
1.0061
 20
52.1137
 30
0.0
 10
1.0061
 20
52.4195
 30
0.0
 10
1.0705
 20
52.7048
 30
0.0
 10
1.1985
 20
52.9697
 30
0.0
 10
1.1985
 20
52.9697
 30
0.0
 10
1.3258
 20
53.2353
 30
0.0
 10
1.5102
 20
53.4321
 30
0.0
 10
1.7502
 20
53.5609
 30
0.0
 10
1.7502
 20
53.5609
 30
0.0
 10
1.9901
 20
53.6889
 30
0.0
 10
2.2667
 20
53.7533
 30
0.0
 10
2.5798
 20
53.7533
 30
0.0
 10
2.5798
 20
53.7533
 30
0.0
 10
2.8066
 20
53.7533
 30
0.0
 10
3.0122
 20
53.7167
 30
0.0
 10
3.1959
 20
53.6428
 30
0.0
 10
3.1959
 20
53.6428
 30
0.0
 10
3.3795
 20
53.5696
 30
0.0
 10
3.5236
 20
53.4672
 30
0.0
 10
3.6275
 20
53.3355
 30
0.0
 10
3.6275
 20
53.3355
 30
0.0
 10
3.7322
 20
53.2038
 30
0.0
 10
3.8112
 20
53.0326
 30
0.0
 10
3.866
 20
52.8212
 30
0.0
 10
3.866
 20
52.8212
 30
0.0
 10
3.866
 20
52.8212
 30
0.0
 10
3.4907
 20
52.718
 30
0.0
 10
3.4907
 20
52.718
 30
0.0
 10
3.4907
 20
52.718
 30
0.0
 10
3.4432
 20
52.8782
 30
0.0
 10
3.3846
 20
53.0041
 30
0.0
 10
3.3151
 20
53.0955
 30
0.0
 10
3.3151
 20
53.0955
 30
0.0
 10
3.2449
 20
53.187
 30
0.0
 10
3.1447
 20
53.2602
 30
0.0
 10
3.0144
 20
53.315
 30
0.0
 10
3.0144
 20
53.315
 30
0.0
 10
2.8849
 20
53.3699
 30
0.0
 10
2.7401
 20
53.3977
 30
0.0
 10
2.582
 20
53.3977
 30
0.0
 10
2.582
 20
53.3977
 30
0.0
 10
2.3918
 20
53.3977
 30
0.0
 10
2.2272
 20
53.3684
 30
0.0
 10
2.0889
 20
53.3106
 30
0.0
 10
2.0889
 20
53.3106
 30
0.0
 10
1.9499
 20
53.2528
 30
0.0
 10
1.8387
 20
53.1767
 30
0.0
 10
1.7531
 20
53.0824
 30
0.0
 10
1.7531
 20
53.0824
 30
0.0
 10
1.6682
 20
52.988
 30
0.0
 10
1.6024
 20
52.8848
 30
0.0
 10
1.5548
 20
52.7714
 30
0.0
 10
1.5548
 20
52.7714
 30
0.0
 10
1.4751
 20
52.5775
 30
0.0
 10
1.4348
 20
52.3668
 30
0.0
 10
1.4348
 20
52.1393
 30
0.0
 10
1.4348
 20
52.1393
 30
0.0
 10
1.4348
 20
51.8591
 30
0.0
 10
1.4831
 20
51.625
 30
0.0
 10
1.5797
 20
51.4362
 30
0.0
 10
1.5797
 20
51.4362
 30
0.0
 10
1.6763
 20
51.2474
 30
0.0
 10
1.8167
 20
51.1077
 30
0.0
 10
2.0011
 20
51.0162
 30
0.0
 10
2.0011
 20
51.0162
 30
0.0
 10
2.1855
 20
50.9248
 30
0.0
 10
2.3808
 20
50.8787
 30
0.0
 10
2.5879
 20
50.8787
 30
0.0
 10
2.5879
 20
50.8787
 30
0.0
 10
2.7686
 20
50.8787
 30
0.0
 10
2.9442
 20
50.9138
 30
0.0
 10
3.1154
 20
50.9833
 30
0.0
 10
3.1154
 20
50.9833
 30
0.0
 10
3.2873
 20
51.0521
 30
0.0
 10
3.4168
 20
51.126
 30
0.0
 10
3.5054
 20
51.205
 30
0.0
 10
3.5054
 20
51.205
 30
0.0
 10
3.5054
 20
51.205
 30
0.0
 10
3.5054
 20
51.7903
 30
0.0
 10
3.5054
 20
51.7903
 30
0.0
 10
3.5054
 20
51.7903
 30
0.0
 10
3.5054
 20
51.7903
 30
0.0
 10
2.582
 20
51.7903
 30
0.0
 10
2.582
 20
51.7903
 30
0.0
  0
SPLINE
  5
5B
330
1F
100
AcDbEntity
  8
DEFAULT_1
 62
   250
100
AcDbSpline
210
0.0
220
0.0
230
1.0
 70
    11
 71
     3
 72
    80
 73
    76
 74
     0
 42
0.0000000001
 43
0.0000000001
 40
0.0
 40
0.0
 40
0.0
 40
0.0
 40
0.05
 40
0.05
 40
0.05
 40
0.05
 40
0.1
 40
0.1
 40
0.1
 40
0.1
 40
0.15
 40
0.15
 40
0.15
 40
0.15
 40
0.2
 40
0.2
 40
0.2
 40
0.2
 40
0.25
 40
0.25
 40
0.25
 40
0.25
 40
0.3
 40
0.3
 40
0.3
 40
0.3
 40
0.35
 40
0.35
 40
0.35
 40
0.35
 40
0.4
 40
0.4
 40
0.4
 40
0.4
 40
0.45
 40
0.45
 40
0.45
 40
0.45
 40
0.5
 40
0.5
 40
0.5
 40
0.5
 40
0.55
 40
0.55
 40
0.55
 40
0.55
 40
0.6
 40
0.6
 40
0.6
 40
0.6
 40
0.65
 40
0.65
 40
0.65
 40
0.65
 40
0.7
 40
0.7
 40
0.7
 40
0.7
 40
0.75
 40
0.75
 40
0.75
 40
0.75
 40
0.8
 40
0.8
 40
0.8
 40
0.8
 40
0.85
 40
0.85
 40
0.85
 40
0.85
 40
0.9
 40
0.9
 40
0.9
 40
0.9
 40
1.0
 40
1.0
 40
1.0
 40
1.0
 10
7.5907
 20
52.9302
 30
0.0
 10
7.5907
 20
52.9302
 30
0.0
 10
7.2073
 20
52.9002
 30
0.0
 10
7.2073
 20
52.9002
 30
0.0
 10
7.2073
 20
52.9002
 30
0.0
 10
7.173
 20
53.0516
 30
0.0
 10
7.1247
 20
53.1621
 30
0.0
 10
7.0618
 20
53.2302
 30
0.0
 10
7.0618
 20
53.2302
 30
0.0
 10
6.9571
 20
53.3406
 30
0.0
 10
6.8284
 20
53.3955
 30
0.0
 10
6.6755
 20
53.3955
 30
0.0
 10
6.6755
 20
53.3955
 30
0.0
 10
6.5525
 20
53.3955
 30
0.0
 10
6.445
 20
53.3611
 30
0.0
 10
6.3521
 20
53.2923
 30
0.0
 10
6.3521
 20
53.2923
 30
0.0
 10
6.2306
 20
53.2038
 30
0.0
 10
6.1348
 20
53.0743
 30
0.0
 10
6.0645
 20
52.9046
 30
0.0
 10
6.0645
 20
52.9046
 30
0.0
 10
5.995
 20
52.7348
 30
0.0
 10
5.9585
 20
52.4927
 30
0.0
 10
5.9555
 20
52.1781
 30
0.0
 10
5.9555
 20
52.1781
 30
0.0
 10
6.0484
 20
52.3193
 30
0.0
 10
6.1618
 20
52.4246
 30
0.0
 10
6.2965
 20
52.4934
 30
0.0
 10
6.2965
 20
52.4934
 30
0.0
 10
6.4304
 20
52.5614
 30
0.0
 10
6.5716
 20
52.5958
 30
0.0
 10
6.7186
 20
52.5958
 30
0.0
 10
6.7186
 20
52.5958
 30
0.0
 10
6.9762
 20
52.5958
 30
0.0
 10
7.1949
 20
52.5014
 30
0.0
 10
7.3756
 20
52.312
 30
0.0
 10
7.3756
 20
52.312
 30
0.0
 10
7.5563
 20
52.1225
 30
0.0
 10
7.6471
 20
51.8781
 30
0.0
 10
7.6471
 20
51.5781
 30
0.0
 10
7.6471
 20
51.5781
 30
0.0
 10
7.6471
 20
51.3806
 30
0.0
 10
7.6039
 20
51.1977
 30
0.0
 10
7.519
 20
51.0279
 30
0.0
 10
7.519
 20
51.0279
 30
0.0
 10
7.4342
 20
50.8589
 30
0.0
 10
7.3171
 20
50.7287
 30
0.0
 10
7.1686
 20
50.6387
 30
0.0
 10
7.1686
 20
50.6387
 30
0.0
 10
7.0201
 20
50.5487
 30
0.0
 10
6.8518
 20
50.5041
 30
0.0
 10
6.663
 20
50.5041
 30
0.0
 10
6.663
 20
50.5041
 30
0.0
 10
6.3411
 20
50.5041
 30
0.0
 10
6.0792
 20
50.6219
 30
0.0
 10
5.8765
 20
50.8589
 30
0.0
 10
5.8765
 20
50.8589
 30
0.0
 10
5.6731
 20
51.0953
 30
0.0
 10
5.5721
 20
51.4852
 30
0.0
 10
5.5721
 20
52.0281
 30
0.0
 10
5.5721
 20
52.0281
 30
0.0
 10
5.5721
 20
52.6353
 30
0.0
 10
5.6841
 20
53.0765
 30
0.0
 10
5.9087
 20
53.3523
 30
0.0
 10
5.9087
 20
53.3523
 30
0.0
 10
6.104
 20
53.5923
 30
0.0
 10
6.3674
 20
53.713
 30
0.0
 10
6.6996
 20
53.713
 30
0.0
 10
6.6996
 20
53.713
 30
0.0
 10
6.9462
 20
53.713
 30
0.0
 10
7.1488
 20
53.6435
 30
0.0
 10
7.3069
 20
53.5045
 30
0.0
 10
7.3069
 20
53.5045
 30
0.0
 10
7.4649
 20
53.3662
 30
0.0
 10
7.5593
 20
53.1746
 30
0.0
 10
7.5907
 20
52.9302
 30
0.0
  0
SPLINE
  5
5C
330
1F
100
AcDbEntity
  8
DEFAULT_1
 62
   250
100
AcDbSpline
210
0.0
220
0.0
230
1.0
 70
    11
 71
     3
 72
    40
 73
    36
 74
     0
 42
0.0000000001
 43
0.0000000001
 40
0.0
 40
0.0
 40
0.0
 40
0.0
 40
0.1
 40
0.1
 40
0.1
 40
0.1
 40
0.2
 40
0.2
 40
0.2
 40
0.2
 40
0.3
 40
0.3
 40
0.3
 40
0.3
 40
0.4
 40
0.4
 40
0.4
 40
0.4
 40
0.5
 40
0.5
 40
0.5
 40
0.5
 40
0.6
 40
0.6
 40
0.6
 40
0.6
 40
0.7
 40
0.7
 40
0.7
 40
0.7
 40
0.8
 40
0.8
 40
0.8
 40
0.8
 40
1.0
 40
1.0
 40
1.0
 40
1.0
 10
6.0155
 20
51.5759
 30
0.0
 10
6.0155
 20
51.4428
 30
0.0
 10
6.0441
 20
51.3155
 30
0.0
 10
6.1004
 20
51.194
 30
0.0
 10
6.1004
 20
51.194
 30
0.0
 10
6.1567
 20
51.0726
 30
0.0
 10
6.2357
 20
50.9804
 30
0.0
 10
6.3367
 20
50.9167
 30
0.0
 10
6.3367
 20
50.9167
 30
0.0
 10
6.4384
 20
50.8531
 30
0.0
 10
6.5452
 20
50.8209
 30
0.0
 10
6.6564
 20
50.8209
 30
0.0
 10
6.6564
 20
50.8209
 30
0.0
 10
6.8196
 20
50.8209
 30
0.0
 10
6.9593
 20
50.8867
 30
0.0
 10
7.0764
 20
51.0184
 30
0.0
 10
7.0764
 20
51.0184
 30
0.0
 10
7.1934
 20
51.1501
 30
0.0
 10
7.252
 20
51.3286
 30
0.0
 10
7.252
 20
51.554
 30
0.0
 10
7.252
 20
51.554
 30
0.0
 10
7.252
 20
51.7713
 30
0.0
 10
7.1942
 20
51.9425
 30
0.0
 10
7.0786
 20
52.0676
 30
0.0
 10
7.0786
 20
52.0676
 30
0.0
 10
6.963
 20
52.1927
 30
0.0
 10
6.8174
 20
52.2549
 30
0.0
 10
6.6418
 20
52.2549
 30
0.0
 10
6.6418
 20
52.2549
 30
0.0
 10
6.4669
 20
52.2549
 30
0.0
 10
6.3191
 20
52.1927
 30
0.0
 10
6.1977
 20
52.0676
 30
0.0
 10
6.1977
 20
52.0676
 30
0.0
 10
6.0762
 20
51.9425
 30
0.0
 10
6.0155
 20
51.7786
 30
0.0
 10
6.0155
 20
51.5759
 30
0.0
  0
SPLINE
  5
5D
330
1F
100
AcDbEntity
  8
DEFAULT_1
 62
   250
100
AcDbSpline
210
0.0
220
0.0
230
1.0
 70
    11
 71
     3
 72
    20
 73
    16
 74
     0
 42
0.0000000001
 43
0.0000000001
 40
0.0
 40
0.0
 40
0.0
 40
0.0
 40
0.2
 40
0.2
 40
0.2
 40
0.2
 40
0.4
 40
0.4
 40
0.4
 40
0.4
 40
0.6
 40
0.6
 40
0.6
 40
0.6
 40
1.0
 40
1.0
 40
1.0
 40
1.0
 10
7.8483
 20
50.5041
 30
0.0
 10
7.8483
 20
50.5041
 30
0.0
 10
8.7592
 20
53.7533
 30
0.0
 10
8.7592
 20
53.7533
 30
0.0
 10
8.7592
 20
53.7533
 30
0.0
 10
8.7592
 20
53.7533
 30
0.0
 10
9.0679
 20
53.7533
 30
0.0
 10
9.0679
 20
53.7533
 30
0.0
 10
9.0679
 20
53.7533
 30
0.0
 10
9.0679
 20
53.7533
 30
0.0
 10
8.1592
 20
50.5041
 30
0.0
 10
8.1592
 20
50.5041
 30
0.0
 10
8.1592
 20
50.5041
 30
0.0
 10
8.1592
 20
50.5041
 30
0.0
 10
7.8483
 20
50.5041
 30
0.0
 10
7.8483
 20
50.5041
 30
0.0
  0
SPLINE
  5
5E
330
1F
100
AcDbEntity
  8
DEFAULT_1
 62
   250
100
AcDbSpline
210
0.0
220
0.0
230
1.0
 70
    11
 71
     3
 72
    48
 73
    44
 74
     0
 42
0.0000000001
 43
0.0000000001
 40
0.0
 40
0.0
 40
0.0
 40
0.0
 40
0.0833333333333333
 40
0.0833333333333333
 40
0.0833333333333333
 40
0.0833333333333333
 40
0.1666666666666667
 40
0.1666666666666667
 40
0.1666666666666667
 40
0.1666666666666667
 40
0.25
 40
0.25
 40
0.25
 40
0.25
 40
0.3333333333333333
 40
0.3333333333333333
 40
0.3333333333333333
 40
0.3333333333333333
 40
0.4166666666666667
 40
0.4166666666666667
 40
0.4166666666666667
 40
0.4166666666666667
 40
0.5
 40
0.5
 40
0.5
 40
0.5
 40
0.5833333333333334
 40
0.5833333333333334
 40
0.5833333333333334
 40
0.5833333333333334
 40
0.6666666666666666
 40
0.6666666666666666
 40
0.6666666666666666
 40
0.6666666666666666
 40
0.75
 40
0.75
 40
0.75
 40
0.75
 40
0.8333333333333334
 40
0.8333333333333334
 40
0.8333333333333334
 40
0.8333333333333334
 40
1.0
 40
1.0
 40
1.0
 40
1.0
 10
10.4865
 20
50.5575
 30
0.0
 10
10.4865
 20
50.5575
 30
0.0
 10
10.4865
 20
51.3096
 30
0.0
 10
10.4865
 20
51.3096
 30
0.0
 10
10.4865
 20
51.3096
 30
0.0
 10
10.4865
 20
51.3096
 30
0.0
 10
9.1235
 20
51.3096
 30
0.0
 10
9.1235
 20
51.3096
 30
0.0
 10
9.1235
 20
51.3096
 30
0.0
 10
9.1235
 20
51.3096
 30
0.0
 10
9.1235
 20
51.6637
 30
0.0
 10
9.1235
 20
51.6637
 30
0.0
 10
9.1235
 20
51.6637
 30
0.0
 10
9.1235
 20
51.6637
 30
0.0
 10
10.5575
 20
53.6999
 30
0.0
 10
10.5575
 20
53.6999
 30
0.0
 10
10.5575
 20
53.6999
 30
0.0
 10
10.5575
 20
53.6999
 30
0.0
 10
10.8728
 20
53.6999
 30
0.0
 10
10.8728
 20
53.6999
 30
0.0
 10
10.8728
 20
53.6999
 30
0.0
 10
10.8728
 20
53.6999
 30
0.0
 10
10.8728
 20
51.6637
 30
0.0
 10
10.8728
 20
51.6637
 30
0.0
 10
10.8728
 20
51.6637
 30
0.0
 10
10.8728
 20
51.6637
 30
0.0
 10
11.2972
 20
51.6637
 30
0.0
 10
11.2972
 20
51.6637
 30
0.0
 10
11.2972
 20
51.6637
 30
0.0
 10
11.2972
 20
51.6637
 30
0.0
 10
11.2972
 20
51.3096
 30
0.0
 10
11.2972
 20
51.3096
 30
0.0
 10
11.2972
 20
51.3096
 30
0.0
 10
11.2972
 20
51.3096
 30
0.0
 10
10.8728
 20
51.3096
 30
0.0
 10
10.8728
 20
51.3096
 30
0.0
 10
10.8728
 20
51.3096
 30
0.0
 10
10.8728
 20
51.3096
 30
0.0
 10
10.8728
 20
50.5575
 30
0.0
 10
10.8728
 20
50.5575
 30
0.0
 10
10.8728
 20
50.5575
 30
0.0
 10
10.8728
 20
50.5575
 30
0.0
 10
10.4865
 20
50.5575
 30
0.0
 10
10.4865
 20
50.5575
 30
0.0
  0
SPLINE
  5
5F
330
1F
100
AcDbEntity
  8
DEFAULT_1
 62
   250
100
AcDbSpline
210
0.0
220
0.0
230
1.0
 70
    11
 71
     3
 72
    16
 73
    12
 74
     0
 42
0.0000000001
 43
0.0000000001
 40
0.0
 40
0.0
 40
0.0
 40
0.0
 40
0.25
 40
0.25
 40
0.25
 40
0.25
 40
0.5
 40
0.5
 40
0.5
 40
0.5
 40
1.0
 40
1.0
 40
1.0
 40
1.0
 10
10.4865
 20
51.6637
 30
0.0
 10
10.4865
 20
51.6637
 30
0.0
 10
10.4865
 20
53.0802
 30
0.0
 10
10.4865
 20
53.0802
 30
0.0
 10
10.4865
 20
53.0802
 30
0.0
 10
10.4865
 20
53.0802
 30
0.0
 10
9.5032
 20
51.6637
 30
0.0
 10
9.5032
 20
51.6637
 30
0.0
 10
9.5032
 20
51.6637
 30
0.0
 10
9.5032
 20
51.6637
 30
0.0
 10
10.4865
 20
51.6637
 30
0.0
 10
10.4865
 20
51.6637
 30
0.0
  0
SPLINE
  5
60
330
1F
100
AcDbEntity
  8
DEFAULT_1
 62
   250
100
AcDbSpline
210
0.0
220
0.0
230
1.0
 70
    11
 71
     3
 72
    28
 73
    24
 74
     0
 42
0.0000000001
 43
0.0000000001
 40
0.0
 40
0.0
 40
0.0
 40
0.0
 40
0.1428571428571428
 40
0.1428571428571428
 40
0.1428571428571428
 40
0.1428571428571428
 40
0.2857142857142857
 40
0.2857142857142857
 40
0.2857142857142857
 40
0.2857142857142857
 40
0.4285714285714285
 40
0.4285714285714285
 40
0.4285714285714285
 40
0.4285714285714285
 40
0.5714285714285714
 40
0.5714285714285714
 40
0.5714285714285714
 40
0.5714285714285714
 40
0.7142857142857143
 40
0.7142857142857143
 40
0.7142857142857143
 40
0.7142857142857143
 40
1.0
 40
1.0
 40
1.0
 40
1.0
 10
11.8181
 20
52.5871
 30
0.0
 10
11.8181
 20
52.5871
 30
0.0
 10
11.7106
 20
53.1855
 30
0.0
 10
11.7106
 20
53.1855
 30
0.0
 10
11.7106
 20
53.1855
 30
0.0
 10
11.7106
 20
53.1855
 30
0.0
 10
11.7106
 20
53.6999
 30
0.0
 10
11.7106
 20
53.6999
 30
0.0
 10
11.7106
 20
53.6999
 30
0.0
 10
11.7106
 20
53.6999
 30
0.0
 10
12.1503
 20
53.6999
 30
0.0
 10
12.1503
 20
53.6999
 30
0.0
 10
12.1503
 20
53.6999
 30
0.0
 10
12.1503
 20
53.6999
 30
0.0
 10
12.1503
 20
53.1855
 30
0.0
 10
12.1503
 20
53.1855
 30
0.0
 10
12.1503
 20
53.1855
 30
0.0
 10
12.1503
 20
53.1855
 30
0.0
 10
12.0537
 20
52.5871
 30
0.0
 10
12.0537
 20
52.5871
 30
0.0
 10
12.0537
 20
52.5871
 30
0.0
 10
12.0537
 20
52.5871
 30
0.0
 10
11.8181
 20
52.5871
 30
0.0
 10
11.8181
 20
52.5871
 30
0.0
  0
SPLINE
  5
61
330
1F
100
AcDbEntity
  8
DEFAULT_1
 62
   250
100
AcDbSpline
210
0.0
220
0.0
230
1.0
 70
    11
 71
     3
 72
    28
 73
    24
 74
     0
 42
0.0000000001
 43
0.0000000001
 40
0.0
 40
0.0
 40
0.0
 40
0.0
 40
0.1428571428571428
 40
0.1428571428571428
 40
0.1428571428571428
 40
0.1428571428571428
 40
0.2857142857142857
 40
0.2857142857142857
 40
0.2857142857142857
 40
0.2857142857142857
 40
0.4285714285714285
 40
0.4285714285714285
 40
0.4285714285714285
 40
0.4285714285714285
 40
0.5714285714285714
 40
0.5714285714285714
 40
0.5714285714285714
 40
0.5714285714285714
 40
0.7142857142857143
 40
0.7142857142857143
 40
0.7142857142857143
 40
0.7142857142857143
 40
1.0
 40
1.0
 40
1.0
 40
1.0
 10
12.5278
 20
52.5871
 30
0.0
 10
12.5278
 20
52.5871
 30
0.0
 10
12.4225
 20
53.1855
 30
0.0
 10
12.4225
 20
53.1855
 30
0.0
 10
12.4225
 20
53.1855
 30
0.0
 10
12.4225
 20
53.1855
 30
0.0
 10
12.4225
 20
53.6999
 30
0.0
 10
12.4225
 20
53.6999
 30
0.0
 10
12.4225
 20
53.6999
 30
0.0
 10
12.4225
 20
53.6999
 30
0.0
 10
12.8622
 20
53.6999
 30
0.0
 10
12.8622
 20
53.6999
 30
0.0
 10
12.8622
 20
53.6999
 30
0.0
 10
12.8622
 20
53.6999
 30
0.0
 10
12.8622
 20
53.1855
 30
0.0
 10
12.8622
 20
53.1855
 30
0.0
 10
12.8622
 20
53.1855
 30
0.0
 10
12.8622
 20
53.1855
 30
0.0
 10
12.759
 20
52.5871
 30
0.0
 10
12.759
 20
52.5871
 30
0.0
 10
12.759
 20
52.5871
 30
0.0
 10
12.759
 20
52.5871
 30
0.0
 10
12.5278
 20
52.5871
 30
0.0
 10
12.5278
 20
52.5871
 30
0.0
  0
SPLINE
  5
62
330
1F
100
AcDbEntity
  8
DEFAULT_1
 62
   250
100
AcDbSpline
210
0.0
220
0.0
230
1.0
 70
    11
 71
     3
 72
    84
 73
    80
 74
     0
 42
0.0000000001
 43
0.0000000001
 40
0.0
 40
0.0
 40
0.0
 40
0.0
 40
0.0476190476190476
 40
0.0476190476190476
 40
0.0476190476190476
 40
0.0476190476190476
 40
0.0952380952380952
 40
0.0952380952380952
 40
0.0952380952380952
 40
0.0952380952380952
 40
0.1428571428571428
 40
0.1428571428571428
 40
0.1428571428571428
 40
0.1428571428571428
 40
0.1904761904761905
 40
0.1904761904761905
 40
0.1904761904761905
 40
0.1904761904761905
 40
0.2380952380952381
 40
0.2380952380952381
 40
0.2380952380952381
 40
0.2380952380952381
 40
0.2857142857142857
 40
0.2857142857142857
 40
0.2857142857142857
 40
0.2857142857142857
 40
0.3333333333333333
 40
0.3333333333333333
 40
0.3333333333333333
 40
0.3333333333333333
 40
0.3809523809523809
 40
0.3809523809523809
 40
0.3809523809523809
 40
0.3809523809523809
 40
0.4285714285714285
 40
0.4285714285714285
 40
0.4285714285714285
 40
0.4285714285714285
 40
0.4761904761904762
 40
0.4761904761904762
 40
0.4761904761904762
 40
0.4761904761904762
 40
0.5238095238095238
 40
0.5238095238095238
 40
0.5238095238095238
 40
0.5238095238095238
 40
0.5714285714285714
 40
0.5714285714285714
 40
0.5714285714285714
 40
0.5714285714285714
 40
0.6190476190476191
 40
0.6190476190476191
 40
0.6190476190476191
 40
0.6190476190476191
 40
0.6666666666666666
 40
0.6666666666666666
 40
0.6666666666666666
 40
0.6666666666666666
 40
0.7142857142857143
 40
0.7142857142857143
 40
0.7142857142857143
 40
0.7142857142857143
 40
0.7619047619047619
 40
0.7619047619047619
 40
0.7619047619047619
 40
0.7619047619047619
 40
0.8095238095238095
 40
0.8095238095238095
 40
0.8095238095238095
 40
0.8095238095238095
 40
0.8571428571428571
 40
0.8571428571428571
 40
0.8571428571428571
 40
0.8571428571428571
 40
0.9047619047619048
 40
0.9047619047619048
 40
0.9047619047619048
 40
0.9047619047619048
 40
1.0
 40
1.0
 40
1.0
 40
1.0
 10
-27.8724
 20
14.9225
 30
0.0
 10
-27.8724
 20
14.9225
 30
0.0
 10
-28.2756
 20
15.2825
 30
0.0
 10
-28.2756
 20
15.2825
 30
0.0
 10
-28.2756
 20
15.2825
 30
0.0
 10
-28.2756
 20
15.2825
 30
0.0
 10
-28.0956
 20
15.4947
 30
0.0
 10
-28.0956
 20
15.4947
 30
0.0
 10
-28.0956
 20
15.4947
 30
0.0
 10
-28.0956
 20
15.4947
 30
0.0
 10
-27.6712
 20
15.1179
 30
0.0
 10
-27.6712
 20
15.1179
 30
0.0
 10
-27.6712
 20
15.1179
 30
0.0
 10
-27.4883
 20
15.2408
 30
0.0
 10
-27.3281
 20
15.3235
 30
0.0
 10
-27.1913
 20
15.3666
 30
0.0
 10
-27.1913
 20
15.3666
 30
0.0
 10
-27.0113
 20
15.4237
 30
0.0
 10
-26.8094
 20
15.4522
 30
0.0
 10
-26.587
 20
15.4522
 30
0.0
 10
-26.587
 20
15.4522
 30
0.0
 10
-26.265
 20
15.4522
 30
0.0
 10
-25.9782
 20
15.3871
 30
0.0
 10
-25.7273
 20
15.2569
 30
0.0
 10
-25.7273
 20
15.2569
 30
0.0
 10
-25.4756
 20
15.1267
 30
0.0
 10
-25.2854
 20
14.9445
 30
0.0
 10
-25.1566
 20
14.7096
 30
0.0
 10
-25.1566
 20
14.7096
 30
0.0
 10
-25.0286
 20
14.4741
 30
0.0
 10
-24.9642
 20
14.2246
 30
0.0
 10
-24.9642
 20
13.9604
 30
0.0
 10
-24.9642
 20
13.9604
 30
0.0
 10
-24.9642
 20
13.7629
 30
0.0
 10
-24.992
 20
13.5844
 30
0.0
 10
-25.0476
 20
13.4242
 30
0.0
 10
-25.0476
 20
13.4242
 30
0.0
 10
-25.0908
 20
13.3012
 30
0.0
 10
-25.1727
 20
13.1578
 30
0.0
 10
-25.2942
 20
12.9932
 30
0.0
 10
-25.2942
 20
12.9932
 30
0.0
 10
-25.2942
 20
12.9932
 30
0.0
 10
-24.891
 20
12.6333
 30
0.0
 10
-24.891
 20
12.6333
 30
0.0
 10
-24.891
 20
12.6333
 30
0.0
 10
-24.891
 20
12.6333
 30
0.0
 10
-25.071
 20
12.4211
 30
0.0
 10
-25.071
 20
12.4211
 30
0.0
 10
-25.071
 20
12.4211
 30
0.0
 10
-25.071
 20
12.4211
 30
0.0
 10
-25.4932
 20
12.7986
 30
0.0
 10
-25.4932
 20
12.7986
 30
0.0
 10
-25.4932
 20
12.7986
 30
0.0
 10
-25.7061
 20
12.6581
 30
0.0
 10
-25.8882
 20
12.5645
 30
0.0
 10
-26.039
 20
12.5177
 30
0.0
 10
-26.039
 20
12.5177
 30
0.0
 10
-26.1897
 20
12.4708
 30
0.0
 10
-26.3711
 20
12.4467
 30
0.0
 10
-26.5826
 20
12.4467
 30
0.0
 10
-26.5826
 20
12.4467
 30
0.0
 10
-26.9052
 20
12.4467
 30
0.0
 10
-27.1927
 20
12.5111
 30
0.0
 10
-27.4452
 20
12.6398
 30
0.0
 10
-27.4452
 20
12.6398
 30
0.0
 10
-27.6976
 20
12.7686
 30
0.0
 10
-27.8885
 20
12.9486
 30
0.0
 10
-28.0188
 20
13.1813
 30
0.0
 10
-28.0188
 20
13.1813
 30
0.0
 10
-28.1483
 20
13.4132
 30
0.0
 10
-28.2134
 20
13.6714
 30
0.0
 10
-28.2134
 20
13.9561
 30
0.0
 10
-28.2134
 20
13.9561
 30
0.0
 10
-28.2134
 20
14.1477
 30
0.0
 10
-28.1885
 20
14.3153
 30
0.0
 10
-28.1373
 20
14.4587
 30
0.0
 10
-28.1373
 20
14.4587
 30
0.0
 10
-28.0868
 20
14.6021
 30
0.0
 10
-27.9983
 20
14.7572
 30
0.0
 10
-27.8724
 20
14.9225
 30
0.0
  0
SPLINE
  5
63
330
1F
100
AcDbEntity
  8
DEFAULT_1
 62
   250
100
AcDbSpline
210
0.0
220
0.0
230
1.0
 70
    11
 71
     3
 72
    32
 73
    28
 74
     0
 42
0.0000000001
 43
0.0000000001
 40
0.0
 40
0.0
 40
0.0
 40
0.0
 40
0.125
 40
0.125
 40
0.125
 40
0.125
 40
0.25
 40
0.25
 40
0.25
 40
0.25
 40
0.375
 40
0.375
 40
0.375
 40
0.375
 40
0.5
 40
0.5
 40
0.5
 40
0.5
 40
0.625
 40
0.625
 40
0.625
 40
0.625
 40
0.75
 40
0.75
 40
0.75
 40
0.75
 40
1.0
 40
1.0
 40
1.0
 40
1.0
 10
-27.5834
 20
14.6657
 30
0.0
 10
-27.6888
 20
14.5311
 30
0.0
 10
-27.7612
 20
14.4133
 30
0.0
 10
-27.8
 20
14.3131
 30
0.0
 10
-27.8
 20
14.3131
 30
0.0
 10
-27.838
 20
14.2121
 30
0.0
 10
-27.8578
 20
14.0936
 30
0.0
 10
-27.8578
 20
13.9582
 30
0.0
 10
-27.8578
 20
13.9582
 30
0.0
 10
-27.8578
 20
13.6451
 30
0.0
 10
-27.7517
 20
13.3868
 30
0.0
 10
-27.5395
 20
13.182
 30
0.0
 10
-27.5395
 20
13.182
 30
0.0
 10
-27.3274
 20
12.9779
 30
0.0
 10
-27.0106
 20
12.8754
 30
0.0
 10
-26.5884
 20
12.8754
 30
0.0
 10
-26.5884
 20
12.8754
 30
0.0
 10
-26.4231
 20
12.8754
 30
0.0
 10
-26.276
 20
12.8915
 30
0.0
 10
-26.1472
 20
12.923
 30
0.0
 10
-26.1472
 20
12.923
 30
0.0
 10
-26.0514
 20
12.9457
 30
0.0
 10
-25.9336
 20
12.9932
 30
0.0
 10
-25.7939
 20
13.0664
 30
0.0
 10
-25.7939
 20
13.0664
 30
0.0
 10
-25.7939
 20
13.0664
 30
0.0
 10
-27.5834
 20
14.6657
 30
0.0
 10
-27.5834
 20
14.6657
 30
0.0
  0
SPLINE
  5
64
330
1F
100
AcDbEntity
  8
DEFAULT_1
 62
   250
100
AcDbSpline
210
0.0
220
0.0
230
1.0
 70
    11
 71
     3
 72
    28
 73
    24
 74
     0
 42
0.0000000001
 43
0.0000000001
 40
0.0
 40
0.0
 40
0.0
 40
0.0
 40
0.1428571428571428
 40
0.1428571428571428
 40
0.1428571428571428
 40
0.1428571428571428
 40
0.2857142857142857
 40
0.2857142857142857
 40
0.2857142857142857
 40
0.2857142857142857
 40
0.4285714285714285
 40
0.4285714285714285
 40
0.4285714285714285
 40
0.4285714285714285
 40
0.5714285714285714
 40
0.5714285714285714
 40
0.5714285714285714
 40
0.5714285714285714
 40
0.7142857142857143
 40
0.7142857142857143
 40
0.7142857142857143
 40
0.7142857142857143
 40
1.0
 40
1.0
 40
1.0
 40
1.0
 10
-27.3625
 20
14.8413
 30
0.0
 10
-27.3625
 20
14.8413
 30
0.0
 10
-25.5795
 20
13.2486
 30
0.0
 10
-25.5795
 20
13.2486
 30
0.0
 10
-25.5795
 20
13.2486
 30
0.0
 10
-25.4895
 20
13.3583
 30
0.0
 10
-25.4266
 20
13.46
 30
0.0
 10
-25.3907
 20
13.5529
 30
0.0
 10
-25.3907
 20
13.5529
 30
0.0
 10
-25.3432
 20
13.6744
 30
0.0
 10
-25.3198
 20
13.8061
 30
0.0
 10
-25.3198
 20
13.9473
 30
0.0
 10
-25.3198
 20
13.9473
 30
0.0
 10
-25.3198
 20
14.2589
 30
0.0
 10
-25.4295
 20
14.5158
 30
0.0
 10
-25.6497
 20
14.7191
 30
0.0
 10
-25.6497
 20
14.7191
 30
0.0
 10
-25.87
 20
14.9218
 30
0.0
 10
-26.1787
 20
15.0235
 30
0.0
 10
-26.576
 20
15.0235
 30
0.0
 10
-26.576
 20
15.0235
 30
0.0
 10
-26.873
 20
15.0235
 30
0.0
 10
-27.1357
 20
14.9628
 30
0.0
 10
-27.3625
 20
14.8413
 30
0.0
  0
SPLINE
  5
65
330
1F
100
AcDbEntity
  8
DEFAULT_1
 62
   250
100
AcDbSpline
210
0.0
220
0.0
230
1.0
 70
    11
 71
     3
 72
    40
 73
    36
 74
     0
 42
0.0000000001
 43
0.0000000001
 40
0.0
 40
0.0
 40
0.0
 40
0.0
 40
0.1
 40
0.1
 40
0.1
 40
0.1
 40
0.2
 40
0.2
 40
0.2
 40
0.2
 40
0.3
 40
0.3
 40
0.3
 40
0.3
 40
0.4
 40
0.4
 40
0.4
 40
0.4
 40
0.5
 40
0.5
 40
0.5
 40
0.5
 40
0.6
 40
0.6
 40
0.6
 40
0.6
 40
0.7
 40
0.7
 40
0.7
 40
0.7
 40
0.8
 40
0.8
 40
0.8
 40
0.8
 40
1.0
 40
1.0
 40
1.0
 40
1.0
 10
-25.0176
 20
17.293
 30
0.0
 10
-25.0176
 20
17.293
 30
0.0
 10
-25.0176
 20
16.9074
 30
0.0
 10
-25.0176
 20
16.9074
 30
0.0
 10
-25.0176
 20
16.9074
 30
0.0
 10
-25.0176
 20
16.9074
 30
0.0
 10
-27.4759
 20
16.9074
 30
0.0
 10
-27.4759
 20
16.9074
 30
0.0
 10
-27.4759
 20
16.9074
 30
0.0
 10
-27.3874
 20
16.8145
 30
0.0
 10
-27.2988
 20
16.6931
 30
0.0
 10
-27.2103
 20
16.5423
 30
0.0
 10
-27.2103
 20
16.5423
 30
0.0
 10
-27.1218
 20
16.3909
 30
0.0
 10
-27.0552
 20
16.2555
 30
0.0
 10
-27.0113
 20
16.1356
 30
0.0
 10
-27.0113
 20
16.1356
 30
0.0
 10
-27.0113
 20
16.1356
 30
0.0
 10
-27.3837
 20
16.1356
 30
0.0
 10
-27.3837
 20
16.1356
 30
0.0
 10
-27.3837
 20
16.1356
 30
0.0
 10
-27.4854
 20
16.3514
 30
0.0
 10
-27.6083
 20
16.5401
 30
0.0
 10
-27.7524
 20
16.7018
 30
0.0
 10
-27.7524
 20
16.7018
 30
0.0
 10
-27.8973
 20
16.8628
 30
0.0
 10
-28.0371
 20
16.9777
 30
0.0
 10
-28.1731
 20
17.045
 30
0.0
 10
-28.1731
 20
17.045
 30
0.0
 10
-28.1731
 20
17.045
 30
0.0
 10
-28.1731
 20
17.293
 30
0.0
 10
-28.1731
 20
17.293
 30
0.0
 10
-28.1731
 20
17.293
 30
0.0
 10
-28.1731
 20
17.293
 30
0.0
 10
-25.0176
 20
17.293
 30
0.0
 10
-25.0176
 20
17.293
 30
0.0
  0
SPLINE
  5
66
330
1F
100
AcDbEntity
  8
DEFAULT_1
 62
   250
100
AcDbSpline
210
0.0
220
0.0
230
1.0
 70
    11
 71
     3
 72
    40
 73
    36
 74
     0
 42
0.0000000001
 43
0.0000000001
 40
0.0
 40
0.0
 40
0.0
 40
0.0
 40
0.1
 40
0.1
 40
0.1
 40
0.1
 40
0.2
 40
0.2
 40
0.2
 40
0.2
 40
0.3
 40
0.3
 40
0.3
 40
0.3
 40
0.4
 40
0.4
 40
0.4
 40
0.4
 40
0.5
 40
0.5
 40
0.5
 40
0.5
 40
0.6
 40
0.6
 40
0.6
 40
0.6
 40
0.7
 40
0.7
 40
0.7
 40
0.7
 40
0.8
 40
0.8
 40
0.8
 40
0.8
 40
1.0
 40
1.0
 40
1.0
 40
1.0
 10
-25.0176
 20
19.4089
 30
0.0
 10
-25.0176
 20
19.4089
 30
0.0
 10
-25.0176
 20
19.0233
 30
0.0
 10
-25.0176
 20
19.0233
 30
0.0
 10
-25.0176
 20
19.0233
 30
0.0
 10
-25.0176
 20
19.0233
 30
0.0
 10
-27.4759
 20
19.0233
 30
0.0
 10
-27.4759
 20
19.0233
 30
0.0
 10
-27.4759
 20
19.0233
 30
0.0
 10
-27.3874
 20
18.9304
 30
0.0
 10
-27.2988
 20
18.809
 30
0.0
 10
-27.2103
 20
18.6582
 30
0.0
 10
-27.2103
 20
18.6582
 30
0.0
 10
-27.1218
 20
18.5068
 30
0.0
 10
-27.0552
 20
18.3714
 30
0.0
 10
-27.0113
 20
18.2515
 30
0.0
 10
-27.0113
 20
18.2515
 30
0.0
 10
-27.0113
 20
18.2515
 30
0.0
 10
-27.3837
 20
18.2515
 30
0.0
 10
-27.3837
 20
18.2515
 30
0.0
 10
-27.3837
 20
18.2515
 30
0.0
 10
-27.4854
 20
18.4673
 30
0.0
 10
-27.6083
 20
18.656
 30
0.0
 10
-27.7524
 20
18.8177
 30
0.0
 10
-27.7524
 20
18.8177
 30
0.0
 10
-27.8973
 20
18.9787
 30
0.0
 10
-28.0371
 20
19.0936
 30
0.0
 10
-28.1731
 20
19.1609
 30
0.0
 10
-28.1731
 20
19.1609
 30
0.0
 10
-28.1731
 20
19.1609
 30
0.0
 10
-28.1731
 20
19.4089
 30
0.0
 10
-28.1731
 20
19.4089
 30
0.0
 10
-28.1731
 20
19.4089
 30
0.0
 10
-28.1731
 20
19.4089
 30
0.0
 10
-25.0176
 20
19.4089
 30
0.0
 10
-25.0176
 20
19.4089
 30
0.0
  0
SPLINE
  5
67
330
1F
100
AcDbEntity
  8
DEFAULT_1
 62
   250
100
AcDbSpline
210
0.0
220
0.0
230
1.0
 70
    11
 71
     3
 72
    52
 73
    48
 74
     0
 42
0.0000000001
 43
0.0000000001
 40
0.0
 40
0.0
 40
0.0
 40
0.0
 40
0.0769230769230769
 40
0.0769230769230769
 40
0.0769230769230769
 40
0.0769230769230769
 40
0.1538461538461539
 40
0.1538461538461539
 40
0.1538461538461539
 40
0.1538461538461539
 40
0.2307692307692308
 40
0.2307692307692308
 40
0.2307692307692308
 40
0.2307692307692308
 40
0.3076923076923077
 40
0.3076923076923077
 40
0.3076923076923077
 40
0.3076923076923077
 40
0.3846153846153846
 40
0.3846153846153846
 40
0.3846153846153846
 40
0.3846153846153846
 40
0.4615384615384616
 40
0.4615384615384616
 40
0.4615384615384616
 40
0.4615384615384616
 40
0.5384615384615384
 40
0.5384615384615384
 40
0.5384615384615384
 40
0.5384615384615384
 40
0.6153846153846154
 40
0.6153846153846154
 40
0.6153846153846154
 40
0.6153846153846154
 40
0.6923076923076923
 40
0.6923076923076923
 40
0.6923076923076923
 40
0.6923076923076923
 40
0.7692307692307693
 40
0.7692307692307693
 40
0.7692307692307693
 40
0.7692307692307693
 40
0.8461538461538461
 40
0.8461538461538461
 40
0.8461538461538461
 40
0.8461538461538461
 40
1.0
 40
1.0
 40
1.0
 40
1.0
 10
-26.5672
 20
20.3974
 30
0.0
 10
-26.9389
 20
20.3974
 30
0.0
 10
-27.2381
 20
20.4354
 30
0.0
 10
-27.4642
 20
20.5122
 30
0.0
 10
-27.4642
 20
20.5122
 30
0.0
 10
-27.691
 20
20.5883
 30
0.0
 10
-27.8658
 20
20.7025
 30
0.0
 10
-27.9888
 20
20.8532
 30
0.0
 10
-27.9888
 20
20.8532
 30
0.0
 10
-28.1117
 20
21.0039
 30
0.0
 10
-28.1731
 20
21.1934
 30
0.0
 10
-28.1731
 20
21.4217
 30
0.0
 10
-28.1731
 20
21.4217
 30
0.0
 10
-28.1731
 20
21.5907
 30
0.0
 10
-28.1387
 20
21.7385
 30
0.0
 10
-28.0707
 20
21.8658
 30
0.0
 10
-28.0707
 20
21.8658
 30
0.0
 10
-28.0034
 20
21.9931
 30
0.0
 10
-27.9054
 20
22.0977
 30
0.0
 10
-27.7773
 20
22.1811
 30
0.0
 10
-27.7773
 20
22.1811
 30
0.0
 10
-27.6493
 20
22.2638
 30
0.0
 10
-27.4934
 20
22.3289
 30
0.0
 10
-27.3098
 20
22.3757
 30
0.0
 10
-27.3098
 20
22.3757
 30
0.0
 10
-27.1262
 20
22.4233
 30
0.0
 10
-26.8789
 20
22.4467
 30
0.0
 10
-26.5672
 20
22.4467
 30
0.0
 10
-26.5672
 20
22.4467
 30
0.0
 10
-26.1985
 20
22.4467
 30
0.0
 10
-25.9014
 20
22.4086
 30
0.0
 10
-25.6746
 20
22.3333
 30
0.0
 10
-25.6746
 20
22.3333
 30
0.0
 10
-25.4478
 20
22.2572
 30
0.0
 10
-25.2729
 20
22.1438
 30
0.0
 10
-25.1493
 20
21.9931
 30
0.0
 10
-25.1493
 20
21.9931
 30
0.0
 10
-25.0256
 20
21.8424
 30
0.0
 10
-24.9642
 20
21.6521
 30
0.0
 10
-24.9642
 20
21.4217
 30
0.0
 10
-24.9642
 20
21.4217
 30
0.0
 10
-24.9642
 20
21.1188
 30
0.0
 10
-25.0725
 20
20.881
 30
0.0
 10
-25.2898
 20
20.7083
 30
0.0
 10
-25.2898
 20
20.7083
 30
0.0
 10
-25.551
 20
20.5013
 30
0.0
 10
-25.9775
 20
20.3974
 30
0.0
 10
-26.5672
 20
20.3974
 30
0.0
  0
SPLINE
  5
68
330
1F
100
AcDbEntity
  8
DEFAULT_1
 62
   250
100
AcDbSpline
210
0.0
220
0.0
230
1.0
 70
    11
 71
     3
 72
    36
 73
    32
 74
     0
 42
0.0000000001
 43
0.0000000001
 40
0.0
 40
0.0
 40
0.0
 40
0.0
 40
0.1111111111111111
 40
0.1111111111111111
 40
0.1111111111111111
 40
0.1111111111111111
 40
0.2222222222222222
 40
0.2222222222222222
 40
0.2222222222222222
 40
0.2222222222222222
 40
0.3333333333333333
 40
0.3333333333333333
 40
0.3333333333333333
 40
0.3333333333333333
 40
0.4444444444444444
 40
0.4444444444444444
 40
0.4444444444444444
 40
0.4444444444444444
 40
0.5555555555555556
 40
0.5555555555555556
 40
0.5555555555555556
 40
0.5555555555555556
 40
0.6666666666666666
 40
0.6666666666666666
 40
0.6666666666666666
 40
0.6666666666666666
 40
0.7777777777777778
 40
0.7777777777777778
 40
0.7777777777777778
 40
0.7777777777777778
 40
1.0
 40
1.0
 40
1.0
 40
1.0
 10
-26.5672
 20
20.7939
 30
0.0
 10
-26.0514
 20
20.7939
 30
0.0
 10
-25.7083
 20
20.8546
 30
0.0
 10
-25.5371
 20
20.9754
 30
0.0
 10
-25.5371
 20
20.9754
 30
0.0
 10
-25.3666
 20
21.0961
 30
0.0
 10
-25.281
 20
21.2446
 30
0.0
 10
-25.281
 20
21.4217
 30
0.0
 10
-25.281
 20
21.4217
 30
0.0
 10
-25.281
 20
21.5995
 30
0.0
 10
-25.3673
 20
21.748
 30
0.0
 10
-25.5385
 20
21.8687
 30
0.0
 10
-25.5385
 20
21.8687
 30
0.0
 10
-25.7097
 20
21.9894
 30
0.0
 10
-26.0529
 20
22.0501
 30
0.0
 10
-26.5672
 20
22.0501
 30
0.0
 10
-26.5672
 20
22.0501
 30
0.0
 10
-27.0845
 20
22.0501
 30
0.0
 10
-27.4283
 20
21.9894
 30
0.0
 10
-27.5981
 20
21.8687
 30
0.0
 10
-27.5981
 20
21.8687
 30
0.0
 10
-27.7685
 20
21.748
 30
0.0
 10
-27.8534
 20
21.598
 30
0.0
 10
-27.8534
 20
21.418
 30
0.0
 10
-27.8534
 20
21.418
 30
0.0
 10
-27.8534
 20
21.2402
 30
0.0
 10
-27.7781
 20
21.099
 30
0.0
 10
-27.6281
 20
20.9929
 30
0.0
 10
-27.6281
 20
20.9929
 30
0.0
 10
-27.4371
 20
20.8605
 30
0.0
 10
-27.083
 20
20.7939
 30
0.0
 10
-26.5672
 20
20.7939
 30
0.0
  0
SPLINE
  5
69
330
1F
100
AcDbEntity
  8
DEFAULT_1
 62
   250
100
AcDbSpline
210
0.0
220
0.0
230
1.0
 70
    11
 71
     3
 72
    20
 73
    16
 74
     0
 42
0.0000000001
 43
0.0000000001
 40
0.0
 40
0.0
 40
0.0
 40
0.0
 40
0.2
 40
0.2
 40
0.2
 40
0.2
 40
0.4
 40
0.4
 40
0.4
 40
0.4
 40
0.6
 40
0.6
 40
0.6
 40
0.6
 40
1.0
 40
1.0
 40
1.0
 40
1.0
 10
-31.0816
 20
33.2817
 30
0.0
 10
-31.0816
 20
33.2817
 30
0.0
 10
-30.5328
 20
37.1704
 30
0.0
 10
-30.5328
 20
37.1704
 30
0.0
 10
-30.5328
 20
37.1704
 30
0.0
 10
-30.5328
 20
37.1704
 30
0.0
 10
-30.4109
 20
37.1704
 30
0.0
 10
-30.4109
 20
37.1704
 30
0.0
 10
-30.4109
 20
37.1704
 30
0.0
 10
-30.4109
 20
37.1704
 30
0.0
 10
-29.8256
 20
33.2817
 30
0.0
 10
-29.8256
 20
33.2817
 30
0.0
 10
-29.8256
 20
33.2817
 30
0.0
 10
-29.8256
 20
33.2817
 30
0.0
 10
-31.0816
 20
33.2817
 30
0.0
 10
-31.0816
 20
33.2817
 30
0.0
  0
SPLINE
  5
6A
330
1F
100
AcDbEntity
  8
DEFAULT_1
 62
   250
100
AcDbSpline
210
0.0
220
0.0
230
1.0
 70
    11
 71
     3
 72
    20
 73
    16
 74
     0
 42
0.0000000001
 43
0.0000000001
 40
0.0
 40
0.0
 40
0.0
 40
0.0
 40
0.2
 40
0.2
 40
0.2
 40
0.2
 40
0.4
 40
0.4
 40
0.4
 40
0.4
 40
0.6
 40
0.6
 40
0.6
 40
0.6
 40
1.0
 40
1.0
 40
1.0
 40
1.0
 10
-29.8724
 20
0.1949
 30
0.0
 10
-29.8724
 20
0.1949
 30
0.0
 10
-30.4212
 20
-3.6939
 30
0.0
 10
-30.4212
 20
-3.6939
 30
0.0
 10
-30.4212
 20
-3.6939
 30
0.0
 10
-30.4212
 20
-3.6939
 30
0.0
 10
-30.5431
 20
-3.6939
 30
0.0
 10
-30.5431
 20
-3.6939
 30
0.0
 10
-30.5431
 20
-3.6939
 30
0.0
 10
-30.5431
 20
-3.6939
 30
0.0
 10
-31.1284
 20
0.1949
 30
0.0
 10
-31.1284
 20
0.1949
 30
0.0
 10
-31.1284
 20
0.1949
 30
0.0
 10
-31.1284
 20
0.1949
 30
0.0
 10
-29.8724
 20
0.1949
 30
0.0
 10
-29.8724
 20
0.1949
 30
0.0
  0
SPLINE
  5
6B
330
1F
100
AcDbEntity
  8
DEFAULT_1
 62
   250
100
AcDbSpline
210
0.0
220
0.0
230
1.0
 70
    11
 71
     3
 72
    20
 73
    16
 74
     0
 42
0.0000000001
 43
0.0000000001
 40
0.0
 40
0.0
 40
0.0
 40
0.0
 40
0.2
 40
0.2
 40
0.2
 40
0.2
 40
0.4
 40
0.4
 40
0.4
 40
0.4
 40
0.6
 40
0.6
 40
0.6
 40
0.6
 40
1.0
 40
1.0
 40
1.0
 40
1.0
 10
-8.2859
 20
12.7377
 30
0.0
 10
-8.2859
 20
12.7377
 30
0.0
 10
-8.3599
 20
16.6643
 30
0.0
 10
-8.3599
 20
16.6643
 30
0.0
 10
-8.3599
 20
16.6643
 30
0.0
 10
-8.3599
 20
16.6643
 30
0.0
 10
-8.2396
 20
16.6836
 30
0.0
 10
-8.2396
 20
16.6836
 30
0.0
 10
-8.2396
 20
16.6836
 30
0.0
 10
-8.2396
 20
16.6836
 30
0.0
 10
-7.0457
 20
12.9367
 30
0.0
 10
-7.0457
 20
12.9367
 30
0.0
 10
-7.0457
 20
12.9367
 30
0.0
 10
-7.0457
 20
12.9367
 30
0.0
 10
-8.2859
 20
12.7377
 30
0.0
 10
-8.2859
 20
12.7377
 30
0.0
  0
SPLINE
  5
6C
330
1F
100
AcDbEntity
  8
DEFAULT_1
 62
   250
100
AcDbSpline
210
0.0
220
0.0
230
1.0
 70
    11
 71
     3
 72
    20
 73
    16
 74
     0
 42
0.0000000001
 43
0.0000000001
 40
0.0
 40
0.0
 40
0.0
 40
0.0
 40
0.2
 40
0.2
 40
0.2
 40
0.2
 40
0.4
 40
0.4
 40
0.4
 40
0.4
 40
0.6
 40
0.6
 40
0.6
 40
0.6
 40
1.0
 40
1.0
 40
1.0
 40
1.0
 10
2.9455
 20
2.9549
 30
0.0
 10
2.9455
 20
2.9549
 30
0.0
 10
6.7003
 20
1.8039
 30
0.0
 10
6.7003
 20
1.8039
 30
0.0
 10
6.7003
 20
1.8039
 30
0.0
 10
6.7003
 20
1.8039
 30
0.0
 10
6.6812
 20
1.6835
 30
0.0
 10
6.6812
 20
1.6835
 30
0.0
 10
6.6812
 20
1.6835
 30
0.0
 10
6.6812
 20
1.6835
 30
0.0
 10
2.7488
 20
1.7144
 30
0.0
 10
2.7488
 20
1.7144
 30
0.0
 10
2.7488
 20
1.7144
 30
0.0
 10
2.7488
 20
1.7144
 30
0.0
 10
2.9455
 20
2.9549
 30
0.0
 10
2.9455
 20
2.9549
 30
0.0
  0
SPLINE
  5
6D
330
1F
100
AcDbEntity
  8
DEFAULT_1
 62
   250
100
AcDbSpline
210
0.0
220
0.0
230
1.0
 70
    11
 71
     3
 72
    92
 73
    88
 74
     0
 42
0.0000000001
 43
0.0000000001
 40
0.0
 40
0.0
 40
0.0
 40
0.0
 40
0.0434782608695652
 40
0.0434782608695652
 40
0.0434782608695652
 40
0.0434782608695652
 40
0.0869565217391304
 40
0.0869565217391304
 40
0.0869565217391304
 40
0.0869565217391304
 40
0.1304347826086956
 40
0.1304347826086956
 40
0.1304347826086956
 40
0.1304347826086956
 40
0.1739130434782609
 40
0.1739130434782609
 40
0.1739130434782609
 40
0.1739130434782609
 40
0.2173913043478261
 40
0.2173913043478261
 40
0.2173913043478261
 40
0.2173913043478261
 40
0.2608695652173913
 40
0.2608695652173913
 40
0.2608695652173913
 40
0.2608695652173913
 40
0.3043478260869565
 40
0.3043478260869565
 40
0.3043478260869565
 40
0.3043478260869565
 40
0.3478260869565217
 40
0.3478260869565217
 40
0.3478260869565217
 40
0.3478260869565217
 40
0.391304347826087
 40
0.391304347826087
 40
0.391304347826087
 40
0.391304347826087
 40
0.4347826086956522
 40
0.4347826086956522
 40
0.4347826086956522
 40
0.4347826086956522
 40
0.4782608695652174
 40
0.4782608695652174
 40
0.4782608695652174
 40
0.4782608695652174
 40
0.5217391304347826
 40
0.5217391304347826
 40
0.5217391304347826
 40
0.5217391304347826
 40
0.5652173913043478
 40
0.5652173913043478
 40
0.5652173913043478
 40
0.5652173913043478
 40
0.6086956521739131
 40
0.6086956521739131
 40
0.6086956521739131
 40
0.6086956521739131
 40
0.6521739130434783
 40
0.6521739130434783
 40
0.6521739130434783
 40
0.6521739130434783
 40
0.6956521739130435
 40
0.6956521739130435
 40
0.6956521739130435
 40
0.6956521739130435
 40
0.7391304347826086
 40
0.7391304347826086
 40
0.7391304347826086
 40
0.7391304347826086
 40
0.782608695652174
 40
0.782608695652174
 40
0.782608695652174
 40
0.782608695652174
 40
0.8260869565217391
 40
0.8260869565217391
 40
0.8260869565217391
 40
0.8260869565217391
 40
0.8695652173913043
 40
0.8695652173913043
 40
0.8695652173913043
 40
0.8695652173913043
 40
0.9130434782608695
 40
0.9130434782608695
 40
0.9130434782608695
 40
0.9130434782608695
 40
1.0
 40
1.0
 40
1.0
 40
1.0
 10
-3.9754
 20
9.179
 30
0.0
 10
-3.9754
 20
9.179
 30
0.0
 10
-3.6626
 20
8.9767
 30
0.0
 10
-3.6626
 20
8.9767
 30
0.0
 10
-3.6626
 20
8.9767
 30
0.0
 10
-3.7454
 20
8.8204
 30
0.0
 10
-3.7765
 20
8.6838
 30
0.0
 10
-3.7558
 20
8.567
 30
0.0
 10
-3.7558
 20
8.567
 30
0.0
 10
-3.7346
 20
8.4508
 30
0.0
 10
-3.6699
 20
8.3496
 30
0.0
 10
-3.5606
 20
8.2637
 30
0.0
 10
-3.5606
 20
8.2637
 30
0.0
 10
-3.4674
 20
8.1904
 30
0.0
 10
-3.369
 20
8.1475
 30
0.0
 10
-3.265
 20
8.1354
 30
0.0
 10
-3.265
 20
8.1354
 30
0.0
 10
-3.1613
 20
8.1228
 30
0.0
 10
-3.0591
 20
8.1345
 30
0.0
 10
-2.9581
 20
8.1705
 30
0.0
 10
-2.9581
 20
8.1705
 30
0.0
 10
-2.8566
 20
8.2061
 30
0.0
 10
-2.7432
 20
8.2733
 30
0.0
 10
-2.6178
 20
8.3702
 30
0.0
 10
-2.6178
 20
8.3702
 30
0.0
 10
-2.4924
 20
8.468
 30
0.0
 10
-2.3797
 20
8.5794
 30
0.0
 10
-2.2807
 20
8.7054
 30
0.0
 10
-2.2807
 20
8.7054
 30
0.0
 10
-2.2703
 20
8.7186
 30
0.0
 10
-2.2545
 20
8.7398
 30
0.0
 10
-2.2349
 20
8.7671
 30
0.0
 10
-2.2349
 20
8.7671
 30
0.0
 10
-2.3714
 20
8.719
 30
0.0
 10
-2.5162
 20
8.7053
 30
0.0
 10
-2.6679
 20
8.7278
 30
0.0
 10
-2.6679
 20
8.7278
 30
0.0
 10
-2.8206
 20
8.7502
 30
0.0
 10
-2.958
 20
8.8099
 30
0.0
 10
-3.0799
 20
8.9058
 30
0.0
 10
-3.0799
 20
8.9058
 30
0.0
 10
-3.2846
 20
9.0667
 30
0.0
 10
-3.3995
 20
9.277
 30
0.0
 10
-3.4242
 20
9.5367
 30
0.0
 10
-3.4242
 20
9.5367
 30
0.0
 10
-3.4489
 20
9.7963
 30
0.0
 10
-3.3664
 20
10.0469
 30
0.0
 10
-3.1756
 20
10.2896
 30
0.0
 10
-3.1756
 20
10.2896
 30
0.0
 10
-2.9784
 20
10.5403
 30
0.0
 10
-2.7465
 20
10.6838
 30
0.0
 10
-2.4783
 20
10.7205
 30
0.0
 10
-2.4783
 20
10.7205
 30
0.0
 10
-2.2103
 20
10.7572
 30
0.0
 10
-1.9649
 20
10.6881
 30
0.0
 10
-1.7424
 20
10.5131
 30
0.0
 10
-1.7424
 20
10.5131
 30
0.0
 10
-1.582
 20
10.3869
 30
0.0
 10
-1.4697
 20
10.2278
 30
0.0
 10
-1.4041
 20
10.0367
 30
0.0
 10
-1.4041
 20
10.0367
 30
0.0
 10
-1.339
 20
9.8459
 30
0.0
 10
-1.3351
 20
9.6427
 30
0.0
 10
-1.3918
 20
9.4285
 30
0.0
 10
-1.3918
 20
9.4285
 30
0.0
 10
-1.4485
 20
9.2144
 30
0.0
 10
-1.5962
 20
8.9555
 30
0.0
 10
-1.835
 20
8.6518
 30
0.0
 10
-1.835
 20
8.6518
 30
0.0
 10
-2.0829
 20
8.3367
 30
0.0
 10
-2.3145
 20
8.112
 30
0.0
 10
-2.5303
 20
7.9783
 30
0.0
 10
-2.5303
 20
7.9783
 30
0.0
 10
-2.7463
 20
7.8457
 30
0.0
 10
-2.9598
 20
7.7837
 30
0.0
 10
-3.1719
 20
7.7923
 30
0.0
 10
-3.1719
 20
7.7923
 30
0.0
 10
-3.3844
 20
7.8012
 30
0.0
 10
-3.581
 20
7.8767
 30
0.0
 10
-3.7633
 20
8.02
 30
0.0
 10
-3.7633
 20
8.02
 30
0.0
 10
-3.9566
 20
8.172
 30
0.0
 10
-4.0721
 20
8.3494
 30
0.0
 10
-4.1101
 20
8.5533
 30
0.0
 10
-4.1101
 20
8.5533
 30
0.0
 10
-4.1484
 20
8.7566
 30
0.0
 10
-4.1036
 20
8.9652
 30
0.0
 10
-3.9754
 20
9.179
 30
0.0
  0
SPLINE
  5
6E
330
1F
100
AcDbEntity
  8
DEFAULT_1
 62
   250
100
AcDbSpline
210
0.0
220
0.0
230
1.0
 70
    11
 71
     3
 72
    36
 73
    32
 74
     0
 42
0.0000000001
 43
0.0000000001
 40
0.0
 40
0.0
 40
0.0
 40
0.0
 40
0.1111111111111111
 40
0.1111111111111111
 40
0.1111111111111111
 40
0.1111111111111111
 40
0.2222222222222222
 40
0.2222222222222222
 40
0.2222222222222222
 40
0.2222222222222222
 40
0.3333333333333333
 40
0.3333333333333333
 40
0.3333333333333333
 40
0.3333333333333333
 40
0.4444444444444444
 40
0.4444444444444444
 40
0.4444444444444444
 40
0.4444444444444444
 40
0.5555555555555556
 40
0.5555555555555556
 40
0.5555555555555556
 40
0.5555555555555556
 40
0.6666666666666666
 40
0.6666666666666666
 40
0.6666666666666666
 40
0.6666666666666666
 40
0.7777777777777778
 40
0.7777777777777778
 40
0.7777777777777778
 40
0.7777777777777778
 40
1.0
 40
1.0
 40
1.0
 40
1.0
 10
-1.8762
 20
9.293
 30
0.0
 10
-1.7397
 20
9.4666
 30
0.0
 10
-1.6767
 20
9.6415
 30
0.0
 10
-1.6893
 20
9.8161
 30
0.0
 10
-1.6893
 20
9.8161
 30
0.0
 10
-1.7019
 20
9.9917
 30
0.0
 10
-1.7727
 20
10.1302
 30
0.0
 10
-1.9032
 20
10.2328
 30
0.0
 10
-1.9032
 20
10.2328
 30
0.0
 10
-2.0378
 20
10.3387
 30
0.0
 10
-2.1985
 20
10.3757
 30
0.0
 10
-2.385
 20
10.3445
 30
0.0
 10
-2.385
 20
10.3445
 30
0.0
 10
-2.5718
 20
10.3128
 30
0.0
 10
-2.7341
 20
10.2095
 30
0.0
 10
-2.8716
 20
10.0347
 30
0.0
 10
-2.8716
 20
10.0347
 30
0.0
 10
-2.9955
 20
9.8771
 30
0.0
 10
-3.0482
 20
9.7119
 30
0.0
 10
-3.0305
 20
9.5389
 30
0.0
 10
-3.0305
 20
9.5389
 30
0.0
 10
-3.013
 20
9.366
 30
0.0
 10
-2.9347
 20
9.2253
 30
0.0
 10
-2.7955
 20
9.1158
 30
0.0
 10
-2.7955
 20
9.1158
 30
0.0
 10
-2.6546
 20
9.005
 30
0.0
 10
-2.5012
 20
8.9635
 30
0.0
 10
-2.3335
 20
8.9908
 30
0.0
 10
-2.3335
 20
8.9908
 30
0.0
 10
-2.1653
 20
9.0177
 30
0.0
 10
-2.0133
 20
9.1187
 30
0.0
 10
-1.8762
 20
9.293
 30
0.0
  0
SPLINE
  5
6F
330
1F
100
AcDbEntity
  8
DEFAULT_1
 62
   250
100
AcDbSpline
210
0.0
220
0.0
230
1.0
 70
    11
 71
     3
 72
    52
 73
    48
 74
     0
 42
0.0000000001
 43
0.0000000001
 40
0.0
 40
0.0
 40
0.0
 40
0.0
 40
0.0769230769230769
 40
0.0769230769230769
 40
0.0769230769230769
 40
0.0769230769230769
 40
0.1538461538461539
 40
0.1538461538461539
 40
0.1538461538461539
 40
0.1538461538461539
 40
0.2307692307692308
 40
0.2307692307692308
 40
0.2307692307692308
 40
0.2307692307692308
 40
0.3076923076923077
 40
0.3076923076923077
 40
0.3076923076923077
 40
0.3076923076923077
 40
0.3846153846153846
 40
0.3846153846153846
 40
0.3846153846153846
 40
0.3846153846153846
 40
0.4615384615384616
 40
0.4615384615384616
 40
0.4615384615384616
 40
0.4615384615384616
 40
0.5384615384615384
 40
0.5384615384615384
 40
0.5384615384615384
 40
0.5384615384615384
 40
0.6153846153846154
 40
0.6153846153846154
 40
0.6153846153846154
 40
0.6153846153846154
 40
0.6923076923076923
 40
0.6923076923076923
 40
0.6923076923076923
 40
0.6923076923076923
 40
0.7692307692307693
 40
0.7692307692307693
 40
0.7692307692307693
 40
0.7692307692307693
 40
0.8461538461538461
 40
0.8461538461538461
 40
0.8461538461538461
 40
0.8461538461538461
 40
1.0
 40
1.0
 40
1.0
 40
1.0
 10
-1.5929
 20
8.3525
 30
0.0
 10
-1.3631
 20
8.6447
 30
0.0
 10
-1.1483
 20
8.8564
 30
0.0
 10
-0.9481
 20
8.9866
 30
0.0
 10
-0.9481
 20
8.9866
 30
0.0
 10
-0.7481
 20
9.1179
 30
0.0
 10
-0.5503
 20
9.1847
 30
0.0
 10
-0.3558
 20
9.1882
 30
0.0
 10
-0.3558
 20
9.1882
 30
0.0
 10
-0.1614
 20
9.1917
 30
0.0
 10
0.0255
 20
9.1228
 30
0.0
 10
0.205
 20
8.9817
 30
0.0
 10
0.205
 20
8.9817
 30
0.0
 10
0.3378
 20
8.8772
 30
0.0
 10
0.4327
 20
8.7588
 30
0.0
 10
0.4908
 20
8.6266
 30
0.0
 10
0.4908
 20
8.6266
 30
0.0
 10
0.5492
 20
8.4951
 30
0.0
 10
0.5709
 20
8.3534
 30
0.0
 10
0.5573
 20
8.2011
 30
0.0
 10
0.5573
 20
8.2011
 30
0.0
 10
0.5431
 20
8.0494
 30
0.0
 10
0.4979
 20
7.8866
 30
0.0
 10
0.4212
 20
7.7133
 30
0.0
 10
0.4212
 20
7.7133
 30
0.0
 10
0.3452
 20
7.5396
 30
0.0
 10
0.2107
 20
7.3307
 30
0.0
 10
0.018
 20
7.0857
 30
0.0
 10
0.018
 20
7.0857
 30
0.0
 10
-0.2099
 20
6.7959
 30
0.0
 10
-0.4235
 20
6.5859
 30
0.0
 10
-0.6229
 20
6.4542
 30
0.0
 10
-0.6229
 20
6.4542
 30
0.0
 10
-0.8229
 20
6.3229
 30
0.0
 10
-1.0202
 20
6.2556
 30
0.0
 10
-1.215
 20
6.2516
 30
0.0
 10
-1.215
 20
6.2516
 30
0.0
 10
-1.4099
 20
6.2475
 30
0.0
 10
-1.5975
 20
6.3169
 30
0.0
 10
-1.7786
 20
6.4593
 30
0.0
 10
-1.7786
 20
6.4593
 30
0.0
 10
-2.0167
 20
6.6465
 30
0.0
 10
-2.1367
 20
6.8786
 30
0.0
 10
-2.1381
 20
7.1562
 30
0.0
 10
-2.1381
 20
7.1562
 30
0.0
 10
-2.1394
 20
7.4895
 30
0.0
 10
-1.9574
 20
7.889
 30
0.0
 10
-1.5929
 20
8.3525
 30
0.0
  0
SPLINE
  5
70
330
1F
100
AcDbEntity
  8
DEFAULT_1
 62
   250
100
AcDbSpline
210
0.0
220
0.0
230
1.0
 70
    11
 71
     3
 72
    36
 73
    32
 74
     0
 42
0.0000000001
 43
0.0000000001
 40
0.0
 40
0.0
 40
0.0
 40
0.0
 40
0.1111111111111111
 40
0.1111111111111111
 40
0.1111111111111111
 40
0.1111111111111111
 40
0.2222222222222222
 40
0.2222222222222222
 40
0.2222222222222222
 40
0.2222222222222222
 40
0.3333333333333333
 40
0.3333333333333333
 40
0.3333333333333333
 40
0.3333333333333333
 40
0.4444444444444444
 40
0.4444444444444444
 40
0.4444444444444444
 40
0.4444444444444444
 40
0.5555555555555556
 40
0.5555555555555556
 40
0.5555555555555556
 40
0.5555555555555556
 40
0.6666666666666666
 40
0.6666666666666666
 40
0.6666666666666666
 40
0.6666666666666666
 40
0.7777777777777778
 40
0.7777777777777778
 40
0.7777777777777778
 40
0.7777777777777778
 40
1.0
 40
1.0
 40
1.0
 40
1.0
 10
-1.2812
 20
8.1074
 30
0.0
 10
-1.6
 20
7.702
 30
0.0
 10
-1.7644
 20
7.3947
 30
0.0
 10
-1.7753
 20
7.1855
 30
0.0
 10
-1.7753
 20
7.1855
 30
0.0
 10
-1.7858
 20
6.9769
 30
0.0
 10
-1.722
 20
6.8178
 30
0.0
 10
-1.5828
 20
6.7083
 30
0.0
 10
-1.5828
 20
6.7083
 30
0.0
 10
-1.443
 20
6.5984
 30
0.0
 10
-1.2729
 20
6.5744
 30
0.0
 10
-1.0722
 20
6.6344
 30
0.0
 10
-1.0722
 20
6.6344
 30
0.0
 10
-0.8715
 20
6.6944
 30
0.0
 10
-0.6117
 20
6.9266
 30
0.0
 10
-0.2937
 20
7.3309
 30
0.0
 10
-0.2937
 20
7.3309
 30
0.0
 10
0.026
 20
7.7375
 30
0.0
 10
0.1908
 20
8.0453
 30
0.0
 10
0.2009
 20
8.2534
 30
0.0
 10
0.2009
 20
8.2534
 30
0.0
 10
0.2114
 20
8.4619
 30
0.0
 10
0.1459
 20
8.6214
 30
0.0
 10
0.0045
 20
8.7326
 30
0.0
 10
0.0045
 20
8.7326
 30
0.0
 10
-0.1353
 20
8.8425
 30
0.0
 10
-0.2928
 20
8.8706
 30
0.0
 10
-0.469
 20
8.8183
 30
0.0
 10
-0.469
 20
8.8183
 30
0.0
 10
-0.6911
 20
8.75
 30
0.0
 10
-0.9623
 20
8.5129
 30
0.0
 10
-1.2812
 20
8.1074
 30
0.0
  0
SPLINE
  5
71
330
1F
100
AcDbEntity
  8
DEFAULT_1
 62
   250
100
AcDbSpline
210
0.0
220
0.0
230
1.0
 70
    11
 71
     3
 72
    36
 73
    32
 74
     0
 42
0.0000000001
 43
0.0000000001
 40
0.0
 40
0.0
 40
0.0
 40
0.0
 40
0.1111111111111111
 40
0.1111111111111111
 40
0.1111111111111111
 40
0.1111111111111111
 40
0.2222222222222222
 40
0.2222222222222222
 40
0.2222222222222222
 40
0.2222222222222222
 40
0.3333333333333333
 40
0.3333333333333333
 40
0.3333333333333333
 40
0.3333333333333333
 40
0.4444444444444444
 40
0.4444444444444444
 40
0.4444444444444444
 40
0.4444444444444444
 40
0.5555555555555556
 40
0.5555555555555556
 40
0.5555555555555556
 40
0.5555555555555556
 40
0.6666666666666666
 40
0.6666666666666666
 40
0.6666666666666666
 40
0.6666666666666666
 40
0.7777777777777778
 40
0.7777777777777778
 40
0.7777777777777778
 40
0.7777777777777778
 40
1.0
 40
1.0
 40
1.0
 40
1.0
 10
1.0496
 20
7.6139
 30
0.0
 10
1.1509
 20
7.7427
 30
0.0
 10
1.2837
 20
7.817
 30
0.0
 10
1.4466
 20
7.8359
 30
0.0
 10
1.4466
 20
7.8359
 30
0.0
 10
1.6095
 20
7.8549
 30
0.0
 10
1.7551
 20
7.8139
 30
0.0
 10
1.8833
 20
7.7131
 30
0.0
 10
1.8833
 20
7.7131
 30
0.0
 10
2.0133
 20
7.6109
 30
0.0
 10
2.088
 20
7.4786
 30
0.0
 10
2.108
 20
7.3158
 30
0.0
 10
2.108
 20
7.3158
 30
0.0
 10
2.1274
 20
7.1535
 30
0.0
 10
2.086
 20
7.0073
 30
0.0
 10
1.9847
 20
6.8785
 30
0.0
 10
1.9847
 20
6.8785
 30
0.0
 10
1.8829
 20
6.7491
 30
0.0
 10
1.7501
 20
6.6748
 30
0.0
 10
1.5867
 20
6.6554
 30
0.0
 10
1.5867
 20
6.6554
 30
0.0
 10
1.4234
 20
6.6358
 30
0.0
 10
1.2767
 20
6.6766
 30
0.0
 10
1.1479
 20
6.7779
 30
0.0
 10
1.1479
 20
6.7779
 30
0.0
 10
1.0197
 20
6.8788
 30
0.0
 10
0.9456
 20
7.0106
 30
0.0
 10
0.9256
 20
7.1734
 30
0.0
 10
0.9256
 20
7.1734
 30
0.0
 10
0.9061
 20
7.3368
 30
0.0
 10
0.9469
 20
7.4833
 30
0.0
 10
1.0496
 20
7.6139
 30
0.0
  0
SPLINE
  5
72
330
1F
100
AcDbEntity
  8
DEFAULT_1
 62
   250
100
AcDbSpline
210
0.0
220
0.0
230
1.0
 70
    11
 71
     3
 72
    36
 73
    32
 74
     0
 42
0.0000000001
 43
0.0000000001
 40
0.0
 40
0.0
 40
0.0
 40
0.0
 40
0.1111111111111111
 40
0.1111111111111111
 40
0.1111111111111111
 40
0.1111111111111111
 40
0.2222222222222222
 40
0.2222222222222222
 40
0.2222222222222222
 40
0.2222222222222222
 40
0.3333333333333333
 40
0.3333333333333333
 40
0.3333333333333333
 40
0.3333333333333333
 40
0.4444444444444444
 40
0.4444444444444444
 40
0.4444444444444444
 40
0.4444444444444444
 40
0.5555555555555556
 40
0.5555555555555556
 40
0.5555555555555556
 40
0.5555555555555556
 40
0.6666666666666666
 40
0.6666666666666666
 40
0.6666666666666666
 40
0.6666666666666666
 40
0.7777777777777778
 40
0.7777777777777778
 40
0.7777777777777778
 40
0.7777777777777778
 40
1.0
 40
1.0
 40
1.0
 40
1.0
 10
1.233
 20
7.4696
 30
0.0
 10
1.1711
 20
7.3908
 30
0.0
 10
1.1463
 20
7.3014
 30
0.0
 10
1.158
 20
7.2027
 30
0.0
 10
1.158
 20
7.2027
 30
0.0
 10
1.17
 20
7.1031
 30
0.0
 10
1.2156
 20
7.0226
 30
0.0
 10
1.2938
 20
6.9611
 30
0.0
 10
1.2938
 20
6.9611
 30
0.0
 10
1.3715
 20
6.9
 30
0.0
 10
1.4599
 20
6.8751
 30
0.0
 10
1.5595
 20
6.8871
 30
0.0
 10
1.5595
 20
6.8871
 30
0.0
 10
1.6582
 20
6.8989
 30
0.0
 10
1.7393
 20
6.944
 30
0.0
 10
1.8012
 20
7.0228
 30
0.0
 10
1.8012
 20
7.0228
 30
0.0
 10
1.8627
 20
7.101
 30
0.0
 10
1.8875
 20
7.1904
 30
0.0
 10
1.8761
 20
7.2897
 30
0.0
 10
1.8761
 20
7.2897
 30
0.0
 10
1.8638
 20
7.3887
 30
0.0
 10
1.8192
 20
7.4694
 30
0.0
 10
1.7416
 20
7.5305
 30
0.0
 10
1.7416
 20
7.5305
 30
0.0
 10
1.6633
 20
7.592
 30
0.0
 10
1.5739
 20
7.6167
 30
0.0
 10
1.4747
 20
7.6054
 30
0.0
 10
1.4747
 20
7.6054
 30
0.0
 10
1.3756
 20
7.5929
 30
0.0
 10
1.2945
 20
7.5478
 30
0.0
 10
1.233
 20
7.4696
 30
0.0
  0
SPLINE
  5
73
330
1F
100
AcDbEntity
  8
DEFAULT_1
 62
   250
100
AcDbSpline
210
0.0
220
0.0
230
1.0
 70
    24
 71
     3
 72
     8
 73
     4
 74
     0
 42
0.0000000001
 43
0.0000000001
 40
0.0
 40
0.0
 40
0.0
 40
0.0
 40
1.0
 40
1.0
 40
1.0
 40
1.0
 10
-9.9517
 20
-45.725
 30
0.0
 10
-9.9517
 20
-45.725
 30
0.0
 10
-9.9517
 20
-53.6354
 30
0.0
 10
-9.9517
 20
-53.6354
 30
0.0
  0
SPLINE
  5
74
330
1F
100
AcDbEntity
  8
DEFAULT_1
 62
   250
100
AcDbSpline
210
0.0
220
0.0
230
1.0
 70
    24
 71
     3
 72
     8
 73
     4
 74
     0
 42
0.0000000001
 43
0.0000000001
 40
0.0
 40
0.0
 40
0.0
 40
0.0
 40
1.0
 40
1.0
 40
1.0
 40
1.0
 10
23.9832
 20
-46.1186
 30
0.0
 10
23.9832
 20
-46.1186
 30
0.0
 10
23.9832
 20
-53.7535
 30
0.0
 10
23.9832
 20
-53.7535
 30
0.0
  0
SPLINE
  5
75
330
1F
100
AcDbEntity
  8
DEFAULT_1
 62
   250
100
AcDbSpline
210
0.0
220
0.0
230
1.0
 70
    24
 71
     3
 72
     8
 73
     4
 74
     0
 42
0.0000000001
 43
0.0000000001
 40
0.0
 40
0.0
 40
0.0
 40
0.0
 40
1.0
 40
1.0
 40
1.0
 40
1.0
 10
23.9828
 20
-52.7536
 30
0.0
 10
23.9828
 20
-52.7536
 30
0.0
 10
-9.9474
 20
-52.7536
 30
0.0
 10
-9.9474
 20
-52.7536
 30
0.0
  0
SPLINE
  5
76
330
1F
100
AcDbEntity
  8
DEFAULT_1
 62
   250
100
AcDbSpline
210
0.0
220
0.0
230
1.0
 70
    24
 71
     3
 72
     8
 73
     4
 74
     0
 42
0.0000000001
 43
0.0000000001
 40
0.0
 40
0.0
 40
0.0
 40
0.0
 40
1.0
 40
1.0
 40
1.0
 40
1.0
 10
0.3676
 20
46.2488
 30
0.0
 10
0.3676
 20
46.2488
 30
0.0
 10
0.3676
 20
50.1889
 30
0.0
 10
0.3676
 20
50.1889
 30
0.0
  0
SPLINE
  5
77
330
1F
100
AcDbEntity
  8
DEFAULT_1
 62
   250
100
AcDbSpline
210
0.0
220
0.0
230
1.0
 70
    24
 71
     3
 72
     8
 73
     4
 74
     0
 42
0.0000000001
 43
0.0000000001
 40
0.0
 40
0.0
 40
0.0
 40
0.0
 40
1.0
 40
1.0
 40
1.0
 40
1.0
 10
13.0159
 20
46.2925
 30
0.0
 10
13.0159
 20
46.2925
 30
0.0
 10
13.0159
 20
50.2206
 30
0.0
 10
13.0159
 20
50.2206
 30
0.0
  0
SPLINE
  5
78
330
1F
100
AcDbEntity
  8
DEFAULT_1
 62
   250
100
AcDbSpline
210
0.0
220
0.0
230
1.0
 70
    24
 71
     3
 72
     8
 73
     4
 74
     0
 42
0.0000000001
 43
0.0000000001
 40
0.0
 40
0.0
 40
0.0
 40
0.0
 40
1.0
 40
1.0
 40
1.0
 40
1.0
 10
19.4411
 20
49.4475
 30
0.0
 10
19.4411
 20
49.4475
 30
0.0
 10
-5.436
 20
49.4475
 30
0.0
 10
-5.436
 20
49.4475
 30
0.0
  0
SPLINE
  5
79
330
1F
100
AcDbEntity
  8
DEFAULT_1
 62
   250
100
AcDbSpline
210
0.0
220
0.0
230
1.0
 70
    24
 71
     3
 72
     8
 73
     4
 74
     0
 42
0.0000000001
 43
0.0000000001
 40
0.0
 40
0.0
 40
0.0
 40
0.0
 40
1.0
 40
1.0
 40
1.0
 40
1.0
 10
-20.6036
 20
28.1106
 30
0.0
 10
-20.6036
 20
28.1106
 30
0.0
 10
-24.7744
 20
28.1106
 30
0.0
 10
-24.7744
 20
28.1106
 30
0.0
  0
SPLINE
  5
7A
330
1F
100
AcDbEntity
  8
DEFAULT_1
 62
   250
100
AcDbSpline
210
0.0
220
0.0
230
1.0
 70
    24
 71
     3
 72
     8
 73
     4
 74
     0
 42
0.0000000001
 43
0.0000000001
 40
0.0
 40
0.0
 40
0.0
 40
0.0
 40
1.0
 40
1.0
 40
1.0
 40
1.0
 10
-20.6994
 20
5.3615
 30
0.0
 10
-20.6994
 20
5.3615
 30
0.0
 10
-24.7744
 20
5.3615
 30
0.0
 10
-24.7744
 20
5.3615
 30
0.0
  0
SPLINE
  5
7B
330
1F
100
AcDbEntity
  8
DEFAULT_1
 62
   250
100
AcDbSpline
210
0.0
220
0.0
230
1.0
 70
    24
 71
     3
 72
     8
 73
     4
 74
     0
 42
0.0000000001
 43
0.0000000001
 40
0.0
 40
0.0
 40
0.0
 40
0.0
 40
1.0
 40
1.0
 40
1.0
 40
1.0
 10
-23.699
 20
5.5533
 30
0.0
 10
-23.699
 20
5.5533
 30
0.0
 10
-23.699
 20
28.0707
 30
0.0
 10
-23.699
 20
28.0707
 30
0.0
  0
SPLINE
  5
7C
330
1F
100
AcDbEntity
  8
DEFAULT_1
 62
   250
100
AcDbSpline
210
0.0
220
0.0
230
1.0
 70
    24
 71
     3
 72
     8
 73
     4
 74
     0
 42
0.0000000001
 43
0.0000000001
 40
0.0
 40
0.0
 40
0.0
 40
0.0
 40
1.0
 40
1.0
 40
1.0
 40
1.0
 10
-20.7639
 20
-3.7791
 30
0.0
 10
-20.7639
 20
-3.7791
 30
0.0
 10
-31.5503
 20
-3.7791
 30
0.0
 10
-31.5503
 20
-3.7791
 30
0.0
  0
SPLINE
  5
7D
330
1F
100
AcDbEntity
  8
DEFAULT_1
 62
   250
100
AcDbSpline
210
0.0
220
0.0
230
1.0
 70
    24
 71
     3
 72
     8
 73
     4
 74
     0
 42
0.0000000001
 43
0.0000000001
 40
0.0
 40
0.0
 40
0.0
 40
0.0
 40
1.0
 40
1.0
 40
1.0
 40
1.0
 10
-18.0321
 20
37.2512
 30
0.0
 10
-18.0321
 20
37.2512
 30
0.0
 10
-31.5921
 20
37.2512
 30
0.0
 10
-31.5921
 20
37.2512
 30
0.0
  0
SPLINE
  5
7E
330
1F
100
AcDbEntity
  8
DEFAULT_1
 62
   250
100
AcDbSpline
210
0.0
220
0.0
230
1.0
 70
    24
 71
     3
 72
     8
 73
     4
 74
     0
 42
0.0000000001
 43
0.0000000001
 40
0.0
 40
0.0
 40
0.0
 40
0.0
 40
1.0
 40
1.0
 40
1.0
 40
1.0
 10
-30.4858
 20
-3.7792
 30
0.0
 10
-30.4858
 20
-3.7792
 30
0.0
 10
-30.4858
 20
37.1273
 30
0.0
 10
-30.4858
 20
37.1273
 30
0.0
  0
SPLINE
  5
7F
330
1F
100
AcDbEntity
  8
DEFAULT_1
 62
   250
100
AcDbSpline
210
0.0
220
0.0
230
1.0
 70
    24
 71
     3
 72
     8
 73
     4
 74
     0
 42
0.0000000001
 43
0.0000000001
 40
0.0
 40
0.0
 40
0.0
 40
0.0
 40
1.0
 40
1.0
 40
1.0
 40
1.0
 10
-5.9989
 20
-0.2309
 30
0.0
 10
-5.9989
 20
-0.2309
 30
0.0
 10
-5.9989
 20
33.6541
 30
0.0
 10
-5.9989
 20
33.6541
 30
0.0
  0
SPLINE
  5
80
330
1F
100
AcDbEntity
  8
DEFAULT_1
 62
   250
100
AcDbSpline
210
0.0
220
0.0
230
1.0
 70
     8
 71
     3
 72
     8
 73
     4
 74
     0
 42
0.0000000001
 43
0.0000000001
 40
0.0
 40
0.0
 40
0.0
 40
0.0
 40
1.0
 40
1.0
 40
1.0
 40
1.0
 10
-8.2718
 20
16.6951
 30
0.0
 10
-8.2718
 20
12.7768
 30
0.0
 10
-6.7152
 20
9.0189
 30
0.0
 10
-3.9446
 20
6.2483
 30
0.0
  0
SPLINE
  5
81
330
1F
100
AcDbEntity
  8
DEFAULT_1
 62
   250
100
AcDbSpline
210
0.0
220
0.0
230
1.0
 70
     8
 71
     3
 72
     8
 73
     4
 74
     0
 42
0.0000000001
 43
0.0000000001
 40
0.0
 40
0.0
 40
0.0
 40
0.0
 40
1.0
 40
1.0
 40
1.0
 40
1.0
 10
-3.9446
 20
6.2483
 30
0.0
 10
-1.1739
 20
3.4776
 30
0.0
 10
2.584
 20
1.9211
 30
0.0
 10
6.5023
 20
1.9211
 30
0.0
  0
SPLINE
  5
82
330
1F
100
AcDbEntity
  8
DEFAULT_1
 62
   250
100
AcDbSpline
210
0.0
220
0.0
230
1.0
 70
    24
 71
     3
 72
     8
 73
     4
 74
     0
 42
0.0000000001
 43
0.0000000001
 40
0.0
 40
0.0
 40
0.0
 40
0.0
 40
1.0
 40
1.0
 40
1.0
 40
1.0
 10
25.4595
 20
-44.9637
 30
0.0
 10
25.4595
 20
-44.9637
 30
0.0
 10
34.6536
 20
-44.9637
 30
0.0
 10
34.6536
 20
-44.9637
 30
0.0
  0
SPLINE
  5
83
330
1F
100
AcDbEntity
  8
DEFAULT_1
 62
   250
100
AcDbSpline
210
0.0
220
0.0
230
1.0
 70
    24
 71
     3
 72
     8
 73
     4
 74
     0
 42
0.0000000001
 43
0.0000000001
 40
0.0
 40
0.0
 40
0.0
 40
0.0
 40
1.0
 40
1.0
 40
1.0
 40
1.0
 10
22.7016
 20
16.736
 30
0.0
 10
22.7016
 20
16.736
 30
0.0
 10
35.0667
 20
16.736
 30
0.0
 10
35.0667
 20
16.736
 30
0.0
  0
SPLINE
  5
84
330
1F
100
AcDbEntity
  8
DEFAULT_1
 62
   250
100
AcDbSpline
210
0.0
220
0.0
230
1.0
 70
    24
 71
     3
 72
     8
 73
     4
 74
     0
 42
0.0000000001
 43
0.0000000001
 40
0.0
 40
0.0
 40
0.0
 40
0.0
 40
1.0
 40
1.0
 40
1.0
 40
1.0
 10
33.4573
 20
-44.9633
 30
0.0
 10
33.4573
 20
-44.9633
 30
0.0
 10
33.4573
 20
16.6837
 30
0.0
 10
33.4573
 20
16.6837
 30
0.0
  0
SPLINE
  5
85
330
1F
100
AcDbEntity
  8
DEFAULT_1
 62
   250
100
AcDbSpline
210
0.0
220
0.0
230
1.0
 70
    24
 71
     3
 72
     8
 73
     4
 74
     0
 42
0.0000000001
 43
0.0000000001
 40
0.0
 40
0.0
 40
0.0
 40
0.0
 40
1.0
 40
1.0
 40
1.0
 40
1.0
 10
-9.9516
 20
-44.9637
 30
0.0
 10
-9.9516
 20
-44.9637
 30
0.0
 10
23.9832
 20
-44.9637
 30
0.0
 10
23.9832
 20
-44.9637
 30
0.0
  0
SPLINE
  5
86
330
1F
100
AcDbEntity
  8
DEFAULT_1
 62
   250
100
AcDbSpline
210
0.0
220
0.0
230
1.0
 70
    24
 71
     3
 72
     8
 73
     4
 74
     0
 42
0.0000000001
 43
0.0000000001
 40
0.0
 40
0.0
 40
0.0
 40
0.0
 40
1.0
 40
1.0
 40
1.0
 40
1.0
 10
-19.2661
 20
36.9205
 30
0.0
 10
-19.2661
 20
36.9205
 30
0.0
 10
-19.2661
 20
-3.4484
 30
0.0
 10
-19.2661
 20
-3.4484
 30
0.0
  0
SPLINE
  5
87
330
1F
100
AcDbEntity
  8
DEFAULT_1
 62
   250
100
AcDbSpline
210
0.0
220
0.0
230
1.0
 70
    24
 71
     3
 72
     8
 73
     4
 74
     0
 42
0.0000000001
 43
0.0000000001
 40
0.0
 40
0.0
 40
0.0
 40
0.0
 40
1.0
 40
1.0
 40
1.0
 40
1.0
 10
-13.7132
 20
37.2512
 30
0.0
 10
-13.7132
 20
37.2512
 30
0.0
 10
-13.7132
 20
-3.7791
 30
0.0
 10
-13.7132
 20
-3.7791
 30
0.0
  0
SPLINE
  5
88
330
1F
100
AcDbEntity
  8
DEFAULT_1
 62
   250
100
AcDbSpline
210
0.0
220
0.0
230
1.0
 70
    24
 71
     3
 72
     8
 73
     4
 74
     0
 42
0.0000000001
 43
0.0000000001
 40
0.0
 40
0.0
 40
0.0
 40
0.0
 40
1.0
 40
1.0
 40
1.0
 40
1.0
 10
-9.952
 20
-44.9638
 30
0.0
 10
-9.952
 20
-44.9638
 30
0.0
 10
-9.952
 20
-2.0016
 30
0.0
 10
-9.952
 20
-2.0016
 30
0.0
  0
SPLINE
  5
89
330
1F
100
AcDbEntity
  8
DEFAULT_1
 62
   250
100
AcDbSpline
210
0.0
220
0.0
230
1.0
 70
    24
 71
     3
 72
     8
 73
     4
 74
     0
 42
0.0000000001
 43
0.0000000001
 40
0.0
 40
0.0
 40
0.0
 40
0.0
 40
1.0
 40
1.0
 40
1.0
 40
1.0
 10
-6.0007
 20
-0.2313
 30
0.0
 10
-6.0007
 20
-0.2313
 30
0.0
 10
-6.0006
 20
-0.2313
 30
0.0
 10
-6.0006
 20
-0.2313
 30
0.0
  0
SPLINE
  5
8A
330
1F
100
AcDbEntity
  8
DEFAULT_1
 62
   250
100
AcDbSpline
210
0.0
220
0.0
230
1.0
 70
    24
 71
     3
 72
     8
 73
     4
 74
     0
 42
0.0000000001
 43
0.0000000001
 40
0.0
 40
0.0
 40
0.0
 40
0.0
 40
1.0
 40
1.0
 40
1.0
 40
1.0
 10
-19.2661
 20
-3.4484
 30
0.0
 10
-19.2661
 20
-3.4484
 30
0.0
 10
-18.0321
 20
-3.7791
 30
0.0
 10
-18.0321
 20
-3.7791
 30
0.0
  0
SPLINE
  5
8B
330
1F
100
AcDbEntity
  8
DEFAULT_1
 62
   250
100
AcDbSpline
210
0.0
220
0.0
230
1.0
 70
    24
 71
     3
 72
     8
 73
     4
 74
     0
 42
0.0000000001
 43
0.0000000001
 40
0.0
 40
0.0
 40
0.0
 40
0.0
 40
1.0
 40
1.0
 40
1.0
 40
1.0
 10
-1.7918
 20
44.0382
 30
0.0
 10
-1.7918
 20
44.0382
 30
0.0
 10
-1.7918
 20
39.7192
 30
0.0
 10
-1.7918
 20
39.7192
 30
0.0
  0
SPLINE
  5
8C
330
1F
100
AcDbEntity
  8
DEFAULT_1
 62
   250
100
AcDbSpline
210
0.0
220
0.0
230
1.0
 70
    24
 71
     3
 72
     8
 73
     4
 74
     0
 42
0.0000000001
 43
0.0000000001
 40
0.0
 40
0.0
 40
0.0
 40
0.0
 40
1.0
 40
1.0
 40
1.0
 40
1.0
 10
-1.7694
 20
40.6447
 30
0.0
 10
-1.7694
 20
40.6447
 30
0.0
 10
-1.7694
 20
43.4212
 30
0.0
 10
-1.7694
 20
43.4212
 30
0.0
  0
SPLINE
  5
8D
330
1F
100
AcDbEntity
  8
DEFAULT_1
 62
   250
100
AcDbSpline
210
0.0
220
0.0
230
1.0
 70
    24
 71
     3
 72
     8
 73
     4
 74
     0
 42
0.0000000001
 43
0.0000000001
 40
0.0
 40
0.0
 40
0.0
 40
0.0
 40
1.0
 40
1.0
 40
1.0
 40
1.0
 10
-1.6376
 20
44.8094
 30
0.0
 10
-1.6376
 20
44.8094
 30
0.0
 10
-1.6376
 20
44.0382
 30
0.0
 10
-1.6376
 20
44.0382
 30
0.0
  0
SPLINE
  5
8E
330
1F
100
AcDbEntity
  8
DEFAULT_1
 62
   250
100
AcDbSpline
210
0.0
220
0.0
230
1.0
 70
    24
 71
     3
 72
     8
 73
     4
 74
     0
 42
0.0000000001
 43
0.0000000001
 40
0.0
 40
0.0
 40
0.0
 40
0.0
 40
1.0
 40
1.0
 40
1.0
 40
1.0
 10
-1.6147
 20
43.4212
 30
0.0
 10
-1.6147
 20
43.4212
 30
0.0
 10
-1.6147
 20
40.6447
 30
0.0
 10
-1.6147
 20
40.6447
 30
0.0
  0
SPLINE
  5
8F
330
1F
100
AcDbEntity
  8
DEFAULT_1
 62
   250
100
AcDbSpline
210
0.0
220
0.0
230
1.0
 70
    24
 71
     3
 72
     8
 73
     4
 74
     0
 42
0.0000000001
 43
0.0000000001
 40
0.0
 40
0.0
 40
0.0
 40
0.0
 40
1.0
 40
1.0
 40
1.0
 40
1.0
 10
-13.7132
 20
-3.7791
 30
0.0
 10
-13.7132
 20
-3.7791
 30
0.0
 10
-6.0007
 20
-0.2313
 30
0.0
 10
-6.0007
 20
-0.2313
 30
0.0
  0
SPLINE
  5
90
330
1F
100
AcDbEntity
  8
DEFAULT_1
 62
   250
100
AcDbSpline
210
0.0
220
0.0
230
1.0
 70
    24
 71
     3
 72
     8
 73
     4
 74
     0
 42
0.0000000001
 43
0.0000000001
 40
0.0
 40
0.0
 40
0.0
 40
0.0
 40
1.0
 40
1.0
 40
1.0
 40
1.0
 10
-18.0321
 20
-3.7791
 30
0.0
 10
-18.0321
 20
-3.7791
 30
0.0
 10
-13.7132
 20
-3.7791
 30
0.0
 10
-13.7132
 20
-3.7791
 30
0.0
  0
SPLINE
  5
91
330
1F
100
AcDbEntity
  8
DEFAULT_1
 62
   250
100
AcDbSpline
210
0.0
220
0.0
230
1.0
 70
    24
 71
     3
 72
     8
 73
     4
 74
     0
 42
0.0000000001
 43
0.0000000001
 40
0.0
 40
0.0
 40
0.0
 40
0.0
 40
1.0
 40
1.0
 40
1.0
 40
1.0
 10
-19.422
 20
-3.0078
 30
0.0
 10
-19.422
 20
-3.0078
 30
0.0
 10
-19.4204
 20
-3.0078
 30
0.0
 10
-19.4204
 20
-3.0078
 30
0.0
  0
SPLINE
  5
92
330
1F
100
AcDbEntity
  8
DEFAULT_1
 62
   250
100
AcDbSpline
210
0.0
220
0.0
230
1.0
 70
    24
 71
     3
 72
     8
 73
     4
 74
     0
 42
0.0000000001
 43
0.0000000001
 40
0.0
 40
0.0
 40
0.0
 40
0.0
 40
1.0
 40
1.0
 40
1.0
 40
1.0
 10
0.2726
 20
40.6447
 30
0.0
 10
0.2726
 20
40.6447
 30
0.0
 10
0.2726
 20
43.4212
 30
0.0
 10
0.2726
 20
43.4212
 30
0.0
  0
SPLINE
  5
93
330
1F
100
AcDbEntity
  8
DEFAULT_1
 62
   250
100
AcDbSpline
210
0.0
220
0.0
230
1.0
 70
    24
 71
     3
 72
     8
 73
     4
 74
     0
 42
0.0000000001
 43
0.0000000001
 40
0.0
 40
0.0
 40
0.0
 40
0.0
 40
1.0
 40
1.0
 40
1.0
 40
1.0
 10
1.1452
 20
40.6447
 30
0.0
 10
1.1452
 20
40.6447
 30
0.0
 10
1.1452
 20
43.4212
 30
0.0
 10
1.1452
 20
43.4212
 30
0.0
  0
SPLINE
  5
94
330
1F
100
AcDbEntity
  8
DEFAULT_1
 62
   250
100
AcDbSpline
210
0.0
220
0.0
230
1.0
 70
    24
 71
     3
 72
     8
 73
     4
 74
     0
 42
0.0000000001
 43
0.0000000001
 40
0.0
 40
0.0
 40
0.0
 40
0.0
 40
1.0
 40
1.0
 40
1.0
 40
1.0
 10
1.2545
 20
43.4212
 30
0.0
 10
1.2545
 20
43.4212
 30
0.0
 10
1.2545
 20
40.6447
 30
0.0
 10
1.2545
 20
40.6447
 30
0.0
  0
SPLINE
  5
95
330
1F
100
AcDbEntity
  8
DEFAULT_1
 62
   250
100
AcDbSpline
210
0.0
220
0.0
230
1.0
 70
    24
 71
     3
 72
     8
 73
     4
 74
     0
 42
0.0000000001
 43
0.0000000001
 40
0.0
 40
0.0
 40
0.0
 40
0.0
 40
1.0
 40
1.0
 40
1.0
 40
1.0
 10
6.0748
 20
40.6447
 30
0.0
 10
6.0748
 20
40.6447
 30
0.0
 10
6.0748
 20
43.4212
 30
0.0
 10
6.0748
 20
43.4212
 30
0.0
  0
SPLINE
  5
96
330
1F
100
AcDbEntity
  8
DEFAULT_1
 62
   250
100
AcDbSpline
210
0.0
220
0.0
230
1.0
 70
    24
 71
     3
 72
     8
 73
     4
 74
     0
 42
0.0000000001
 43
0.0000000001
 40
0.0
 40
0.0
 40
0.0
 40
0.0
 40
1.0
 40
1.0
 40
1.0
 40
1.0
 10
7.3088
 20
40.6447
 30
0.0
 10
7.3088
 20
40.6447
 30
0.0
 10
7.3088
 20
43.4212
 30
0.0
 10
7.3088
 20
43.4212
 30
0.0
  0
SPLINE
  5
97
330
1F
100
AcDbEntity
  8
DEFAULT_1
 62
   250
100
AcDbSpline
210
0.0
220
0.0
230
1.0
 70
    24
 71
     3
 72
     8
 73
     4
 74
     0
 42
0.0000000001
 43
0.0000000001
 40
0.0
 40
0.0
 40
0.0
 40
0.0
 40
1.0
 40
1.0
 40
1.0
 40
1.0
 10
12.1292
 20
43.4212
 30
0.0
 10
12.1292
 20
43.4212
 30
0.0
 10
12.1292
 20
40.6447
 30
0.0
 10
12.1292
 20
40.6447
 30
0.0
  0
SPLINE
  5
98
330
1F
100
AcDbEntity
  8
DEFAULT_1
 62
   250
100
AcDbSpline
210
0.0
220
0.0
230
1.0
 70
    24
 71
     3
 72
     8
 73
     4
 74
     0
 42
0.0000000001
 43
0.0000000001
 40
0.0
 40
0.0
 40
0.0
 40
0.0
 40
1.0
 40
1.0
 40
1.0
 40
1.0
 10
12.2386
 20
40.6447
 30
0.0
 10
12.2386
 20
40.6447
 30
0.0
 10
12.2386
 20
43.4212
 30
0.0
 10
12.2386
 20
43.4212
 30
0.0
  0
SPLINE
  5
99
330
1F
100
AcDbEntity
  8
DEFAULT_1
 62
   250
100
AcDbSpline
210
0.0
220
0.0
230
1.0
 70
    24
 71
     3
 72
     8
 73
     4
 74
     0
 42
0.0000000001
 43
0.0000000001
 40
0.0
 40
0.0
 40
0.0
 40
0.0
 40
1.0
 40
1.0
 40
1.0
 40
1.0
 10
13.1111
 20
40.6447
 30
0.0
 10
13.1111
 20
40.6447
 30
0.0
 10
13.1111
 20
43.4212
 30
0.0
 10
13.1111
 20
43.4212
 30
0.0
  0
SPLINE
  5
9A
330
1F
100
AcDbEntity
  8
DEFAULT_1
 62
   250
100
AcDbSpline
210
0.0
220
0.0
230
1.0
 70
    24
 71
     3
 72
     8
 73
     4
 74
     0
 42
0.0000000001
 43
0.0000000001
 40
0.0
 40
0.0
 40
0.0
 40
0.0
 40
1.0
 40
1.0
 40
1.0
 40
1.0
 10
14.9984
 20
43.4212
 30
0.0
 10
14.9984
 20
43.4212
 30
0.0
 10
14.9984
 20
40.6447
 30
0.0
 10
14.9984
 20
40.6447
 30
0.0
  0
SPLINE
  5
9B
330
1F
100
AcDbEntity
  8
DEFAULT_1
 62
   250
100
AcDbSpline
210
0.0
220
0.0
230
1.0
 70
    24
 71
     3
 72
     8
 73
     4
 74
     0
 42
0.0000000001
 43
0.0000000001
 40
0.0
 40
0.0
 40
0.0
 40
0.0
 40
1.0
 40
1.0
 40
1.0
 40
1.0
 10
15.0213
 20
44.8094
 30
0.0
 10
15.0213
 20
44.8094
 30
0.0
 10
15.0213
 20
44.0382
 30
0.0
 10
15.0213
 20
44.0382
 30
0.0
  0
SPLINE
  5
9C
330
1F
100
AcDbEntity
  8
DEFAULT_1
 62
   250
100
AcDbSpline
210
0.0
220
0.0
230
1.0
 70
    24
 71
     3
 72
     8
 73
     4
 74
     0
 42
0.0000000001
 43
0.0000000001
 40
0.0
 40
0.0
 40
0.0
 40
0.0
 40
1.0
 40
1.0
 40
1.0
 40
1.0
 10
15.1531
 20
40.6447
 30
0.0
 10
15.1531
 20
40.6447
 30
0.0
 10
15.1531
 20
43.4212
 30
0.0
 10
15.1531
 20
43.4212
 30
0.0
  0
SPLINE
  5
9D
330
1F
100
AcDbEntity
  8
DEFAULT_1
 62
   250
100
AcDbSpline
210
0.0
220
0.0
230
1.0
 70
    24
 71
     3
 72
     8
 73
     4
 74
     0
 42
0.0000000001
 43
0.0000000001
 40
0.0
 40
0.0
 40
0.0
 40
0.0
 40
1.0
 40
1.0
 40
1.0
 40
1.0
 10
15.1756
 20
44.0382
 30
0.0
 10
15.1756
 20
44.0382
 30
0.0
 10
15.1756
 20
39.7192
 30
0.0
 10
15.1756
 20
39.7192
 30
0.0
  0
SPLINE
  5
9E
330
1F
100
AcDbEntity
  8
DEFAULT_1
 62
   250
100
AcDbSpline
210
0.0
220
0.0
230
1.0
 70
    24
 71
     3
 72
     8
 73
     4
 74
     0
 42
0.0000000001
 43
0.0000000001
 40
0.0
 40
0.0
 40
0.0
 40
0.0
 40
1.0
 40
1.0
 40
1.0
 40
1.0
 10
23.9832
 20
-44.9637
 30
0.0
 10
23.9832
 20
-44.9637
 30
0.0
 10
23.9832
 20
-0.2313
 30
0.0
 10
23.9832
 20
-0.2313
 30
0.0
  0
SPLINE
  5
9F
330
1F
100
AcDbEntity
  8
DEFAULT_1
 62
   250
100
AcDbSpline
210
0.0
220
0.0
230
1.0
 70
    24
 71
     3
 72
     8
 73
     4
 74
     0
 42
0.0000000001
 43
0.0000000001
 40
0.0
 40
0.0
 40
0.0
 40
0.0
 40
1.0
 40
1.0
 40
1.0
 40
1.0
 10
-13.7132
 20
37.2512
 30
0.0
 10
-13.7132
 20
37.2512
 30
0.0
 10
-6.0007
 20
33.7035
 30
0.0
 10
-6.0007
 20
33.7035
 30
0.0
  0
SPLINE
  5
A0
330
1F
100
AcDbEntity
  8
DEFAULT_1
 62
   250
100
AcDbSpline
210
0.0
220
0.0
230
1.0
 70
    24
 71
     3
 72
     8
 73
     4
 74
     0
 42
0.0000000001
 43
0.0000000001
 40
0.0
 40
0.0
 40
0.0
 40
0.0
 40
1.0
 40
1.0
 40
1.0
 40
1.0
 10
-19.422
 20
36.4799
 30
0.0
 10
-19.422
 20
36.4799
 30
0.0
 10
-19.4204
 20
36.4799
 30
0.0
 10
-19.4204
 20
36.4799
 30
0.0
  0
SPLINE
  5
A1
330
1F
100
AcDbEntity
  8
DEFAULT_1
 62
   250
100
AcDbSpline
210
0.0
220
0.0
230
1.0
 70
    24
 71
     3
 72
     8
 73
     4
 74
     0
 42
0.0000000001
 43
0.0000000001
 40
0.0
 40
0.0
 40
0.0
 40
0.0
 40
1.0
 40
1.0
 40
1.0
 40
1.0
 10
-18.0321
 20
37.2512
 30
0.0
 10
-18.0321
 20
37.2512
 30
0.0
 10
-13.7132
 20
37.2512
 30
0.0
 10
-13.7132
 20
37.2512
 30
0.0
  0
SPLINE
  5
A2
330
1F
100
AcDbEntity
  8
DEFAULT_1
 62
   250
100
AcDbSpline
210
0.0
220
0.0
230
1.0
 70
    24
 71
     3
 72
     8
 73
     4
 74
     0
 42
0.0000000001
 43
0.0000000001
 40
0.0
 40
0.0
 40
0.0
 40
0.0
 40
1.0
 40
1.0
 40
1.0
 40
1.0
 10
-1.7918
 20
39.7192
 30
0.0
 10
-1.7918
 20
39.7192
 30
0.0
 10
15.1756
 20
39.7192
 30
0.0
 10
15.1756
 20
39.7192
 30
0.0
  0
SPLINE
  5
A3
330
1F
100
AcDbEntity
  8
DEFAULT_1
 62
   250
100
AcDbSpline
210
0.0
220
0.0
230
1.0
 70
    24
 71
     3
 72
     8
 73
     4
 74
     0
 42
0.0000000001
 43
0.0000000001
 40
0.0
 40
0.0
 40
0.0
 40
0.0
 40
1.0
 40
1.0
 40
1.0
 40
1.0
 10
-1.7694
 20
40.6447
 30
0.0
 10
-1.7694
 20
40.6447
 30
0.0
 10
0.2726
 20
40.6447
 30
0.0
 10
0.2726
 20
40.6447
 30
0.0
  0
SPLINE
  5
A4
330
1F
100
AcDbEntity
  8
DEFAULT_1
 62
   250
100
AcDbSpline
210
0.0
220
0.0
230
1.0
 70
    24
 71
     3
 72
     8
 73
     4
 74
     0
 42
0.0000000001
 43
0.0000000001
 40
0.0
 40
0.0
 40
0.0
 40
0.0
 40
1.0
 40
1.0
 40
1.0
 40
1.0
 10
1.1452
 20
40.6447
 30
0.0
 10
1.1452
 20
40.6447
 30
0.0
 10
6.0748
 20
40.6447
 30
0.0
 10
6.0748
 20
40.6447
 30
0.0
  0
SPLINE
  5
A5
330
1F
100
AcDbEntity
  8
DEFAULT_1
 62
   250
100
AcDbSpline
210
0.0
220
0.0
230
1.0
 70
    24
 71
     3
 72
     8
 73
     4
 74
     0
 42
0.0000000001
 43
0.0000000001
 40
0.0
 40
0.0
 40
0.0
 40
0.0
 40
1.0
 40
1.0
 40
1.0
 40
1.0
 10
7.3088
 20
40.6447
 30
0.0
 10
7.3088
 20
40.6447
 30
0.0
 10
12.2386
 20
40.6447
 30
0.0
 10
12.2386
 20
40.6447
 30
0.0
  0
SPLINE
  5
A6
330
1F
100
AcDbEntity
  8
DEFAULT_1
 62
   250
100
AcDbSpline
210
0.0
220
0.0
230
1.0
 70
    24
 71
     3
 72
     8
 73
     4
 74
     0
 42
0.0000000001
 43
0.0000000001
 40
0.0
 40
0.0
 40
0.0
 40
0.0
 40
1.0
 40
1.0
 40
1.0
 40
1.0
 10
13.1111
 20
40.6447
 30
0.0
 10
13.1111
 20
40.6447
 30
0.0
 10
15.1531
 20
40.6447
 30
0.0
 10
15.1531
 20
40.6447
 30
0.0
  0
SPLINE
  5
A7
330
1F
100
AcDbEntity
  8
DEFAULT_1
 62
   250
100
AcDbSpline
210
0.0
220
0.0
230
1.0
 70
    24
 71
     3
 72
     8
 73
     4
 74
     0
 42
0.0000000001
 43
0.0000000001
 40
0.0
 40
0.0
 40
0.0
 40
0.0
 40
1.0
 40
1.0
 40
1.0
 40
1.0
 10
-19.2661
 20
36.9205
 30
0.0
 10
-19.2661
 20
36.9205
 30
0.0
 10
-18.0321
 20
37.2512
 30
0.0
 10
-18.0321
 20
37.2512
 30
0.0
  0
SPLINE
  5
A8
330
1F
100
AcDbEntity
  8
DEFAULT_1
 62
   250
100
AcDbSpline
210
0.0
220
0.0
230
1.0
 70
    24
 71
     3
 72
     8
 73
     4
 74
     0
 42
0.0000000001
 43
0.0000000001
 40
0.0
 40
0.0
 40
0.0
 40
0.0
 40
1.0
 40
1.0
 40
1.0
 40
1.0
 10
15.1531
 20
43.4212
 30
0.0
 10
15.1531
 20
43.4212
 30
0.0
 10
14.9984
 20
43.4212
 30
0.0
 10
14.9984
 20
43.4212
 30
0.0
  0
SPLINE
  5
A9
330
1F
100
AcDbEntity
  8
DEFAULT_1
 62
   250
100
AcDbSpline
210
0.0
220
0.0
230
1.0
 70
    24
 71
     3
 72
     8
 73
     4
 74
     0
 42
0.0000000001
 43
0.0000000001
 40
0.0
 40
0.0
 40
0.0
 40
0.0
 40
1.0
 40
1.0
 40
1.0
 40
1.0
 10
12.2386
 20
43.4212
 30
0.0
 10
12.2386
 20
43.4212
 30
0.0
 10
12.1292
 20
43.4212
 30
0.0
 10
12.1292
 20
43.4212
 30
0.0
  0
SPLINE
  5
AA
330
1F
100
AcDbEntity
  8
DEFAULT_1
 62
   250
100
AcDbSpline
210
0.0
220
0.0
230
1.0
 70
    24
 71
     3
 72
     8
 73
     4
 74
     0
 42
0.0000000001
 43
0.0000000001
 40
0.0
 40
0.0
 40
0.0
 40
0.0
 40
1.0
 40
1.0
 40
1.0
 40
1.0
 10
-1.7694
 20
43.4212
 30
0.0
 10
-1.7694
 20
43.4212
 30
0.0
 10
-1.6147
 20
43.4212
 30
0.0
 10
-1.6147
 20
43.4212
 30
0.0
  0
SPLINE
  5
AB
330
1F
100
AcDbEntity
  8
DEFAULT_1
 62
   250
100
AcDbSpline
210
0.0
220
0.0
230
1.0
 70
    24
 71
     3
 72
     8
 73
     4
 74
     0
 42
0.0000000001
 43
0.0000000001
 40
0.0
 40
0.0
 40
0.0
 40
0.0
 40
1.0
 40
1.0
 40
1.0
 40
1.0
 10
1.1452
 20
43.4212
 30
0.0
 10
1.1452
 20
43.4212
 30
0.0
 10
1.2545
 20
43.4212
 30
0.0
 10
1.2545
 20
43.4212
 30
0.0
  0
SPLINE
  5
AC
330
1F
100
AcDbEntity
  8
DEFAULT_1
 62
   250
100
AcDbSpline
210
0.0
220
0.0
230
1.0
 70
    24
 71
     3
 72
     8
 73
     4
 74
     0
 42
0.0000000001
 43
0.0000000001
 40
0.0
 40
0.0
 40
0.0
 40
0.0
 40
1.0
 40
1.0
 40
1.0
 40
1.0
 10
15.1756
 20
44.0382
 30
0.0
 10
15.1756
 20
44.0382
 30
0.0
 10
15.0213
 20
44.0382
 30
0.0
 10
15.0213
 20
44.0382
 30
0.0
  0
SPLINE
  5
AD
330
1F
100
AcDbEntity
  8
DEFAULT_1
 62
   250
100
AcDbSpline
210
0.0
220
0.0
230
1.0
 70
    24
 71
     3
 72
     8
 73
     4
 74
     0
 42
0.0000000001
 43
0.0000000001
 40
0.0
 40
0.0
 40
0.0
 40
0.0
 40
1.0
 40
1.0
 40
1.0
 40
1.0
 10
12.6907
 20
44.0382
 30
0.0
 10
12.6907
 20
44.0382
 30
0.0
 10
12.5817
 20
44.0382
 30
0.0
 10
12.5817
 20
44.0382
 30
0.0
  0
SPLINE
  5
AE
330
1F
100
AcDbEntity
  8
DEFAULT_1
 62
   250
100
AcDbSpline
210
0.0
220
0.0
230
1.0
 70
    24
 71
     3
 72
     8
 73
     4
 74
     0
 42
0.0000000001
 43
0.0000000001
 40
0.0
 40
0.0
 40
0.0
 40
0.0
 40
1.0
 40
1.0
 40
1.0
 40
1.0
 10
-1.7918
 20
44.0382
 30
0.0
 10
-1.7918
 20
44.0382
 30
0.0
 10
-1.6376
 20
44.0382
 30
0.0
 10
-1.6376
 20
44.0382
 30
0.0
  0
SPLINE
  5
AF
330
1F
100
AcDbEntity
  8
DEFAULT_1
 62
   250
100
AcDbSpline
210
0.0
220
0.0
230
1.0
 70
    24
 71
     3
 72
     8
 73
     4
 74
     0
 42
0.0000000001
 43
0.0000000001
 40
0.0
 40
0.0
 40
0.0
 40
0.0
 40
1.0
 40
1.0
 40
1.0
 40
1.0
 10
0.693
 20
44.0382
 30
0.0
 10
0.693
 20
44.0382
 30
0.0
 10
0.8021
 20
44.0382
 30
0.0
 10
0.8021
 20
44.0382
 30
0.0
  0
SPLINE
  5
B0
330
1F
100
AcDbEntity
  8
DEFAULT_1
 62
   250
100
AcDbSpline
210
0.0
220
0.0
230
1.0
 70
    24
 71
     3
 72
     8
 73
     4
 74
     0
 42
0.0000000001
 43
0.0000000001
 40
0.0
 40
0.0
 40
0.0
 40
0.0
 40
1.0
 40
1.0
 40
1.0
 40
1.0
 10
14.4043
 20
45.4264
 30
0.0
 10
14.4043
 20
45.4264
 30
0.0
 10
-1.0206
 20
45.4264
 30
0.0
 10
-1.0206
 20
45.4264
 30
0.0
  0
SPLINE
  5
B1
330
1F
100
AcDbEntity
  8
DEFAULT_1
 62
   250
100
AcDbSpline
210
0.0
220
0.0
230
1.0
 70
     8
 71
     3
 72
    36
 73
    32
 74
     0
 42
0.0000000001
 43
0.0000000001
 40
0.0
 40
0.0
 40
0.0
 40
0.0
 40
0.1111111111111111
 40
0.1111111111111111
 40
0.1111111111111111
 40
0.1111111111111111
 40
0.2222222222222222
 40
0.2222222222222222
 40
0.2222222222222222
 40
0.2222222222222222
 40
0.3333333333333333
 40
0.3333333333333333
 40
0.3333333333333333
 40
0.3333333333333333
 40
0.4444444444444444
 40
0.4444444444444444
 40
0.4444444444444444
 40
0.4444444444444444
 40
0.5555555555555556
 40
0.5555555555555556
 40
0.5555555555555556
 40
0.5555555555555556
 40
0.6666666666666666
 40
0.6666666666666666
 40
0.6666666666666666
 40
0.6666666666666666
 40
0.7777777777777778
 40
0.7777777777777778
 40
0.7777777777777778
 40
0.7777777777777778
 40
1.0
 40
1.0
 40
1.0
 40
1.0
 10
23.9832
 20
-0.2313
 30
0.0
 10
23.9832
 20
10.3136
 30
0.0
 10
19.081
 20
20.2594
 30
0.0
 10
10.7177
 20
26.6823
 30
0.0
 10
10.7177
 20
26.6823
 30
0.0
 10
10.7177
 20
26.6823
 30
0.0
 10
7.7886
 20
28.6477
 30
0.0
 10
7.7886
 20
28.6477
 30
0.0
 10
7.7886
 20
28.6477
 30
0.0
 10
7.7886
 20
28.6477
 30
0.0
 10
5.083
 20
30.1296
 30
0.0
 10
5.083
 20
30.1296
 30
0.0
 10
5.083
 20
30.1296
 30
0.0
 10
5.083
 20
30.1296
 30
0.0
 10
1.8935
 20
31.7503
 30
0.0
 10
1.8935
 20
31.7503
 30
0.0
 10
1.8935
 20
31.7503
 30
0.0
 10
1.8935
 20
31.7503
 30
0.0
 10
0.0782
 20
32.594
 30
0.0
 10
0.0782
 20
32.594
 30
0.0
 10
0.0782
 20
32.594
 30
0.0
 10
0.0782
 20
32.594
 30
0.0
 10
-1.2732
 20
33.1794
 30
0.0
 10
-1.2732
 20
33.1794
 30
0.0
 10
-1.2732
 20
33.1794
 30
0.0
 10
-1.2732
 20
33.1794
 30
0.0
 10
-2.5981
 20
33.4543
 30
0.0
 10
-2.5981
 20
33.4543
 30
0.0
 10
-2.5981
 20
33.4543
 30
0.0
 10
-2.5981
 20
33.4543
 30
0.0
 10
-6.1006
 20
33.6116
 30
0.0
 10
-6.1006
 20
33.6116
 30
0.0
  0
SPLINE
  5
B2
330
1F
100
AcDbEntity
  8
DEFAULT_1
 62
   250
100
AcDbSpline
210
0.0
220
0.0
230
1.0
 70
     8
 71
     3
 72
     8
 73
     4
 74
     0
 42
0.0000000001
 43
0.0000000001
 40
0.0
 40
0.0
 40
0.0
 40
0.0
 40
1.0
 40
1.0
 40
1.0
 40
1.0
 10
15.0213
 20
44.8094
 30
0.0
 10
15.0213
 20
45.1502
 30
0.0
 10
14.7451
 20
45.4264
 30
0.0
 10
14.4043
 20
45.4264
 30
0.0
  0
SPLINE
  5
B3
330
1F
100
AcDbEntity
  8
DEFAULT_1
 62
   250
100
AcDbSpline
210
0.0
220
0.0
230
1.0
 70
     8
 71
     3
 72
     8
 73
     4
 74
     0
 42
0.0000000001
 43
0.0000000001
 40
0.0
 40
0.0
 40
0.0
 40
0.0
 40
1.0
 40
1.0
 40
1.0
 40
1.0
 10
-1.0206
 20
45.4264
 30
0.0
 10
-1.3613
 20
45.4264
 30
0.0
 10
-1.6376
 20
45.1502
 30
0.0
 10
-1.6376
 20
44.8094
 30
0.0
  0
SPLINE
  5
B4
330
1F
100
AcDbEntity
  8
DEFAULT_1
 62
   250
100
AcDbSpline
210
0.0
220
0.0
230
1.0
 70
     8
 71
     3
 72
    12
 73
     8
 74
     0
 42
0.0000000001
 43
0.0000000001
 40
0.0
 40
0.0
 40
0.0
 40
0.0
 40
0.3333333333333333
 40
0.3333333333333333
 40
0.3333333333333333
 40
0.3333333333333333
 40
1.0
 40
1.0
 40
1.0
 40
1.0
 10
7.3088
 20
43.4212
 30
0.0
 10
7.3088
 20
43.7619
 30
0.0
 10
7.0326
 20
44.0382
 30
0.0
 10
6.6918
 20
44.0382
 30
0.0
 10
6.6918
 20
44.0382
 30
0.0
 10
6.3511
 20
44.0382
 30
0.0
 10
6.0748
 20
43.7619
 30
0.0
 10
6.0748
 20
43.4212
 30
0.0
  0
SPLINE
  5
B5
330
1F
100
AcDbEntity
  8
DEFAULT_1
 62
   250
100
AcDbSpline
210
0.0
220
0.0
230
1.0
 70
     8
 71
     3
 72
    28
 73
    24
 74
     0
 42
0.0000000001
 43
0.0000000001
 40
0.0
 40
0.0
 40
0.0
 40
0.0
 40
0.1428571428571428
 40
0.1428571428571428
 40
0.1428571428571428
 40
0.1428571428571428
 40
0.2857142857142857
 40
0.2857142857142857
 40
0.2857142857142857
 40
0.2857142857142857
 40
0.4285714285714285
 40
0.4285714285714285
 40
0.4285714285714285
 40
0.4285714285714285
 40
0.5714285714285714
 40
0.5714285714285714
 40
0.5714285714285714
 40
0.5714285714285714
 40
0.7142857142857143
 40
0.7142857142857143
 40
0.7142857142857143
 40
0.7142857142857143
 40
1.0
 40
1.0
 40
1.0
 40
1.0
 10
0.693
 20
44.0382
 30
0.0
 10
0.693
 20
44.0382
 30
0.0
 10
0.5813
 20
44.0172
 30
0.0
 10
0.5813
 20
44.0172
 30
0.0
 10
0.5813
 20
44.0172
 30
0.0
 10
0.5813
 20
44.0172
 30
0.0
 10
0.4789
 20
43.9555
 30
0.0
 10
0.4789
 20
43.9555
 30
0.0
 10
0.4789
 20
43.9555
 30
0.0
 10
0.4789
 20
43.9555
 30
0.0
 10
0.3925
 20
43.8574
 30
0.0
 10
0.3925
 20
43.8574
 30
0.0
 10
0.3925
 20
43.8574
 30
0.0
 10
0.3925
 20
43.8574
 30
0.0
 10
0.327
 20
43.7295
 30
0.0
 10
0.327
 20
43.7295
 30
0.0
 10
0.327
 20
43.7295
 30
0.0
 10
0.327
 20
43.7295
 30
0.0
 10
0.2864
 20
43.5807
 30
0.0
 10
0.2864
 20
43.5807
 30
0.0
 10
0.2864
 20
43.5807
 30
0.0
 10
0.2864
 20
43.5807
 30
0.0
 10
0.2726
 20
43.4212
 30
0.0
 10
0.2726
 20
43.4212
 30
0.0
  0
SPLINE
  5
B6
330
1F
100
AcDbEntity
  8
DEFAULT_1
 62
   250
100
AcDbSpline
210
0.0
220
0.0
230
1.0
 70
     8
 71
     3
 72
    28
 73
    24
 74
     0
 42
0.0000000001
 43
0.0000000001
 40
0.0
 40
0.0
 40
0.0
 40
0.0
 40
0.1428571428571428
 40
0.1428571428571428
 40
0.1428571428571428
 40
0.1428571428571428
 40
0.2857142857142857
 40
0.2857142857142857
 40
0.2857142857142857
 40
0.2857142857142857
 40
0.4285714285714285
 40
0.4285714285714285
 40
0.4285714285714285
 40
0.4285714285714285
 40
0.5714285714285714
 40
0.5714285714285714
 40
0.5714285714285714
 40
0.5714285714285714
 40
0.7142857142857143
 40
0.7142857142857143
 40
0.7142857142857143
 40
0.7142857142857143
 40
1.0
 40
1.0
 40
1.0
 40
1.0
 10
12.6907
 20
44.0382
 30
0.0
 10
12.6907
 20
44.0382
 30
0.0
 10
12.8025
 20
44.0172
 30
0.0
 10
12.8025
 20
44.0172
 30
0.0
 10
12.8025
 20
44.0172
 30
0.0
 10
12.8025
 20
44.0172
 30
0.0
 10
12.9048
 20
43.9555
 30
0.0
 10
12.9048
 20
43.9555
 30
0.0
 10
12.9048
 20
43.9555
 30
0.0
 10
12.9048
 20
43.9555
 30
0.0
 10
12.9913
 20
43.8574
 30
0.0
 10
12.9913
 20
43.8574
 30
0.0
 10
12.9913
 20
43.8574
 30
0.0
 10
12.9913
 20
43.8574
 30
0.0
 10
13.0567
 20
43.7295
 30
0.0
 10
13.0567
 20
43.7295
 30
0.0
 10
13.0567
 20
43.7295
 30
0.0
 10
13.0567
 20
43.7295
 30
0.0
 10
13.0974
 20
43.5807
 30
0.0
 10
13.0974
 20
43.5807
 30
0.0
 10
13.0974
 20
43.5807
 30
0.0
 10
13.0974
 20
43.5807
 30
0.0
 10
13.1111
 20
43.4212
 30
0.0
 10
13.1111
 20
43.4212
 30
0.0
  0
SPLINE
  5
B7
330
1F
100
AcDbEntity
  8
DEFAULT_1
 62
   250
100
AcDbSpline
210
0.0
220
0.0
230
1.0
 70
     8
 71
     3
 72
    28
 73
    24
 74
     0
 42
0.0000000001
 43
0.0000000001
 40
0.0
 40
0.0
 40
0.0
 40
0.0
 40
0.1428571428571428
 40
0.1428571428571428
 40
0.1428571428571428
 40
0.1428571428571428
 40
0.2857142857142857
 40
0.2857142857142857
 40
0.2857142857142857
 40
0.2857142857142857
 40
0.4285714285714285
 40
0.4285714285714285
 40
0.4285714285714285
 40
0.4285714285714285
 40
0.5714285714285714
 40
0.5714285714285714
 40
0.5714285714285714
 40
0.5714285714285714
 40
0.7142857142857143
 40
0.7142857142857143
 40
0.7142857142857143
 40
0.7142857142857143
 40
1.0
 40
1.0
 40
1.0
 40
1.0
 10
1.2545
 20
43.4212
 30
0.0
 10
1.2545
 20
43.4212
 30
0.0
 10
1.2388
 20
43.58
 30
0.0
 10
1.2388
 20
43.58
 30
0.0
 10
1.2388
 20
43.58
 30
0.0
 10
1.2388
 20
43.58
 30
0.0
 10
1.1917
 20
43.7305
 30
0.0
 10
1.1917
 20
43.7305
 30
0.0
 10
1.1917
 20
43.7305
 30
0.0
 10
1.1917
 20
43.7305
 30
0.0
 10
1.1189
 20
43.8571
 30
0.0
 10
1.1189
 20
43.8571
 30
0.0
 10
1.1189
 20
43.8571
 30
0.0
 10
1.1189
 20
43.8571
 30
0.0
 10
1.025
 20
43.9549
 30
0.0
 10
1.025
 20
43.9549
 30
0.0
 10
1.025
 20
43.9549
 30
0.0
 10
1.025
 20
43.9549
 30
0.0
 10
0.9154
 20
44.0174
 30
0.0
 10
0.9154
 20
44.0174
 30
0.0
 10
0.9154
 20
44.0174
 30
0.0
 10
0.9154
 20
44.0174
 30
0.0
 10
0.8021
 20
44.0382
 30
0.0
 10
0.8021
 20
44.0382
 30
0.0
  0
SPLINE
  5
B8
330
1F
100
AcDbEntity
  8
DEFAULT_1
 62
   250
100
AcDbSpline
210
0.0
220
0.0
230
1.0
 70
     8
 71
     3
 72
    32
 73
    28
 74
     0
 42
0.0000000001
 43
0.0000000001
 40
0.0
 40
0.0
 40
0.0
 40
0.0
 40
0.125
 40
0.125
 40
0.125
 40
0.125
 40
0.25
 40
0.25
 40
0.25
 40
0.25
 40
0.375
 40
0.375
 40
0.375
 40
0.375
 40
0.5
 40
0.5
 40
0.5
 40
0.5
 40
0.625
 40
0.625
 40
0.625
 40
0.625
 40
0.75
 40
0.75
 40
0.75
 40
0.75
 40
1.0
 40
1.0
 40
1.0
 40
1.0
 10
-1.6147
 20
43.4212
 30
0.0
 10
-1.6147
 20
43.4212
 30
0.0
 10
-1.6158
 20
43.5577
 30
0.0
 10
-1.6158
 20
43.5577
 30
0.0
 10
-1.6158
 20
43.5577
 30
0.0
 10
-1.6158
 20
43.5577
 30
0.0
 10
-1.619
 20
43.6899
 30
0.0
 10
-1.619
 20
43.6899
 30
0.0
 10
-1.619
 20
43.6899
 30
0.0
 10
-1.619
 20
43.6899
 30
0.0
 10
-1.6236
 20
43.8069
 30
0.0
 10
-1.6236
 20
43.8069
 30
0.0
 10
-1.6236
 20
43.8069
 30
0.0
 10
-1.6236
 20
43.8069
 30
0.0
 10
-1.6286
 20
43.903
 30
0.0
 10
-1.6286
 20
43.903
 30
0.0
 10
-1.6286
 20
43.903
 30
0.0
 10
-1.6286
 20
43.903
 30
0.0
 10
-1.6332
 20
43.9773
 30
0.0
 10
-1.6332
 20
43.9773
 30
0.0
 10
-1.6332
 20
43.9773
 30
0.0
 10
-1.6332
 20
43.9773
 30
0.0
 10
-1.6365
 20
44.0232
 30
0.0
 10
-1.6365
 20
44.0232
 30
0.0
 10
-1.6365
 20
44.0232
 30
0.0
 10
-1.6365
 20
44.0232
 30
0.0
 10
-1.6376
 20
44.0382
 30
0.0
 10
-1.6376
 20
44.0382
 30
0.0
  0
SPLINE
  5
B9
330
1F
100
AcDbEntity
  8
DEFAULT_1
 62
   250
100
AcDbSpline
210
0.0
220
0.0
230
1.0
 70
     8
 71
     3
 72
    28
 73
    24
 74
     0
 42
0.0000000001
 43
0.0000000001
 40
0.0
 40
0.0
 40
0.0
 40
0.0
 40
0.1428571428571428
 40
0.1428571428571428
 40
0.1428571428571428
 40
0.1428571428571428
 40
0.2857142857142857
 40
0.2857142857142857
 40
0.2857142857142857
 40
0.2857142857142857
 40
0.4285714285714285
 40
0.4285714285714285
 40
0.4285714285714285
 40
0.4285714285714285
 40
0.5714285714285714
 40
0.5714285714285714
 40
0.5714285714285714
 40
0.5714285714285714
 40
0.7142857142857143
 40
0.7142857142857143
 40
0.7142857142857143
 40
0.7142857142857143
 40
1.0
 40
1.0
 40
1.0
 40
1.0
 10
12.2386
 20
43.4212
 30
0.0
 10
12.2386
 20
43.4212
 30
0.0
 10
12.2544
 20
43.5807
 30
0.0
 10
12.2544
 20
43.5807
 30
0.0
 10
12.2544
 20
43.5807
 30
0.0
 10
12.2544
 20
43.5807
 30
0.0
 10
12.301
 20
43.7295
 30
0.0
 10
12.301
 20
43.7295
 30
0.0
 10
12.301
 20
43.7295
 30
0.0
 10
12.301
 20
43.7295
 30
0.0
 10
12.3743
 20
43.8574
 30
0.0
 10
12.3743
 20
43.8574
 30
0.0
 10
12.3743
 20
43.8574
 30
0.0
 10
12.3743
 20
43.8574
 30
0.0
 10
12.4687
 20
43.9555
 30
0.0
 10
12.4687
 20
43.9555
 30
0.0
 10
12.4687
 20
43.9555
 30
0.0
 10
12.4687
 20
43.9555
 30
0.0
 10
12.5769
 20
44.0172
 30
0.0
 10
12.5769
 20
44.0172
 30
0.0
 10
12.5769
 20
44.0172
 30
0.0
 10
12.5769
 20
44.0172
 30
0.0
 10
12.6907
 20
44.0382
 30
0.0
 10
12.6907
 20
44.0382
 30
0.0
  0
SPLINE
  5
BA
330
1F
100
AcDbEntity
  8
DEFAULT_1
 62
   250
100
AcDbSpline
210
0.0
220
0.0
230
1.0
 70
     8
 71
     3
 72
    32
 73
    28
 74
     0
 42
0.0000000001
 43
0.0000000001
 40
0.0
 40
0.0
 40
0.0
 40
0.0
 40
0.125
 40
0.125
 40
0.125
 40
0.125
 40
0.25
 40
0.25
 40
0.25
 40
0.25
 40
0.375
 40
0.375
 40
0.375
 40
0.375
 40
0.5
 40
0.5
 40
0.5
 40
0.5
 40
0.625
 40
0.625
 40
0.625
 40
0.625
 40
0.75
 40
0.75
 40
0.75
 40
0.75
 40
1.0
 40
1.0
 40
1.0
 40
1.0
 10
15.0213
 20
44.0382
 30
0.0
 10
15.0213
 20
44.0382
 30
0.0
 10
15.0202
 20
44.0231
 30
0.0
 10
15.0202
 20
44.0231
 30
0.0
 10
15.0202
 20
44.0231
 30
0.0
 10
15.0202
 20
44.0231
 30
0.0
 10
15.017
 20
43.9771
 30
0.0
 10
15.017
 20
43.9771
 30
0.0
 10
15.017
 20
43.9771
 30
0.0
 10
15.017
 20
43.9771
 30
0.0
 10
15.0124
 20
43.903
 30
0.0
 10
15.0124
 20
43.903
 30
0.0
 10
15.0124
 20
43.903
 30
0.0
 10
15.0124
 20
43.903
 30
0.0
 10
15.0074
 20
43.8069
 30
0.0
 10
15.0074
 20
43.8069
 30
0.0
 10
15.0074
 20
43.8069
 30
0.0
 10
15.0074
 20
43.8069
 30
0.0
 10
15.0028
 20
43.6896
 30
0.0
 10
15.0028
 20
43.6896
 30
0.0
 10
15.0028
 20
43.6896
 30
0.0
 10
15.0028
 20
43.6896
 30
0.0
 10
14.9995
 20
43.5573
 30
0.0
 10
14.9995
 20
43.5573
 30
0.0
 10
14.9995
 20
43.5573
 30
0.0
 10
14.9995
 20
43.5573
 30
0.0
 10
14.9984
 20
43.4212
 30
0.0
 10
14.9984
 20
43.4212
 30
0.0
  0
SPLINE
  5
BB
330
1F
100
AcDbEntity
  8
DEFAULT_1
 62
   250
100
AcDbSpline
210
0.0
220
0.0
230
1.0
 70
     8
 71
     3
 72
    28
 73
    24
 74
     0
 42
0.0000000001
 43
0.0000000001
 40
0.0
 40
0.0
 40
0.0
 40
0.0
 40
0.1428571428571428
 40
0.1428571428571428
 40
0.1428571428571428
 40
0.1428571428571428
 40
0.2857142857142857
 40
0.2857142857142857
 40
0.2857142857142857
 40
0.2857142857142857
 40
0.4285714285714285
 40
0.4285714285714285
 40
0.4285714285714285
 40
0.4285714285714285
 40
0.5714285714285714
 40
0.5714285714285714
 40
0.5714285714285714
 40
0.5714285714285714
 40
0.7142857142857143
 40
0.7142857142857143
 40
0.7142857142857143
 40
0.7142857142857143
 40
1.0
 40
1.0
 40
1.0
 40
1.0
 10
15.1531
 20
43.4212
 30
0.0
 10
15.1531
 20
43.4212
 30
0.0
 10
15.1546
 20
43.5807
 30
0.0
 10
15.1546
 20
43.5807
 30
0.0
 10
15.1546
 20
43.5807
 30
0.0
 10
15.1546
 20
43.5807
 30
0.0
 10
15.1587
 20
43.7295
 30
0.0
 10
15.1587
 20
43.7295
 30
0.0
 10
15.1587
 20
43.7295
 30
0.0
 10
15.1587
 20
43.7295
 30
0.0
 10
15.1643
 20
43.8574
 30
0.0
 10
15.1643
 20
43.8574
 30
0.0
 10
15.1643
 20
43.8574
 30
0.0
 10
15.1643
 20
43.8574
 30
0.0
 10
15.1699
 20
43.9555
 30
0.0
 10
15.1699
 20
43.9555
 30
0.0
 10
15.1699
 20
43.9555
 30
0.0
 10
15.1699
 20
43.9555
 30
0.0
 10
15.1741
 20
44.0172
 30
0.0
 10
15.1741
 20
44.0172
 30
0.0
 10
15.1741
 20
44.0172
 30
0.0
 10
15.1741
 20
44.0172
 30
0.0
 10
15.1756
 20
44.0382
 30
0.0
 10
15.1756
 20
44.0382
 30
0.0
  0
SPLINE
  5
BC
330
1F
100
AcDbEntity
  8
DEFAULT_1
 62
   250
100
AcDbSpline
210
0.0
220
0.0
230
1.0
 70
     8
 71
     3
 72
    28
 73
    24
 74
     0
 42
0.0000000001
 43
0.0000000001
 40
0.0
 40
0.0
 40
0.0
 40
0.0
 40
0.1428571428571428
 40
0.1428571428571428
 40
0.1428571428571428
 40
0.1428571428571428
 40
0.2857142857142857
 40
0.2857142857142857
 40
0.2857142857142857
 40
0.2857142857142857
 40
0.4285714285714285
 40
0.4285714285714285
 40
0.4285714285714285
 40
0.4285714285714285
 40
0.5714285714285714
 40
0.5714285714285714
 40
0.5714285714285714
 40
0.5714285714285714
 40
0.7142857142857143
 40
0.7142857142857143
 40
0.7142857142857143
 40
0.7142857142857143
 40
1.0
 40
1.0
 40
1.0
 40
1.0
 10
-1.7694
 20
43.4212
 30
0.0
 10
-1.7694
 20
43.4212
 30
0.0
 10
-1.7708
 20
43.5807
 30
0.0
 10
-1.7708
 20
43.5807
 30
0.0
 10
-1.7708
 20
43.5807
 30
0.0
 10
-1.7708
 20
43.5807
 30
0.0
 10
-1.775
 20
43.7295
 30
0.0
 10
-1.775
 20
43.7295
 30
0.0
 10
-1.775
 20
43.7295
 30
0.0
 10
-1.775
 20
43.7295
 30
0.0
 10
-1.7806
 20
43.8574
 30
0.0
 10
-1.7806
 20
43.8574
 30
0.0
 10
-1.7806
 20
43.8574
 30
0.0
 10
-1.7806
 20
43.8574
 30
0.0
 10
-1.7862
 20
43.9555
 30
0.0
 10
-1.7862
 20
43.9555
 30
0.0
 10
-1.7862
 20
43.9555
 30
0.0
 10
-1.7862
 20
43.9555
 30
0.0
 10
-1.7903
 20
44.0172
 30
0.0
 10
-1.7903
 20
44.0172
 30
0.0
 10
-1.7903
 20
44.0172
 30
0.0
 10
-1.7903
 20
44.0172
 30
0.0
 10
-1.7918
 20
44.0382
 30
0.0
 10
-1.7918
 20
44.0382
 30
0.0
  0
SPLINE
  5
BD
330
1F
100
AcDbEntity
  8
DEFAULT_1
 62
   250
100
AcDbSpline
210
0.0
220
0.0
230
1.0
 70
     8
 71
     3
 72
    28
 73
    24
 74
     0
 42
0.0000000001
 43
0.0000000001
 40
0.0
 40
0.0
 40
0.0
 40
0.0
 40
0.1428571428571428
 40
0.1428571428571428
 40
0.1428571428571428
 40
0.1428571428571428
 40
0.2857142857142857
 40
0.2857142857142857
 40
0.2857142857142857
 40
0.2857142857142857
 40
0.4285714285714285
 40
0.4285714285714285
 40
0.4285714285714285
 40
0.4285714285714285
 40
0.5714285714285714
 40
0.5714285714285714
 40
0.5714285714285714
 40
0.5714285714285714
 40
0.7142857142857143
 40
0.7142857142857143
 40
0.7142857142857143
 40
0.7142857142857143
 40
1.0
 40
1.0
 40
1.0
 40
1.0
 10
12.5817
 20
44.0382
 30
0.0
 10
12.5817
 20
44.0382
 30
0.0
 10
12.4684
 20
44.0174
 30
0.0
 10
12.4684
 20
44.0174
 30
0.0
 10
12.4684
 20
44.0174
 30
0.0
 10
12.4684
 20
44.0174
 30
0.0
 10
12.3587
 20
43.9549
 30
0.0
 10
12.3587
 20
43.9549
 30
0.0
 10
12.3587
 20
43.9549
 30
0.0
 10
12.3587
 20
43.9549
 30
0.0
 10
12.2649
 20
43.8573
 30
0.0
 10
12.2649
 20
43.8573
 30
0.0
 10
12.2649
 20
43.8573
 30
0.0
 10
12.2649
 20
43.8573
 30
0.0
 10
12.1921
 20
43.7305
 30
0.0
 10
12.1921
 20
43.7305
 30
0.0
 10
12.1921
 20
43.7305
 30
0.0
 10
12.1921
 20
43.7305
 30
0.0
 10
12.1449
 20
43.5797
 30
0.0
 10
12.1449
 20
43.5797
 30
0.0
 10
12.1449
 20
43.5797
 30
0.0
 10
12.1449
 20
43.5797
 30
0.0
 10
12.1292
 20
43.4212
 30
0.0
 10
12.1292
 20
43.4212
 30
0.0
  0
SPLINE
  5
BE
330
1F
100
AcDbEntity
  8
DEFAULT_1
 62
   250
100
AcDbSpline
210
0.0
220
0.0
230
1.0
 70
     8
 71
     3
 72
    28
 73
    24
 74
     0
 42
0.0000000001
 43
0.0000000001
 40
0.0
 40
0.0
 40
0.0
 40
0.0
 40
0.1428571428571428
 40
0.1428571428571428
 40
0.1428571428571428
 40
0.1428571428571428
 40
0.2857142857142857
 40
0.2857142857142857
 40
0.2857142857142857
 40
0.2857142857142857
 40
0.4285714285714285
 40
0.4285714285714285
 40
0.4285714285714285
 40
0.4285714285714285
 40
0.5714285714285714
 40
0.5714285714285714
 40
0.5714285714285714
 40
0.5714285714285714
 40
0.7142857142857143
 40
0.7142857142857143
 40
0.7142857142857143
 40
0.7142857142857143
 40
1.0
 40
1.0
 40
1.0
 40
1.0
 10
1.1452
 20
43.4212
 30
0.0
 10
1.1452
 20
43.4212
 30
0.0
 10
1.1293
 20
43.5807
 30
0.0
 10
1.1293
 20
43.5807
 30
0.0
 10
1.1293
 20
43.5807
 30
0.0
 10
1.1293
 20
43.5807
 30
0.0
 10
1.0828
 20
43.7295
 30
0.0
 10
1.0828
 20
43.7295
 30
0.0
 10
1.0828
 20
43.7295
 30
0.0
 10
1.0828
 20
43.7295
 30
0.0
 10
1.0095
 20
43.8574
 30
0.0
 10
1.0095
 20
43.8574
 30
0.0
 10
1.0095
 20
43.8574
 30
0.0
 10
1.0095
 20
43.8574
 30
0.0
 10
0.915
 20
43.9556
 30
0.0
 10
0.915
 20
43.9556
 30
0.0
 10
0.915
 20
43.9556
 30
0.0
 10
0.915
 20
43.9556
 30
0.0
 10
0.8069
 20
44.0172
 30
0.0
 10
0.8069
 20
44.0172
 30
0.0
 10
0.8069
 20
44.0172
 30
0.0
 10
0.8069
 20
44.0172
 30
0.0
 10
0.693
 20
44.0382
 30
0.0
 10
0.693
 20
44.0382
 30
0.0
  0
SPLINE
  5
BF
330
1F
100
AcDbEntity
  8
DEFAULT_1
 62
   250
100
AcDbSpline
210
0.0
220
0.0
230
1.0
 70
    24
 71
     3
 72
     8
 73
     4
 74
     0
 42
0.0000000001
 43
0.0000000001
 40
0.0
 40
0.0
 40
0.0
 40
0.0
 40
1.0
 40
1.0
 40
1.0
 40
1.0
 10
-17.7229
 20
-3.6254
 30
0.0
 10
-17.7229
 20
-3.6254
 30
0.0
 10
-17.7229
 20
37.0337
 30
0.0
 10
-17.7229
 20
37.0337
 30
0.0
  0
SPLINE
  5
C0
330
1F
100
AcDbEntity
  8
DEFAULT_1
 62
   250
100
AcDbSpline
210
0.0
220
0.0
230
1.0
 70
    24
 71
     3
 72
     8
 73
     4
 74
     0
 42
0.0000000001
 43
0.0000000001
 40
0.0
 40
0.0
 40
0.0
 40
0.0
 40
1.0
 40
1.0
 40
1.0
 40
1.0
 10
12.8618
 20
37.3283
 30
0.0
 10
12.8618
 20
37.3283
 30
0.0
 10
13.5559
 20
38.0224
 30
0.0
 10
13.5559
 20
38.0224
 30
0.0
  0
SPLINE
  5
C1
330
1F
100
AcDbEntity
  8
DEFAULT_1
 62
   250
100
AcDbSpline
210
0.0
220
0.0
230
1.0
 70
    24
 71
     3
 72
     8
 73
     4
 74
     0
 42
0.0000000001
 43
0.0000000001
 40
0.0
 40
0.0
 40
0.0
 40
0.0
 40
1.0
 40
1.0
 40
1.0
 40
1.0
 10
-0.1722
 20
38.0224
 30
0.0
 10
-0.1722
 20
38.0224
 30
0.0
 10
-0.1722
 20
39.7192
 30
0.0
 10
-0.1722
 20
39.7192
 30
0.0
  0
SPLINE
  5
C2
330
1F
100
AcDbEntity
  8
DEFAULT_1
 62
   250
100
AcDbSpline
210
0.0
220
0.0
230
1.0
 70
    24
 71
     3
 72
     8
 73
     4
 74
     0
 42
0.0000000001
 43
0.0000000001
 40
0.0
 40
0.0
 40
0.0
 40
0.0
 40
1.0
 40
1.0
 40
1.0
 40
1.0
 10
0.5219
 20
32.4258
 30
0.0
 10
0.5219
 20
32.4258
 30
0.0
 10
0.5219
 20
37.3283
 30
0.0
 10
0.5219
 20
37.3283
 30
0.0
  0
SPLINE
  5
C3
330
1F
100
AcDbEntity
  8
DEFAULT_1
  6
NEW_LINE1
 62
   250
100
AcDbSpline
210
0.0
220
0.0
230
1.0
 70
    24
 71
     3
 72
     8
 73
     4
 74
     0
 42
0.0000000001
 43
0.0000000001
 40
0.0
 40
0.0
 40
0.0
 40
0.0
 40
1.0
 40
1.0
 40
1.0
 40
1.0
 10
6.6764
 20
46.6548
 30
0.0
 10
6.6764
 20
46.6548
 30
0.0
 10
6.6764
 20
-46.2525
 30
0.0
 10
6.6764
 20
-46.2525
 30
0.0
  0
SPLINE
  5
C5
330
1F
100
AcDbEntity
  8
DEFAULT_1
 62
   250
100
AcDbSpline
210
0.0
220
0.0
230
1.0
 70
    24
 71
     3
 72
     8
 73
     4
 74
     0
 42
0.0000000001
 43
0.0000000001
 40
0.0
 40
0.0
 40
0.0
 40
0.0
 40
1.0
 40
1.0
 40
1.0
 40
1.0
 10
12.8618
 20
24.8921
 30
0.0
 10
12.8618
 20
24.8921
 30
0.0
 10
12.8618
 20
37.3283
 30
0.0
 10
12.8618
 20
37.3283
 30
0.0
  0
SPLINE
  5
C6
330
1F
100
AcDbEntity
  8
DEFAULT_1
 62
   250
100
AcDbSpline
210
0.0
220
0.0
230
1.0
 70
    24
 71
     3
 72
     8
 73
     4
 74
     0
 42
0.0000000001
 43
0.0000000001
 40
0.0
 40
0.0
 40
0.0
 40
0.0
 40
1.0
 40
1.0
 40
1.0
 40
1.0
 10
13.5559
 20
38.0224
 30
0.0
 10
13.5559
 20
38.0224
 30
0.0
 10
13.5559
 20
39.7192
 30
0.0
 10
13.5559
 20
39.7192
 30
0.0
  0
SPLINE
  5
C7
330
1F
100
AcDbEntity
  8
DEFAULT_1
  6
NEW_LINE2
 62
   250
100
AcDbSpline
210
0.0
220
0.0
230
1.0
 70
    24
 71
     3
 72
     8
 73
     4
 74
     0
 42
0.0000000001
 43
0.0000000001
 40
0.0
 40
0.0
 40
0.0
 40
0.0
 40
1.0
 40
1.0
 40
1.0
 40
1.0
 10
-21.5953
 20
16.7359
 30
0.0
 10
-21.5953
 20
16.7359
 30
0.0
 10
11.0043
 20
16.7359
 30
0.0
 10
11.0043
 20
16.7359
 30
0.0
  0
SPLINE
  5
C9
330
1F
100
AcDbEntity
  8
DEFAULT_1
 62
   250
100
AcDbSpline
210
0.0
220
0.0
230
1.0
 70
    24
 71
     3
 72
     8
 73
     4
 74
     0
 42
0.0000000001
 43
0.0000000001
 40
0.0
 40
0.0
 40
0.0
 40
0.0
 40
1.0
 40
1.0
 40
1.0
 40
1.0
 10
0.5219
 20
37.3283
 30
0.0
 10
0.5219
 20
37.3283
 30
0.0
 10
-0.1722
 20
38.0224
 30
0.0
 10
-0.1722
 20
38.0224
 30
0.0
  0
SPLINE
  5
CA
330
1F
100
AcDbEntity
  8
DEFAULT_1
 62
   250
100
AcDbSpline
210
0.0
220
0.0
230
1.0
 70
    24
 71
     3
 72
     8
 73
     4
 74
     0
 42
0.0000000001
 43
0.0000000001
 40
0.0
 40
0.0
 40
0.0
 40
0.0
 40
1.0
 40
1.0
 40
1.0
 40
1.0
 10
0.5219
 20
37.3283
 30
0.0
 10
0.5219
 20
37.3283
 30
0.0
 10
12.8618
 20
37.3283
 30
0.0
 10
12.8618
 20
37.3283
 30
0.0
  0
SPLINE
  5
CB
330
1F
100
AcDbEntity
  8
DEFAULT_1
 62
   250
100
AcDbSpline
210
0.0
220
0.0
230
1.0
 70
    24
 71
     3
 72
     8
 73
     4
 74
     0
 42
0.0000000001
 43
0.0000000001
 40
0.0
 40
0.0
 40
0.0
 40
0.0
 40
1.0
 40
1.0
 40
1.0
 40
1.0
 10
-0.1722
 20
38.0224
 30
0.0
 10
-0.1722
 20
38.0224
 30
0.0
 10
13.5559
 20
38.0224
 30
0.0
 10
13.5559
 20
38.0224
 30
0.0
  0
SPLINE
  5
CC
330
1F
100
AcDbEntity
  8
DEFAULT_1
 62
   250
100
AcDbSpline
210
0.0
220
0.0
230
1.0
 70
    24
 71
     3
 72
     8
 73
     4
 74
     0
 42
0.0000000001
 43
0.0000000001
 40
0.0
 40
0.0
 40
0.0
 40
0.0
 40
1.0
 40
1.0
 40
1.0
 40
1.0
 10
-19.8831
 20
36.0556
 30
0.0
 10
-19.8831
 20
36.0556
 30
0.0
 10
-19.8831
 20
-2.5835
 30
0.0
 10
-19.8831
 20
-2.5835
 30
0.0
  0
SPLINE
  5
CD
330
1F
100
AcDbEntity
  8
DEFAULT_1
 62
   250
100
AcDbSpline
210
0.0
220
0.0
230
1.0
 70
    24
 71
     3
 72
     8
 73
     4
 74
     0
 42
0.0000000001
 43
0.0000000001
 40
0.0
 40
0.0
 40
0.0
 40
0.0
 40
1.0
 40
1.0
 40
1.0
 40
1.0
 10
-19.422
 20
36.4799
 30
0.0
 10
-19.422
 20
36.4799
 30
0.0
 10
-19.422
 20
36.4698
 30
0.0
 10
-19.422
 20
36.4698
 30
0.0
  0
SPLINE
  5
CE
330
1F
100
AcDbEntity
  8
DEFAULT_1
 62
   250
100
AcDbSpline
210
0.0
220
0.0
230
1.0
 70
     8
 71
     3
 72
     8
 73
     4
 74
     0
 42
0.0000000001
 43
0.0000000001
 40
0.0
 40
0.0
 40
0.0
 40
0.0
 40
1.0
 40
1.0
 40
1.0
 40
1.0
 10
-19.2661
 20
36.4535
 30
0.0
 10
-19.3156
 20
36.471
 30
0.0
 10
-19.3678
 20
36.4799
 30
0.0
 10
-19.4204
 20
36.4799
 30
0.0
  0
SPLINE
  5
CF
330
1F
100
AcDbEntity
  8
DEFAULT_1
 62
   250
100
AcDbSpline
210
0.0
220
0.0
230
1.0
 70
     8
 71
     3
 72
     8
 73
     4
 74
     0
 42
0.0000000001
 43
0.0000000001
 40
0.0
 40
0.0
 40
0.0
 40
0.0
 40
1.0
 40
1.0
 40
1.0
 40
1.0
 10
-19.4204
 20
-3.0078
 30
0.0
 10
-19.3678
 20
-3.0078
 30
0.0
 10
-19.3156
 20
-2.9989
 30
0.0
 10
-19.2661
 20
-2.9814
 30
0.0
  0
SPLINE
  5
D0
330
1F
100
AcDbEntity
  8
DEFAULT_1
 62
   250
100
AcDbSpline
210
0.0
220
0.0
230
1.0
 70
     8
 71
     3
 72
     8
 73
     4
 74
     0
 42
0.0000000001
 43
0.0000000001
 40
0.0
 40
0.0
 40
0.0
 40
0.0
 40
1.0
 40
1.0
 40
1.0
 40
1.0
 10
-19.422
 20
36.4799
 30
0.0
 10
-19.6627
 20
36.4799
 30
0.0
 10
-19.8632
 20
36.2954
 30
0.0
 10
-19.8831
 20
36.0556
 30
0.0
  0
SPLINE
  5
D1
330
1F
100
AcDbEntity
  8
DEFAULT_1
 62
   250
100
AcDbSpline
210
0.0
220
0.0
230
1.0
 70
     8
 71
     3
 72
     8
 73
     4
 74
     0
 42
0.0000000001
 43
0.0000000001
 40
0.0
 40
0.0
 40
0.0
 40
0.0
 40
1.0
 40
1.0
 40
1.0
 40
1.0
 10
-19.8831
 20
-2.5835
 30
0.0
 10
-19.8632
 20
-2.8233
 30
0.0
 10
-19.6627
 20
-3.0078
 30
0.0
 10
-19.422
 20
-3.0078
 30
0.0
  0
ENDSEC
  0
SECTION
  2
OBJECTS
  0
DICTIONARY
  5
C
330
0
100
AcDbDictionary
  3
ACAD_GROUP
350
D
  3
ACAD_LAYOUT
350
1A
  3
ACAD_MATERIAL
350
3B
  3
ACAD_MLEADERSTYLE
350
F4
  3
ACAD_MLINESTYLE
350
17
  3
ACAD_PLOTSETTINGS
350
19
  3
ACAD_VISUALSTYLE
350
2A
  3
ACDBHEADERROUNDTRIPXREC
350
D2
  3
ACDBVARIABLEDICTIONARY
350
F2
  0
DICTIONARY
  5
D
102
{ACAD_REACTORS
330
C
102
}
330
C
100
AcDbDictionary
  0
DICTIONARY
  5
1A
102
{ACAD_REACTORS
330
C
102
}
330
C
100
AcDbDictionary
  0
DICTIONARY
  5
3B
102
{ACAD_REACTORS
330
C
102
}
330
C
100
AcDbDictionary
  3
BYBLOCK
350
3D
  3
BYLAYER
350
3C
  3
GLOBAL
350
3E
  0
DICTIONARY
  5
F4
102
{ACAD_REACTORS
330
C
102
}
330
C
100
AcDbDictionary
  0
DICTIONARY
  5
17
102
{ACAD_REACTORS
330
C
102
}
330
C
100
AcDbDictionary
  3
STANDARD
350
18
  0
DICTIONARY
  5
19
102
{ACAD_REACTORS
330
C
102
}
330
C
100
AcDbDictionary
  0
DICTIONARY
  5
2A
102
{ACAD_REACTORS
330
C
102
}
330
C
100
AcDbDictionary
  3
2DWIREFRAME
350
2F
  3
3D_HIDDEN
350
31
  3
3DWIREFRAME
350
30
  3
BASIC
350
32
  3
BRIGHTEN
350
36
  3
COLORCHANGE
350
3A
  3
CONCEPTUAL
350
34
  3
DIM
350
35
  3
FACEPATTERN
350
39
  3
FLAT
350
2B
  3
FLATWITHEDGES
350
2C
  3
GOURAUD
350
2D
  3
GOURAUDWITHEDGES
350
2E
  3
LINEPATTERN
350
38
  3
REALISTIC
350
33
  3
THICKEN
350
37
  0
DICTIONARY
  5
D2
102
{ACAD_REACTORS
330
C
102
}
330
C
100
AcDbDictionary
  3
CEPSNTYPE
350
DB
  3
DIMSTYLEDATA
350
F1
  3
FINGERPRINTGUID
350
DC
  3
HYPERLINKBASE
350
D5
  3
INSUNITS
350
DA
  3
LAYOUTDICT
350
D7
  3
LWETCUNION
350
D9
  3
PLOTSETDICT
350
D8
  3
PSVPSCALE
350
DE
  3
PUCSBASE
350
E1
  3
PUCSORGBACK
350
E7
  3
PUCSORGBOTTOM
350
E3
  3
PUCSORGFRONT
350
E6
  3
PUCSORGLEFT
350
E4
  3
PUCSORGRIGHT
350
E5
  3
PUCSORGTOP
350
E2
  3
PUCSORTHOREF
350
DF
  3
PUCSORTHOVIEW
350
E0
  3
STYLESHEET
350
D6
  3
TSTACKALIGN
350
D3
  3
TSTACKSIZE
350
D4
  3
UCSBASE
350
EA
  3
UCSORGBACK
350
F0
  3
UCSORGBOTTOM
350
EC
  3
UCSORGFRONT
350
EF
  3
UCSORGLEFT
350
ED
  3
UCSORGRIGHT
350
EE
  3
UCSORGTOP
350
EB
  3
UCSORTHOREF
350
E8
  3
UCSORTHOVIEW
350
E9
  3
VERSIONGUID
350
DD
  0
DICTIONARY
  5
F2
102
{ACAD_REACTORS
330
C
102
}
330
C
100
AcDbDictionary
  3
DIMASSOC
350
F5
  3
HIDETEXT
350
F6
  0
MATERIAL
  5
3D
102
{ACAD_REACTORS
330
3B
102
}
102
{ACAD_XDICTIONARY
360
F9
102
}
330
3B
100
AcDbMaterial
  1
ByBlock
  0
MATERIAL
  5
3C
102
{ACAD_REACTORS
330
3B
102
}
102
{ACAD_XDICTIONARY
360
F7
102
}
330
3B
100
AcDbMaterial
  1
ByLayer
  0
MATERIAL
  5
3E
102
{ACAD_REACTORS
330
3B
102
}
102
{ACAD_XDICTIONARY
360
FB
102
}
330
3B
100
AcDbMaterial
  1
Global
  0
MLINESTYLE
  5
18
102
{ACAD_REACTORS
330
17
102
}
330
17
100
AcDbMlineStyle
  2
Standard
 70
     0
  3

 62
   256
 51
90.0
 52
90.0
 71
     2
 49
0.5
 62
   256
  6
BYLAYER
 49
-0.5
 62
   256
  6
BYLAYER
  0
ACAD_PROXY_OBJECT
  5
2F
102
{ACAD_REACTORS
330
2A
102
}
330
2A
100
AcDbProxyObject
 90
      499
 91
      501
 93
      436
310
42CC9915DA5C99599C985B595049028333333333333E3BF0000000000000FB0107901411070040501600405405064090741402480A0340
1001
ACAD
1000
AcDbSavedByObjectVersion
1070
     0
  0
ACAD_PROXY_OBJECT
  5
31
102
{ACAD_REACTORS
330
2A
102
}
330
2A
100
AcDbProxyObject
 90
      499
 91
      501
 93
      500
310
424CD108121A5919195B90640502408333333333333E3BF0000000000000FB01079024090700405020000000000001110200405405064090740C02480A0340
1001
ACAD
1000
AcDbSavedByObjectVersion
1070
     0
  0
ACAD_PROXY_OBJECT
  5
30
102
{ACAD_REACTORS
330
2A
102
}
330
2A
100
AcDbProxyObject
 90
      499
 91
      501
 93
      436
310
42CCD915DA5C99599C985B595059028333333333333E3BF0000000000000FB0107901411070040501600405405064090741402480A0340
1001
ACAD
1000
AcDbSavedByObjectVersion
1070
     0
  0
ACAD_PROXY_OBJECT
  5
32
102
{ACAD_REACTORS
330
2A
102
}
330
2A
100
AcDbProxyObject
 90
      499
 91
      501
 93
      388
310
4150985CDA58D07406404333333333333E3BF0000000000000FB0107A41107004050150841D405064090741402480A0350
1001
ACAD
1000
AcDbSavedByObjectVersion
1070
     0
  0
ACAD_PROXY_OBJECT
  5
36
102
{ACAD_REACTORS
330
2A
102
}
330
2A
100
AcDbProxyObject
 90
      499
 91
      501
 93
      428
310
42109C9A59DA1D195B90C409028333333333333E3BF0000000000000FB010790141107004050150841D405064090741402480A029950
1001
ACAD
1000
AcDbSavedByObjectVersion
1070
     0
  0
ACAD_PROXY_OBJECT
  5
3A
102
{ACAD_REACTORS
330
2A
102
}
330
2A
100
AcDbProxyObject
 90
      499
 91
      501
 93
      452
310
42D0DBDB1BDC90DA185B99D95104090240C333333333333E3BF0000000000000FB0108901411070040501508421405064090741402480A0350
1001
ACAD
1000
AcDbSavedByObjectVersion
1070
     0
  0
ACAD_PROXY_OBJECT
  5
34
102
{ACAD_REACTORS
330
2A
102
}
330
2A
100
AcDbProxyObject
 90
      499
 91
      501
 93
      500
310
4290DBDB98D95C1D1D585B10940D028333333333333E3BF0000000000000FB0107902409070040501000000000000111010841D405064090740C02480A0340
1001
ACAD
1000
AcDbSavedByObjectVersion
1070
     0
  0
ACAD_PROXY_OBJECT
  5
35
102
{ACAD_REACTORS
330
2A
102
}
330
2A
100
AcDbProxyObject
 90
      499
 91
      501
 93
      412
310
40D11A5B50B409028333333333333E3BF0000000000000FB010790141107004050150841D405064090741402480A02677FFFFFD0
1001
ACAD
1000
AcDbSavedByObjectVersion
1070
     0
  0
ACAD_PROXY_OBJECT
  5
39
102
{ACAD_REACTORS
330
2A
102
}
330
2A
100
AcDbProxyObject
 90
      499
 91
      501
 93
      444
310
42D19858D95C185D1D195C9B90F409028333333333333E3BF0000000000000FB010790141107004050150841D405064090741402480A0350
1001
ACAD
1000
AcDbSavedByObjectVersion
1070
     0
  0
ACAD_PROXY_OBJECT
  5
2B
102
{ACAD_REACTORS
330
2A
102
}
330
2A
100
AcDbProxyObject
 90
      499
 91
      501
 93
      388
310
41119B185D240901404333333333333E3BF0000000000000F9010740A41107004050150841D405064090741402480A1B50
1001
ACAD
1000
AcDbSavedByObjectVersion
1070
     0
  0
ACAD_PROXY_OBJECT
  5
2C
102
{ACAD_REACTORS
330
2A
102
}
330
2A
100
AcDbProxyObject
 90
      499
 91
      501
 93
      476
310
43519B185D15DA5D1A115919D95CD0140901404333333333333E3BF0000000000000F9010740901411070040501600405405064090741402480A1B50
1001
ACAD
1000
AcDbSavedByObjectVersion
1070
     0
  0
ACAD_PROXY_OBJECT
  5
2D
102
{ACAD_REACTORS
330
2A
102
}
330
2A
100
AcDbProxyObject
 90
      499
 91
      501
 93
      412
310
41D1DBDD5C985D5910240902404333333333333E3BF0000000000000F9010740A411070040501641D405064090741402480A1B50
1001
ACAD
1000
AcDbSavedByObjectVersion
1070
     0
  0
ACAD_PROXY_OBJECT
  5
2E
102
{ACAD_REACTORS
330
2A
102
}
330
2A
100
AcDbProxyObject
 90
      499
 91
      501
 93
      500
310
4411DBDD5C985D5915DA5D1A115919D95CD0340902404333333333333E3BF0000000000000F9010740901411070040501600405405064090741402480A1B50
1001
ACAD
1000
AcDbSavedByObjectVersion
1070
     0
  0
ACAD_PROXY_OBJECT
  5
38
102
{ACAD_REACTORS
330
2A
102
}
330
2A
100
AcDbProxyObject
 90
      499
 91
      501
 93
      444
310
42D31A5B995C185D1D195C9B90E409028333333333333E3BF0000000000000FB010790141107004050750841D405064090741402483A0350
1001
ACAD
1000
AcDbSavedByObjectVersion
1070
     0
  0
ACAD_PROXY_OBJECT
  5
33
102
{ACAD_REACTORS
330
2A
102
}
330
2A
100
AcDbProxyObject
 90
      499
 91
      501
 93
      420
310
425499585B1A5CDD1A58D08409028333333333333E3BF0000000000000FB01079019070040501508421405064090741402480A1B40
1001
ACAD
1000
AcDbSavedByObjectVersion
1070
     0
  0
ACAD_PROXY_OBJECT
  5
37
102
{ACAD_REACTORS
330
2A
102
}
330
2A
100
AcDbProxyObject
 90
      499
 91
      501
 93
      412
310
41D51A1A58DAD95B90D409028333333333333E3BF0000000000000FB010790141107004050150C41D405064090741402480A0350
1001
ACAD
1000
AcDbSavedByObjectVersion
1070
     0
  0
XRECORD
  5
DB
102
{ACAD_REACTORS
330
D2
102
}
330
D2
100
AcDbXrecord
 90
        0
  0
XRECORD
  5
F1
102
{ACAD_REACTORS
330
D2
102
}
330
D2
100
AcDbXrecord
1000
DSTYLE
1002
{
1070
   340
340
11
1002
}
  0
XRECORD
  5
DC
102
{ACAD_REACTORS
330
D2
102
}
330
D2
100
AcDbXrecord
  1
{A0DA765E-D3DB-4F69-AEB3-F5B52ACAEAF6}
  0
XRECORD
  5
D5
102
{ACAD_REACTORS
330
D2
102
}
330
D2
100
AcDbXrecord
  1

  0
XRECORD
  5
DA
102
{ACAD_REACTORS
330
D2
102
}
330
D2
100
AcDbXrecord
 90
        4
  0
XRECORD
  5
D7
102
{ACAD_REACTORS
330
D2
102
}
330
D2
100
AcDbXrecord
340
1A
  0
XRECORD
  5
D9
102
{ACAD_REACTORS
330
D2
102
}
330
D2
100
AcDbXrecord
 90
    10781
  0
XRECORD
  5
D8
102
{ACAD_REACTORS
330
D2
102
}
330
D2
100
AcDbXrecord
340
19
  0
XRECORD
  5
DE
102
{ACAD_REACTORS
330
D2
102
}
330
D2
100
AcDbXrecord
 40
0.0
  0
XRECORD
  5
E1
102
{ACAD_REACTORS
330
D2
102
}
330
D2
100
AcDbXrecord
340
0
  0
XRECORD
  5
E7
102
{ACAD_REACTORS
330
D2
102
}
330
D2
100
AcDbXrecord
 10
0.0
 20
0.0
 30
0.0
  0
XRECORD
  5
E3
102
{ACAD_REACTORS
330
D2
102
}
330
D2
100
AcDbXrecord
 10
0.0
 20
0.0
 30
0.0
  0
XRECORD
  5
E6
102
{ACAD_REACTORS
330
D2
102
}
330
D2
100
AcDbXrecord
 10
0.0
 20
0.0
 30
0.0
  0
XRECORD
  5
E4
102
{ACAD_REACTORS
330
D2
102
}
330
D2
100
AcDbXrecord
 10
0.0
 20
0.0
 30
0.0
  0
XRECORD
  5
E5
102
{ACAD_REACTORS
330
D2
102
}
330
D2
100
AcDbXrecord
 10
0.0
 20
0.0
 30
0.0
  0
XRECORD
  5
E2
102
{ACAD_REACTORS
330
D2
102
}
330
D2
100
AcDbXrecord
 10
0.0
 20
0.0
 30
0.0
  0
XRECORD
  5
DF
102
{ACAD_REACTORS
330
D2
102
}
330
D2
100
AcDbXrecord
340
0
  0
XRECORD
  5
E0
102
{ACAD_REACTORS
330
D2
102
}
330
D2
100
AcDbXrecord
 70
     0
  0
XRECORD
  5
D6
102
{ACAD_REACTORS
330
D2
102
}
330
D2
100
AcDbXrecord
  1

  0
XRECORD
  5
D3
102
{ACAD_REACTORS
330
D2
102
}
330
D2
100
AcDbXrecord
 90
        1
  0
XRECORD
  5
D4
102
{ACAD_REACTORS
330
D2
102
}
330
D2
100
AcDbXrecord
 90
       70
  0
XRECORD
  5
EA
102
{ACAD_REACTORS
330
D2
102
}
330
D2
100
AcDbXrecord
340
0
  0
XRECORD
  5
F0
102
{ACAD_REACTORS
330
D2
102
}
330
D2
100
AcDbXrecord
 10
0.0
 20
0.0
 30
0.0
  0
XRECORD
  5
EC
102
{ACAD_REACTORS
330
D2
102
}
330
D2
100
AcDbXrecord
 10
0.0
 20
0.0
 30
0.0
  0
XRECORD
  5
EF
102
{ACAD_REACTORS
330
D2
102
}
330
D2
100
AcDbXrecord
 10
0.0
 20
0.0
 30
0.0
  0
XRECORD
  5
ED
102
{ACAD_REACTORS
330
D2
102
}
330
D2
100
AcDbXrecord
 10
0.0
 20
0.0
 30
0.0
  0
XRECORD
  5
EE
102
{ACAD_REACTORS
330
D2
102
}
330
D2
100
AcDbXrecord
 10
0.0
 20
0.0
 30
0.0
  0
XRECORD
  5
EB
102
{ACAD_REACTORS
330
D2
102
}
330
D2
100
AcDbXrecord
 10
0.0
 20
0.0
 30
0.0
  0
XRECORD
  5
E8
102
{ACAD_REACTORS
330
D2
102
}
330
D2
100
AcDbXrecord
340
0
  0
XRECORD
  5
E9
102
{ACAD_REACTORS
330
D2
102
}
330
D2
100
AcDbXrecord
 70
     0
  0
XRECORD
  5
DD
102
{ACAD_REACTORS
330
D2
102
}
330
D2
100
AcDbXrecord
  1
{FAEB1C32-E019-11D5-929B-00C0DF256EC4}
  0
DICTIONARYVAR
  5
F5
102
{ACAD_REACTORS
330
F2
102
}
330
F2
100
DictionaryVariables
280
     0
  1
2
  0
DICTIONARYVAR
  5
F6
102
{ACAD_REACTORS
330
F2
102
}
330
F2
100
DictionaryVariables
280
     0
  1
1
  0
DICTIONARY
  5
F9
330
3D
100
AcDbDictionary
280
     1
  3
ACAD_XREC_ROUNDTRIP
360
FA
  0
DICTIONARY
  5
F7
330
3C
100
AcDbDictionary
280
     1
  3
ACAD_XREC_ROUNDTRIP
360
F8
  0
DICTIONARY
  5
FB
330
3E
100
AcDbDictionary
280
     1
  3
ACAD_XREC_ROUNDTRIP
360
FC
  0
XRECORD
  5
FA
102
{ACAD_REACTORS
330
F9
102
}
330
F9
100
AcDbXrecord
102
MATERIAL
148
0.0
149
0.0
149
0.0
 93
        0
 94
      127
282
     0
 72
     1
 77
     1
171
     1
175
     1
179
     1
273
     0
  0
XRECORD
  5
F8
102
{ACAD_REACTORS
330
F7
102
}
330
F7
100
AcDbXrecord
102
MATERIAL
148
0.0
149
0.0
149
0.0
 93
        0
 94
      127
282
     0
 72
     1
 77
     1
171
     1
175
     1
179
     1
273
     0
  0
XRECORD
  5
FC
102
{ACAD_REACTORS
330
FB
102
}
330
FB
100
AcDbXrecord
102
MATERIAL
148
0.0
149
0.0
149
0.0
 93
        0
 94
      127
282
     0
 72
     1
 77
     1
171
     1
175
     1
179
     1
273
     0
  0
ENDSEC
  0
EOF
