  0
SECTION
  2
HEADER
  9
$ACADVER
  1
AC1015
  9
$ACADMAINTVER
 70
     6
  9
$DWGCODEPAGE
  3
ANSI_1250
  9
$INSBASE
 10
0.0
 20
0.0
 30
0.0
  9
$EXTMIN
 10
-14.7684
 20
-16.4409
 30
0.0
  9
$EXTMAX
 10
14.6458
 20
16.3504
 30
0.0
  9
$LIMMIN
 10
0.0
 20
0.0
  9
$LIMMAX
 10
12.0
 20
9.0
  9
$ORTHOMODE
 70
     0
  9
$REGENMODE
 70
     1
  9
$FILLMODE
 70
     1
  9
$QTEXTMODE
 70
     0
  9
$MIRRTEXT
 70
     1
  9
$LTSCALE
 40
1.0
  9
$ATTMODE
 70
     1
  9
$TEXTSIZE
 40
0.2
  9
$TRACEWID
 40
0.05
  9
$TEXTSTYLE
  7
Standard
  9
$CLAYER
  8
0
  9
$CELTYPE
  6
ByLayer
  9
$CECOLOR
 62
   256
  9
$CELTSCALE
 40
1.0
  9
$DISPSILH
 70
     0
  9
$DIMSCALE
 40
1.0
  9
$DIMASZ
 40
0.18
  9
$DIMEXO
 40
0.0625
  9
$DIMDLI
 40
0.38
  9
$DIMRND
 40
0.0
  9
$DIMDLE
 40
0.0
  9
$DIMEXE
 40
0.18
  9
$DIMTP
 40
0.0
  9
$DIMTM
 40
0.0
  9
$DIMTXT
 40
0.18
  9
$DIMCEN
 40
0.09
  9
$DIMTSZ
 40
0.0
  9
$DIMTOL
 70
     0
  9
$DIMLIM
 70
     0
  9
$DIMTIH
 70
     1
  9
$DIMTOH
 70
     1
  9
$DIMSE1
 70
     0
  9
$DIMSE2
 70
     0
  9
$DIMTAD
 70
     0
  9
$DIMZIN
 70
     0
  9
$DIMBLK
  1

  9
$DIMASO
 70
     1
  9
$DIMSHO
 70
     1
  9
$DIMPOST
  1

  9
$DIMAPOST
  1

  9
$DIMALT
 70
     0
  9
$DIMALTD
 70
     2
  9
$DIMALTF
 40
25.4
  9
$DIMLFAC
 40
1.0
  9
$DIMTOFL
 70
     0
  9
$DIMTVP
 40
0.0
  9
$DIMTIX
 70
     0
  9
$DIMSOXD
 70
     0
  9
$DIMSAH
 70
     0
  9
$DIMBLK1
  1

  9
$DIMBLK2
  1

  9
$DIMSTYLE
  2
Standard
  9
$DIMCLRD
 70
     0
  9
$DIMCLRE
 70
     0
  9
$DIMCLRT
 70
     0
  9
$DIMTFAC
 40
1.0
  9
$DIMGAP
 40
0.09
  9
$DIMJUST
 70
     0
  9
$DIMSD1
 70
     0
  9
$DIMSD2
 70
     0
  9
$DIMTOLJ
 70
     1
  9
$DIMTZIN
 70
     0
  9
$DIMALTZ
 70
     0
  9
$DIMALTTZ
 70
     0
  9
$DIMUPT
 70
     0
  9
$DIMDEC
 70
     4
  9
$DIMTDEC
 70
     4
  9
$DIMALTU
 70
     2
  9
$DIMALTTD
 70
     2
  9
$DIMTXSTY
  7
Standard
  9
$DIMAUNIT
 70
     0
  9
$DIMADEC
 70
     0
  9
$DIMALTRND
 40
0.0
  9
$DIMAZIN
 70
     0
  9
$DIMDSEP
 70
    46
  9
$DIMATFIT
 70
     3
  9
$DIMFRAC
 70
     0
  9
$DIMLDRBLK
  1

  9
$DIMLUNIT
 70
     2
  9
$DIMLWD
 70
    -2
  9
$DIMLWE
 70
    -2
  9
$DIMTMOVE
 70
     0
  9
$LUNITS
 70
     2
  9
$LUPREC
 70
     4
  9
$SKETCHINC
 40
0.1
  9
$FILLETRAD
 40
0.5
  9
$AUNITS
 70
     0
  9
$AUPREC
 70
     0
  9
$MENU
  1
.
  9
$ELEVATION
 40
0.0
  9
$PELEVATION
 40
0.0
  9
$THICKNESS
 40
0.0
  9
$LIMCHECK
 70
     0
  9
$CHAMFERA
 40
0.5
  9
$CHAMFERB
 40
0.5
  9
$CHAMFERC
 40
1.0
  9
$CHAMFERD
 40
0.0
  9
$SKPOLY
 70
     0
  9
$TDCREATE
 40
2458492.415732442
  9
$TDUCREATE
 40
2458492.374065775
  9
$TDUPDATE
 40
2458492.415732454
  9
$TDUUPDATE
 40
2458492.374065787
  9
$TDINDWG
 40
0.0000000116
  9
$TDUSRTIMER
 40
0.0000000116
  9
$USRTIMER
 70
     1
  9
$ANGBASE
 50
0.0
  9
$ANGDIR
 70
     0
  9
$PDMODE
 70
     0
  9
$PDSIZE
 40
0.0
  9
$PLINEWID
 40
0.0
  9
$SPLFRAME
 70
     0
  9
$SPLINETYPE
 70
     6
  9
$SPLINESEGS
 70
     8
  9
$HANDSEED
  5
211
  9
$SURFTAB1
 70
     6
  9
$SURFTAB2
 70
     6
  9
$SURFTYPE
 70
     6
  9
$SURFU
 70
     6
  9
$SURFV
 70
     6
  9
$UCSBASE
  2

  9
$UCSNAME
  2

  9
$UCSORG
 10
0.0
 20
0.0
 30
0.0
  9
$UCSXDIR
 10
1.0
 20
0.0
 30
0.0
  9
$UCSYDIR
 10
0.0
 20
1.0
 30
0.0
  9
$UCSORTHOREF
  2

  9
$UCSORTHOVIEW
 70
     0
  9
$UCSORGTOP
 10
0.0
 20
0.0
 30
0.0
  9
$UCSORGBOTTOM
 10
0.0
 20
0.0
 30
0.0
  9
$UCSORGLEFT
 10
0.0
 20
0.0
 30
0.0
  9
$UCSORGRIGHT
 10
0.0
 20
0.0
 30
0.0
  9
$UCSORGFRONT
 10
0.0
 20
0.0
 30
0.0
  9
$UCSORGBACK
 10
0.0
 20
0.0
 30
0.0
  9
$PUCSBASE
  2

  9
$PUCSNAME
  2

  9
$PUCSORG
 10
0.0
 20
0.0
 30
0.0
  9
$PUCSXDIR
 10
1.0
 20
0.0
 30
0.0
  9
$PUCSYDIR
 10
0.0
 20
1.0
 30
0.0
  9
$PUCSORTHOREF
  2

  9
$PUCSORTHOVIEW
 70
     0
  9
$PUCSORGTOP
 10
0.0
 20
0.0
 30
0.0
  9
$PUCSORGBOTTOM
 10
0.0
 20
0.0
 30
0.0
  9
$PUCSORGLEFT
 10
0.0
 20
0.0
 30
0.0
  9
$PUCSORGRIGHT
 10
0.0
 20
0.0
 30
0.0
  9
$PUCSORGFRONT
 10
0.0
 20
0.0
 30
0.0
  9
$PUCSORGBACK
 10
0.0
 20
0.0
 30
0.0
  9
$USERI1
 70
     0
  9
$USERI2
 70
     0
  9
$USERI3
 70
     0
  9
$USERI4
 70
     0
  9
$USERI5
 70
     0
  9
$USERR1
 40
0.0
  9
$USERR2
 40
0.0
  9
$USERR3
 40
0.0
  9
$USERR4
 40
0.0
  9
$USERR5
 40
0.0
  9
$WORLDVIEW
 70
     1
  9
$SHADEDGE
 70
     3
  9
$SHADEDIF
 70
    70
  9
$TILEMODE
 70
     1
  9
$MAXACTVP
 70
    64
  9
$PINSBASE
 10
0.0
 20
0.0
 30
0.0
  9
$PLIMCHECK
 70
     0
  9
$PEXTMIN
 10
1.000000000000000E+20
 20
1.000000000000000E+20
 30
1.000000000000000E+20
  9
$PEXTMAX
 10
-1.000000000000000E+20
 20
-1.000000000000000E+20
 30
-1.000000000000000E+20
  9
$PLIMMIN
 10
0.0
 20
0.0
  9
$PLIMMAX
 10
12.0
 20
9.0
  9
$UNITMODE
 70
     0
  9
$VISRETAIN
 70
     1
  9
$PLINEGEN
 70
     0
  9
$PSLTSCALE
 70
     1
  9
$TREEDEPTH
 70
  3020
  9
$CMLSTYLE
  2
Standard
  9
$CMLJUST
 70
     0
  9
$CMLSCALE
 40
1.0
  9
$PROXYGRAPHICS
 70
     1
  9
$MEASUREMENT
 70
     0
  9
$CELWEIGHT
370
    -1
  9
$ENDCAPS
280
     0
  9
$JOINSTYLE
280
     0
  9
$LWDISPLAY
290
     0
  9
$INSUNITS
 70
     4
  9
$HYPERLINKBASE
  1

  9
$STYLESHEET
  1

  9
$XEDIT
290
     1
  9
$CEPSNTYPE
380
     0
  9
$PSTYLEMODE
290
     1
  9
$FINGERPRINTGUID
  2
{46B5566C-591E-4220-BF39-F953493C9580}
  9
$VERSIONGUID
  2
{FAEB1C32-E019-11D5-929B-00C0DF256EC4}
  9
$EXTNAMES
290
     1
  9
$PSVPSCALE
 40
0.0
  9
$OLESTARTUP
290
     0
  0
ENDSEC
  0
SECTION
  2
CLASSES
  0
CLASS
  1
ACDBDICTIONARYWDFLT
  2
AcDbDictionaryWithDefault
  3
ObjectDBX Classes
 90
        0
280
     0
281
     0
  0
CLASS
  1
VISUALSTYLE
  2
AcDbVisualStyle
  3
ObjectDBX Classes
 90
     4095
280
     0
281
     0
  0
CLASS
  1
MATERIAL
  2
AcDbMaterial
  3
ObjectDBX Classes
 90
     1153
280
     0
281
     0
  0
CLASS
  1
DICTIONARYVAR
  2
AcDbDictionaryVar
  3
ObjectDBX Classes
 90
        0
280
     0
281
     0
  0
CLASS
  1
ACDBPLACEHOLDER
  2
AcDbPlaceHolder
  3
ObjectDBX Classes
 90
        0
280
     0
281
     0
  0
CLASS
  1
LAYOUT
  2
AcDbLayout
  3
ObjectDBX Classes
 90
        0
280
     0
281
     0
  0
ENDSEC
  0
SECTION
  2
TABLES
  0
TABLE
  2
VPORT
  5
8
330
0
100
AcDbSymbolTable
 70
     1
  0
VPORT
  5
29
330
8
100
AcDbSymbolTableRecord
100
AcDbViewportTableRecord
  2
*Active
 70
     0
 10
0.0
 20
0.0
 11
1.0
 21
1.0
 12
10.42990654205607
 22
4.5
 13
0.0
 23
0.0
 14
0.5
 24
0.5
 15
0.5
 25
0.5
 16
0.0
 26
0.0
 36
1.0
 17
0.0
 27
0.0
 37
0.0
 40
9.0
 41
1.972972972850329
 42
50.0
 43
0.0
 44
0.0
 50
0.0
 51
0.0
 71
     0
 72
   100
 73
     1
 74
     3
 75
     0
 76
     0
 77
     0
 78
     0
281
     0
 65
     1
110
0.0
120
0.0
130
0.0
111
1.0
121
0.0
131
0.0
112
0.0
122
1.0
132
0.0
 79
     0
146
0.0
  0
ENDTAB
  0
TABLE
  2
LTYPE
  5
5
330
0
100
AcDbSymbolTable
 70
     7
  0
LTYPE
  5
14
330
5
100
AcDbSymbolTableRecord
100
AcDbLinetypeTableRecord
  2
ByBlock
 70
     0
  3

 72
    65
 73
     0
 40
0.0
  0
LTYPE
  5
15
330
5
100
AcDbSymbolTableRecord
100
AcDbLinetypeTableRecord
  2
ByLayer
 70
     0
  3

 72
    65
 73
     0
 40
0.0
  0
LTYPE
  5
16
330
5
100
AcDbSymbolTableRecord
100
AcDbLinetypeTableRecord
  2
Continuous
 70
     0
  3
Solid line
 72
    65
 73
     0
 40
0.0
  0
LTYPE
  5
1D3
330
5
100
AcDbSymbolTableRecord
100
AcDbLinetypeTableRecord
  2
New Line1
 70
     0
  3

 72
    65
 73
     4
 40
1.2
 49
0.5
 74
     4
 75
     0
340
0
 46
1.0
 50
0.0
 44
0.0
 45
0.0
 49
-0.3
 74
     4
 75
     0
340
0
 46
1.0
 50
0.0
 44
0.0
 45
0.0
 49
0.1
 74
     4
 75
     0
340
0
 46
1.0
 50
0.0
 44
0.0
 45
0.0
 49
-0.3
 74
     4
 75
     0
340
0
 46
1.0
 50
0.0
 44
0.0
 45
0.0
  0
LTYPE
  5
1D5
330
5
100
AcDbSymbolTableRecord
100
AcDbLinetypeTableRecord
  2
New Line2
 70
     0
  3

 72
    65
 73
     4
 40
1.2
 49
0.5
 74
     4
 75
     0
340
0
 46
1.0
 50
0.0
 44
0.0
 45
0.0
 49
-0.3
 74
     4
 75
     0
340
0
 46
1.0
 50
0.0
 44
0.0
 45
0.0
 49
0.1
 74
     4
 75
     0
340
0
 46
1.0
 50
0.0
 44
0.0
 45
0.0
 49
-0.3
 74
     4
 75
     0
340
0
 46
1.0
 50
0.0
 44
0.0
 45
0.0
  0
LTYPE
  5
1D7
330
5
100
AcDbSymbolTableRecord
100
AcDbLinetypeTableRecord
  2
New Line3
 70
     0
  3

 72
    65
 73
     4
 40
1.2
 49
0.5
 74
     4
 75
     0
340
0
 46
1.0
 50
0.0
 44
0.0
 45
0.0
 49
-0.3
 74
     4
 75
     0
340
0
 46
1.0
 50
0.0
 44
0.0
 45
0.0
 49
0.1
 74
     4
 75
     0
340
0
 46
1.0
 50
0.0
 44
0.0
 45
0.0
 49
-0.3
 74
     4
 75
     0
340
0
 46
1.0
 50
0.0
 44
0.0
 45
0.0
  0
LTYPE
  5
1D9
330
5
100
AcDbSymbolTableRecord
100
AcDbLinetypeTableRecord
  2
New Line4
 70
     0
  3

 72
    65
 73
     4
 40
1.2
 49
0.5
 74
     4
 75
     0
340
0
 46
1.0
 50
0.0
 44
0.0
 45
0.0
 49
-0.3
 74
     4
 75
     0
340
0
 46
1.0
 50
0.0
 44
0.0
 45
0.0
 49
0.1
 74
     4
 75
     0
340
0
 46
1.0
 50
0.0
 44
0.0
 45
0.0
 49
-0.3
 74
     4
 75
     0
340
0
 46
1.0
 50
0.0
 44
0.0
 45
0.0
  0
LTYPE
  5
1DB
330
5
100
AcDbSymbolTableRecord
100
AcDbLinetypeTableRecord
  2
New Line5
 70
     0
  3

 72
    65
 73
     4
 40
1.2
 49
0.5
 74
     4
 75
     0
340
0
 46
1.0
 50
0.0
 44
0.0
 45
0.0
 49
-0.3
 74
     4
 75
     0
340
0
 46
1.0
 50
0.0
 44
0.0
 45
0.0
 49
0.1
 74
     4
 75
     0
340
0
 46
1.0
 50
0.0
 44
0.0
 45
0.0
 49
-0.3
 74
     4
 75
     0
340
0
 46
1.0
 50
0.0
 44
0.0
 45
0.0
  0
LTYPE
  5
1DD
330
5
100
AcDbSymbolTableRecord
100
AcDbLinetypeTableRecord
  2
New Line6
 70
     0
  3

 72
    65
 73
     4
 40
1.2
 49
0.5
 74
     4
 75
     0
340
0
 46
1.0
 50
0.0
 44
0.0
 45
0.0
 49
-0.3
 74
     4
 75
     0
340
0
 46
1.0
 50
0.0
 44
0.0
 45
0.0
 49
0.1
 74
     4
 75
     0
340
0
 46
1.0
 50
0.0
 44
0.0
 45
0.0
 49
-0.3
 74
     4
 75
     0
340
0
 46
1.0
 50
0.0
 44
0.0
 45
0.0
  0
ENDTAB
  0
TABLE
  2
LAYER
  5
2
330
0
100
AcDbSymbolTable
 70
     2
  0
LAYER
  5
10
330
2
100
AcDbSymbolTableRecord
100
AcDbLayerTableRecord
  2
0
 70
     0
 62
     7
  6
Continuous
370
    -3
390
F
  0
LAYER
  5
40
330
2
100
AcDbSymbolTableRecord
100
AcDbLayerTableRecord
  2
Ilustrace
 70
     0
 62
     7
  6
Continuous
370
    -3
390
F
  0
ENDTAB
  0
TABLE
  2
STYLE
  5
3
330
0
100
AcDbSymbolTable
 70
     1
  0
STYLE
  5
11
330
3
100
AcDbSymbolTableRecord
100
AcDbTextStyleTableRecord
  2
Standard
 70
     0
 40
0.0
 41
1.0
 50
0.0
 71
     0
 42
0.2
  3
txt
  4

  0
ENDTAB
  0
TABLE
  2
VIEW
  5
6
330
0
100
AcDbSymbolTable
 70
     0
  0
ENDTAB
  0
TABLE
  2
UCS
  5
7
330
0
100
AcDbSymbolTable
 70
     0
  0
ENDTAB
  0
TABLE
  2
APPID
  5
9
330
0
100
AcDbSymbolTable
 70
     2
  0
APPID
  5
12
330
9
100
AcDbSymbolTableRecord
100
AcDbRegAppTableRecord
  2
ACAD
 70
     0
  0
APPID
  5
3F
330
9
100
AcDbSymbolTableRecord
100
AcDbRegAppTableRecord
  2
ODA
 70
     0
  0
ENDTAB
  0
TABLE
  2
DIMSTYLE
  5
A
330
0
100
AcDbSymbolTable
 70
     1
100
AcDbDimStyleTable
  0
DIMSTYLE
105
27
330
A
100
AcDbSymbolTableRecord
100
AcDbDimStyleTableRecord
  2
Standard
 70
     0
340
11
  0
ENDTAB
  0
TABLE
  2
BLOCK_RECORD
  5
1
330
0
100
AcDbSymbolTable
 70
     1
  0
BLOCK_RECORD
  5
1F
330
1
100
AcDbSymbolTableRecord
100
AcDbBlockTableRecord
  2
*Model_Space
340
22
  0
BLOCK_RECORD
  5
1B
330
1
100
AcDbSymbolTableRecord
100
AcDbBlockTableRecord
  2
*Paper_Space
340
1E
  0
BLOCK_RECORD
  5
23
330
1
100
AcDbSymbolTableRecord
100
AcDbBlockTableRecord
  2
*Paper_Space0
340
26
  0
ENDTAB
  0
ENDSEC
  0
SECTION
  2
BLOCKS
  0
BLOCK
  5
20
330
1F
100
AcDbEntity
  8
0
100
AcDbBlockBegin
  2
*Model_Space
 70
     0
 10
0.0
 20
0.0
 30
0.0
  3
*Model_Space
  1

  0
ENDBLK
  5
21
330
1F
100
AcDbEntity
  8
0
100
AcDbBlockEnd
  0
BLOCK
  5
1C
330
1B
100
AcDbEntity
 67
     1
  8
0
100
AcDbBlockBegin
  2
*Paper_Space
 70
     0
 10
0.0
 20
0.0
 30
0.0
  3
*Paper_Space
  1

  0
ENDBLK
  5
1D
330
1B
100
AcDbEntity
 67
     1
  8
0
100
AcDbBlockEnd
  0
BLOCK
  5
24
330
23
100
AcDbEntity
  8
0
100
AcDbBlockBegin
  2
*Paper_Space0
 70
     0
 10
0.0
 20
0.0
 30
0.0
  3
*Paper_Space0
  1

  0
ENDBLK
  5
25
330
23
100
AcDbEntity
  8
0
100
AcDbBlockEnd
  0
ENDSEC
  0
SECTION
  2
ENTITIES
  0
SPLINE
  5
41
330
1F
100
AcDbEntity
  8
Ilustrace
 62
     9
100
AcDbSpline
210
0.0
220
0.0
230
1.0
 70
    11
 71
     3
 72
   128
 73
   124
 74
     0
 42
0.0000000001
 43
0.0000000001
 40
0.0
 40
0.0
 40
0.0
 40
0.0
 40
0.03125
 40
0.03125
 40
0.03125
 40
0.03125
 40
0.0625
 40
0.0625
 40
0.0625
 40
0.0625
 40
0.09375
 40
0.09375
 40
0.09375
 40
0.09375
 40
0.125
 40
0.125
 40
0.125
 40
0.125
 40
0.15625
 40
0.15625
 40
0.15625
 40
0.15625
 40
0.1875
 40
0.1875
 40
0.1875
 40
0.1875
 40
0.21875
 40
0.21875
 40
0.21875
 40
0.21875
 40
0.25
 40
0.25
 40
0.25
 40
0.25
 40
0.28125
 40
0.28125
 40
0.28125
 40
0.28125
 40
0.3125
 40
0.3125
 40
0.3125
 40
0.3125
 40
0.34375
 40
0.34375
 40
0.34375
 40
0.34375
 40
0.375
 40
0.375
 40
0.375
 40
0.375
 40
0.40625
 40
0.40625
 40
0.40625
 40
0.40625
 40
0.4375
 40
0.4375
 40
0.4375
 40
0.4375
 40
0.46875
 40
0.46875
 40
0.46875
 40
0.46875
 40
0.5
 40
0.5
 40
0.5
 40
0.5
 40
0.53125
 40
0.53125
 40
0.53125
 40
0.53125
 40
0.5625
 40
0.5625
 40
0.5625
 40
0.5625
 40
0.59375
 40
0.59375
 40
0.59375
 40
0.59375
 40
0.625
 40
0.625
 40
0.625
 40
0.625
 40
0.65625
 40
0.65625
 40
0.65625
 40
0.65625
 40
0.6875
 40
0.6875
 40
0.6875
 40
0.6875
 40
0.71875
 40
0.71875
 40
0.71875
 40
0.71875
 40
0.75
 40
0.75
 40
0.75
 40
0.75
 40
0.78125
 40
0.78125
 40
0.78125
 40
0.78125
 40
0.8125
 40
0.8125
 40
0.8125
 40
0.8125
 40
0.84375
 40
0.84375
 40
0.84375
 40
0.84375
 40
0.875
 40
0.875
 40
0.875
 40
0.875
 40
0.90625
 40
0.90625
 40
0.90625
 40
0.90625
 40
0.9375
 40
0.9375
 40
0.9375
 40
0.9375
 40
1.0
 40
1.0
 40
1.0
 40
1.0
 10
-14.6458
 20
4.9143
 30
0.0
 10
-14.6458
 20
4.9143
 30
0.0
 10
-14.1745
 20
4.935
 30
0.0
 10
-14.1745
 20
4.935
 30
0.0
 10
-14.1745
 20
4.935
 30
0.0
 10
-14.1745
 20
4.935
 30
0.0
 10
-14.1748
 20
9.2427
 30
0.0
 10
-14.1748
 20
9.2427
 30
0.0
 10
-14.1748
 20
9.2427
 30
0.0
 10
-14.1748
 20
9.2427
 30
0.0
 10
-14.1334
 20
9.4205
 30
0.0
 10
-14.1334
 20
9.4205
 30
0.0
 10
-14.1334
 20
9.4205
 30
0.0
 10
-14.1334
 20
9.4205
 30
0.0
 10
-14.0756
 20
9.5445
 30
0.0
 10
-14.0756
 20
9.5445
 30
0.0
 10
-14.0756
 20
9.5445
 30
0.0
 10
-14.0756
 20
9.5445
 30
0.0
 10
-13.997
 20
9.623
 30
0.0
 10
-13.997
 20
9.623
 30
0.0
 10
-13.997
 20
9.623
 30
0.0
 10
-13.997
 20
9.623
 30
0.0
 10
-13.8771
 20
9.685
 30
0.0
 10
-13.8771
 20
9.685
 30
0.0
 10
-13.8771
 20
9.685
 30
0.0
 10
-13.8771
 20
9.685
 30
0.0
 10
-13.7696
 20
9.7181
 30
0.0
 10
-13.7696
 20
9.7181
 30
0.0
 10
-13.7696
 20
9.7181
 30
0.0
 10
-13.7696
 20
9.7181
 30
0.0
 10
4.8296
 20
9.7427
 30
0.0
 10
4.8296
 20
9.7427
 30
0.0
 10
4.8296
 20
9.7427
 30
0.0
 10
4.8296
 20
9.7427
 30
0.0
 10
5.119
 20
9.751
 30
0.0
 10
5.119
 20
9.751
 30
0.0
 10
5.119
 20
9.751
 30
0.0
 10
5.119
 20
9.751
 30
0.0
 10
5.3339
 20
9.7179
 30
0.0
 10
5.3339
 20
9.7179
 30
0.0
 10
5.3339
 20
9.7179
 30
0.0
 10
5.3339
 20
9.7179
 30
0.0
 10
5.5324
 20
9.6352
 30
0.0
 10
5.5324
 20
9.6352
 30
0.0
 10
5.5324
 20
9.6352
 30
0.0
 10
5.5324
 20
9.6352
 30
0.0
 10
5.6151
 20
9.4657
 30
0.0
 10
5.6151
 20
9.4657
 30
0.0
 10
5.6151
 20
9.4657
 30
0.0
 10
5.6151
 20
9.4657
 30
0.0
 10
5.6523
 20
9.3624
 30
0.0
 10
5.6523
 20
9.3624
 30
0.0
 10
5.6523
 20
9.3624
 30
0.0
 10
5.6523
 20
9.3624
 30
0.0
 10
5.6812
 20
9.1763
 30
0.0
 10
5.6812
 20
9.1763
 30
0.0
 10
5.6812
 20
9.1763
 30
0.0
 10
5.6812
 20
9.1763
 30
0.0
 10
5.6853
 20
8.9241
 30
0.0
 10
5.6853
 20
8.9241
 30
0.0
 10
5.6853
 20
8.9241
 30
0.0
 10
5.6853
 20
8.9241
 30
0.0
 10
5.6635
 20
4.8882
 30
0.0
 10
5.6635
 20
4.8882
 30
0.0
 10
5.6635
 20
4.8882
 30
0.0
 10
5.6635
 20
4.8882
 30
0.0
 10
6.1596
 20
4.8892
 30
0.0
 10
6.1596
 20
4.8892
 30
0.0
 10
6.1596
 20
4.8892
 30
0.0
 10
6.1596
 20
4.8892
 30
0.0
 10
6.1791
 20
-3.3565
 30
0.0
 10
6.1791
 20
-3.3565
 30
0.0
 10
6.1791
 20
-3.3565
 30
0.0
 10
6.1791
 20
-3.3565
 30
0.0
 10
6.1254
 20
-3.6665
 30
0.0
 10
6.1254
 20
-3.6665
 30
0.0
 10
6.1254
 20
-3.6665
 30
0.0
 10
6.1254
 20
-3.6665
 30
0.0
 10
6.0055
 20
-3.8815
 30
0.0
 10
6.0055
 20
-3.8815
 30
0.0
 10
6.0055
 20
-3.8815
 30
0.0
 10
6.0055
 20
-3.8815
 30
0.0
 10
5.8401
 20
-4.0758
 30
0.0
 10
5.8401
 20
-4.0758
 30
0.0
 10
5.8401
 20
-4.0758
 30
0.0
 10
5.8401
 20
-4.0758
 30
0.0
 10
5.621
 20
-4.1833
 30
0.0
 10
5.621
 20
-4.1833
 30
0.0
 10
5.621
 20
-4.1833
 30
0.0
 10
5.621
 20
-4.1833
 30
0.0
 10
5.3688
 20
-4.2122
 30
0.0
 10
5.3688
 20
-4.2122
 30
0.0
 10
5.3688
 20
-4.2122
 30
0.0
 10
5.3688
 20
-4.2122
 30
0.0
 10
-13.9354
 20
-4.2078
 30
0.0
 10
-13.9354
 20
-4.2078
 30
0.0
 10
-13.9354
 20
-4.2078
 30
0.0
 10
-13.9354
 20
-4.2078
 30
0.0
 10
-14.1173
 20
-4.1727
 30
0.0
 10
-14.1173
 20
-4.1727
 30
0.0
 10
-14.1173
 20
-4.1727
 30
0.0
 10
-14.1173
 20
-4.1727
 30
0.0
 10
-14.3033
 20
-4.0734
 30
0.0
 10
-14.3033
 20
-4.0734
 30
0.0
 10
-14.3033
 20
-4.0734
 30
0.0
 10
-14.3033
 20
-4.0734
 30
0.0
 10
-14.4356
 20
-3.9349
 30
0.0
 10
-14.4356
 20
-3.9349
 30
0.0
 10
-14.4356
 20
-3.9349
 30
0.0
 10
-14.4356
 20
-3.9349
 30
0.0
 10
-14.5348
 20
-3.7633
 30
0.0
 10
-14.5369
 20
-3.753
 30
0.0
 10
-14.5369
 20
-3.753
 30
0.0
 10
-14.539
 20
-3.7427
 30
0.0
 10
-14.5886
 20
-3.598
 30
0.0
 10
-14.5886
 20
-3.598
 30
0.0
 10
-14.5886
 20
-3.598
 30
0.0
 10
-14.5886
 20
-3.598
 30
0.0
 10
-14.6299
 20
-3.445
 30
0.0
 10
-14.6299
 20
-3.445
 30
0.0
 10
-14.6299
 20
-3.445
 30
0.0
 10
-14.6299
 20
-3.445
 30
0.0
 10
-14.6458
 20
4.9143
 30
0.0
 10
-14.6458
 20
4.9143
 30
0.0
  0
SPLINE
  5
42
330
1F
100
AcDbEntity
  8
Ilustrace
 62
     9
100
AcDbSpline
210
0.0
220
0.0
230
1.0
 70
    11
 71
     3
 72
    52
 73
    48
 74
     0
 42
0.0000000001
 43
0.0000000001
 40
0.0
 40
0.0
 40
0.0
 40
0.0
 40
0.0769230769230769
 40
0.0769230769230769
 40
0.0769230769230769
 40
0.0769230769230769
 40
0.1538461538461539
 40
0.1538461538461539
 40
0.1538461538461539
 40
0.1538461538461539
 40
0.2307692307692308
 40
0.2307692307692308
 40
0.2307692307692308
 40
0.2307692307692308
 40
0.3076923076923077
 40
0.3076923076923077
 40
0.3076923076923077
 40
0.3076923076923077
 40
0.3846153846153846
 40
0.3846153846153846
 40
0.3846153846153846
 40
0.3846153846153846
 40
0.4615384615384616
 40
0.4615384615384616
 40
0.4615384615384616
 40
0.4615384615384616
 40
0.5384615384615384
 40
0.5384615384615384
 40
0.5384615384615384
 40
0.5384615384615384
 40
0.6153846153846154
 40
0.6153846153846154
 40
0.6153846153846154
 40
0.6153846153846154
 40
0.6923076923076923
 40
0.6923076923076923
 40
0.6923076923076923
 40
0.6923076923076923
 40
0.7692307692307693
 40
0.7692307692307693
 40
0.7692307692307693
 40
0.7692307692307693
 40
0.8461538461538461
 40
0.8461538461538461
 40
0.8461538461538461
 40
0.8461538461538461
 40
1.0
 40
1.0
 40
1.0
 40
1.0
 10
-1.0534
 20
4.9701
 30
0.0
 10
-1.0534
 20
4.9701
 30
0.0
 10
0.2365
 20
4.9452
 30
0.0
 10
0.2365
 20
4.9452
 30
0.0
 10
0.2365
 20
4.9452
 30
0.0
 10
0.2365
 20
4.9452
 30
0.0
 10
0.2735
 20
8.4387
 30
0.0
 10
0.2735
 20
8.4387
 30
0.0
 10
0.2735
 20
8.4387
 30
0.0
 10
0.2735
 20
8.4387
 30
0.0
 10
0.1536
 20
8.6908
 30
0.0
 10
0.1536
 20
8.6908
 30
0.0
 10
0.1536
 20
8.6908
 30
0.0
 10
0.1536
 20
8.6908
 30
0.0
 10
0.0172
 20
8.8231
 30
0.0
 10
0.0172
 20
8.8231
 30
0.0
 10
0.0172
 20
8.8231
 30
0.0
 10
0.0172
 20
8.8231
 30
0.0
 10
-0.0655
 20
8.9017
 30
0.0
 10
-0.0655
 20
8.9017
 30
0.0
 10
-0.0655
 20
8.9017
 30
0.0
 10
-0.0655
 20
8.9017
 30
0.0
 10
-0.2309
 20
8.9306
 30
0.0
 10
-0.2309
 20
8.9306
 30
0.0
 10
-0.2309
 20
8.9306
 30
0.0
 10
-0.2309
 20
8.9306
 30
0.0
 10
-0.4996
 20
8.9472
 30
0.0
 10
-0.4996
 20
8.9472
 30
0.0
 10
-0.4996
 20
8.9472
 30
0.0
 10
-0.4996
 20
8.9472
 30
0.0
 10
-0.6484
 20
8.9058
 30
0.0
 10
-0.6484
 20
8.9058
 30
0.0
 10
-0.6484
 20
8.9058
 30
0.0
 10
-0.6484
 20
8.9058
 30
0.0
 10
-0.8345
 20
8.7653
 30
0.0
 10
-0.8345
 20
8.7653
 30
0.0
 10
-0.8345
 20
8.7653
 30
0.0
 10
-0.8345
 20
8.7653
 30
0.0
 10
-0.942
 20
8.6247
 30
0.0
 10
-0.942
 20
8.6247
 30
0.0
 10
-0.942
 20
8.6247
 30
0.0
 10
-0.942
 20
8.6247
 30
0.0
 10
-1.0205
 20
8.4263
 30
0.0
 10
-1.0205
 20
8.4263
 30
0.0
 10
-1.0205
 20
8.4263
 30
0.0
 10
-1.0205
 20
8.4263
 30
0.0
 10
-1.0534
 20
4.9701
 30
0.0
 10
-1.0534
 20
4.9701
 30
0.0
  0
SPLINE
  5
43
330
1F
100
AcDbEntity
  8
Ilustrace
 62
     9
100
AcDbSpline
210
0.0
220
0.0
230
1.0
 70
    11
 71
     3
 72
    52
 73
    48
 74
     0
 42
0.0000000001
 43
0.0000000001
 40
0.0
 40
0.0
 40
0.0
 40
0.0
 40
0.0769230769230769
 40
0.0769230769230769
 40
0.0769230769230769
 40
0.0769230769230769
 40
0.1538461538461539
 40
0.1538461538461539
 40
0.1538461538461539
 40
0.1538461538461539
 40
0.2307692307692308
 40
0.2307692307692308
 40
0.2307692307692308
 40
0.2307692307692308
 40
0.3076923076923077
 40
0.3076923076923077
 40
0.3076923076923077
 40
0.3076923076923077
 40
0.3846153846153846
 40
0.3846153846153846
 40
0.3846153846153846
 40
0.3846153846153846
 40
0.4615384615384616
 40
0.4615384615384616
 40
0.4615384615384616
 40
0.4615384615384616
 40
0.5384615384615384
 40
0.5384615384615384
 40
0.5384615384615384
 40
0.5384615384615384
 40
0.6153846153846154
 40
0.6153846153846154
 40
0.6153846153846154
 40
0.6153846153846154
 40
0.6923076923076923
 40
0.6923076923076923
 40
0.6923076923076923
 40
0.6923076923076923
 40
0.7692307692307693
 40
0.7692307692307693
 40
0.7692307692307693
 40
0.7692307692307693
 40
0.8461538461538461
 40
0.8461538461538461
 40
0.8461538461538461
 40
0.8461538461538461
 40
1.0
 40
1.0
 40
1.0
 40
1.0
 10
-8.7594
 20
4.9039
 30
0.0
 10
-8.7594
 20
4.9039
 30
0.0
 10
-7.4695
 20
4.879
 30
0.0
 10
-7.4695
 20
4.879
 30
0.0
 10
-7.4695
 20
4.879
 30
0.0
 10
-7.4695
 20
4.879
 30
0.0
 10
-7.4325
 20
8.3725
 30
0.0
 10
-7.4325
 20
8.3725
 30
0.0
 10
-7.4325
 20
8.3725
 30
0.0
 10
-7.4325
 20
8.3725
 30
0.0
 10
-7.5524
 20
8.6246
 30
0.0
 10
-7.5524
 20
8.6246
 30
0.0
 10
-7.5524
 20
8.6246
 30
0.0
 10
-7.5524
 20
8.6246
 30
0.0
 10
-7.6888
 20
8.7569
 30
0.0
 10
-7.6888
 20
8.7569
 30
0.0
 10
-7.6888
 20
8.7569
 30
0.0
 10
-7.6888
 20
8.7569
 30
0.0
 10
-7.7715
 20
8.8355
 30
0.0
 10
-7.7715
 20
8.8355
 30
0.0
 10
-7.7715
 20
8.8355
 30
0.0
 10
-7.7715
 20
8.8355
 30
0.0
 10
-7.9369
 20
8.8644
 30
0.0
 10
-7.9369
 20
8.8644
 30
0.0
 10
-7.9369
 20
8.8644
 30
0.0
 10
-7.9369
 20
8.8644
 30
0.0
 10
-8.2056
 20
8.881
 30
0.0
 10
-8.2056
 20
8.881
 30
0.0
 10
-8.2056
 20
8.881
 30
0.0
 10
-8.2056
 20
8.881
 30
0.0
 10
-8.3544
 20
8.8396
 30
0.0
 10
-8.3544
 20
8.8396
 30
0.0
 10
-8.3544
 20
8.8396
 30
0.0
 10
-8.3544
 20
8.8396
 30
0.0
 10
-8.5405
 20
8.6991
 30
0.0
 10
-8.5405
 20
8.6991
 30
0.0
 10
-8.5405
 20
8.6991
 30
0.0
 10
-8.5405
 20
8.6991
 30
0.0
 10
-8.648
 20
8.5585
 30
0.0
 10
-8.648
 20
8.5585
 30
0.0
 10
-8.648
 20
8.5585
 30
0.0
 10
-8.648
 20
8.5585
 30
0.0
 10
-8.7265
 20
8.3601
 30
0.0
 10
-8.7265
 20
8.3601
 30
0.0
 10
-8.7265
 20
8.3601
 30
0.0
 10
-8.7265
 20
8.3601
 30
0.0
 10
-8.7594
 20
4.9039
 30
0.0
 10
-8.7594
 20
4.9039
 30
0.0
  0
SPLINE
  5
44
330
1F
100
AcDbEntity
  8
Ilustrace
 62
   250
370
    30
100
AcDbSpline
210
0.0
220
0.0
230
1.0
 70
    11
 71
     3
 72
    36
 73
    32
 74
     0
 42
0.0000000001
 43
0.0000000001
 40
0.0
 40
0.0
 40
0.0
 40
0.0
 40
0.1111111111111111
 40
0.1111111111111111
 40
0.1111111111111111
 40
0.1111111111111111
 40
0.2222222222222222
 40
0.2222222222222222
 40
0.2222222222222222
 40
0.2222222222222222
 40
0.3333333333333333
 40
0.3333333333333333
 40
0.3333333333333333
 40
0.3333333333333333
 40
0.4444444444444444
 40
0.4444444444444444
 40
0.4444444444444444
 40
0.4444444444444444
 40
0.5555555555555556
 40
0.5555555555555556
 40
0.5555555555555556
 40
0.5555555555555556
 40
0.6666666666666666
 40
0.6666666666666666
 40
0.6666666666666666
 40
0.6666666666666666
 40
0.7777777777777778
 40
0.7777777777777778
 40
0.7777777777777778
 40
0.7777777777777778
 40
1.0
 40
1.0
 40
1.0
 40
1.0
 10
-8.4285
 20
3.2869
 30
0.0
 10
-8.4242
 20
3.1957
 30
0.0
 10
-8.4147
 20
3.1168
 30
0.0
 10
-8.3693
 20
3.0352
 30
0.0
 10
-8.3693
 20
3.0352
 30
0.0
 10
-8.3408
 20
2.9843
 30
0.0
 10
-8.3032
 20
2.9391
 30
0.0
 10
-8.2583
 20
2.9018
 30
0.0
 10
-8.2583
 20
2.9018
 30
0.0
 10
-7.9337
 20
2.632
 30
0.0
 10
-7.4306
 20
2.9123
 30
0.0
 10
-7.489
 20
3.3303
 30
0.0
 10
-7.489
 20
3.3303
 30
0.0
 10
-7.4971
 20
3.3882
 30
0.0
 10
-7.5158
 20
3.4439
 30
0.0
 10
-7.5441
 20
3.495
 30
0.0
 10
-7.5441
 20
3.495
 30
0.0
 10
-7.5868
 20
3.5712
 30
0.0
 10
-7.6504
 20
3.6351
 30
0.0
 10
-7.7269
 20
3.6777
 30
0.0
 10
-7.7269
 20
3.6777
 30
0.0
 10
-7.8084
 20
3.723
 30
0.0
 10
-7.8873
 20
3.7326
 30
0.0
 10
-7.9785
 20
3.7368
 30
0.0
 10
-7.9785
 20
3.7368
 30
0.0
 10
-8.0547
 20
3.7262
 30
0.0
 10
-8.0761
 20
3.7286
 30
0.0
 10
-8.1474
 20
3.6971
 30
0.0
 10
-8.1474
 20
3.6971
 30
0.0
 10
-8.321
 20
3.6205
 30
0.0
 10
-8.4033
 20
3.4666
 30
0.0
 10
-8.4285
 20
3.2869
 30
0.0
  0
SPLINE
  5
45
330
1F
100
AcDbEntity
  8
Ilustrace
 62
   250
370
    30
100
AcDbSpline
210
0.0
220
0.0
230
1.0
 70
     8
 71
     3
 72
    28
 73
    24
 74
     0
 42
0.0000000001
 43
0.0000000001
 40
0.0
 40
0.0
 40
0.0
 40
0.0
 40
0.1428571428571428
 40
0.1428571428571428
 40
0.1428571428571428
 40
0.1428571428571428
 40
0.2857142857142857
 40
0.2857142857142857
 40
0.2857142857142857
 40
0.2857142857142857
 40
0.4285714285714285
 40
0.4285714285714285
 40
0.4285714285714285
 40
0.4285714285714285
 40
0.5714285714285714
 40
0.5714285714285714
 40
0.5714285714285714
 40
0.5714285714285714
 40
0.7142857142857143
 40
0.7142857142857143
 40
0.7142857142857143
 40
0.7142857142857143
 40
1.0
 40
1.0
 40
1.0
 40
1.0
 10
-8.547
 20
3.265
 30
0.0
 10
-8.5293
 20
3.1308
 30
0.0
 10
-8.5375
 20
3.0902
 30
0.0
 10
-8.4678
 20
2.9699
 30
0.0
 10
-8.4678
 20
2.9699
 30
0.0
 10
-8.4161
 20
2.8802
 30
0.0
 10
-8.3416
 20
2.8057
 30
0.0
 10
-8.2519
 20
2.7538
 30
0.0
 10
-8.2519
 20
2.7538
 30
0.0
 10
-7.8655
 20
2.5307
 30
0.0
 10
-7.3664
 20
2.8189
 30
0.0
 10
-7.3664
 20
3.265
 30
0.0
 10
-7.3664
 20
3.265
 30
0.0
 10
-7.3664
 20
3.3687
 30
0.0
 10
-7.3937
 20
3.4705
 30
0.0
 10
-7.4454
 20
3.5602
 30
0.0
 10
-7.4454
 20
3.5602
 30
0.0
 10
-7.4972
 20
3.6499
 30
0.0
 10
-7.5719
 20
3.7245
 30
0.0
 10
-7.6616
 20
3.7763
 30
0.0
 10
-7.6616
 20
3.7763
 30
0.0
 10
-7.7819
 20
3.8458
 30
0.0
 10
-7.8224
 20
3.8377
 30
0.0
 10
-7.9566
 20
3.8554
 30
0.0
  0
SPLINE
  5
46
330
1F
100
AcDbEntity
  8
Ilustrace
 62
   250
370
    30
100
AcDbSpline
210
0.0
220
0.0
230
1.0
 70
    24
 71
     3
 72
     8
 73
     4
 74
     0
 42
0.0000000001
 43
0.0000000001
 40
0.0
 40
0.0
 40
0.0
 40
0.0
 40
1.0
 40
1.0
 40
1.0
 40
1.0
 10
-7.9566
 20
3.8554
 30
0.0
 10
-7.9566
 20
3.8554
 30
0.0
 10
-8.1094
 20
3.8353
 30
0.0
 10
-8.1094
 20
3.8353
 30
0.0
  0
SPLINE
  5
47
330
1F
100
AcDbEntity
  8
Ilustrace
 62
   250
370
    30
100
AcDbSpline
210
0.0
220
0.0
230
1.0
 70
     8
 71
     3
 72
     8
 73
     4
 74
     0
 42
0.0000000001
 43
0.0000000001
 40
0.0
 40
0.0
 40
0.0
 40
0.0
 40
1.0
 40
1.0
 40
1.0
 40
1.0
 10
-8.1094
 20
3.8353
 30
0.0
 10
-8.3114
 20
3.7813
 30
0.0
 10
-8.4728
 20
3.6197
 30
0.0
 10
-8.5269
 20
3.4178
 30
0.0
  0
SPLINE
  5
48
330
1F
100
AcDbEntity
  8
Ilustrace
 62
   250
370
    30
100
AcDbSpline
210
0.0
220
0.0
230
1.0
 70
    24
 71
     3
 72
     8
 73
     4
 74
     0
 42
0.0000000001
 43
0.0000000001
 40
0.0
 40
0.0
 40
0.0
 40
0.0
 40
1.0
 40
1.0
 40
1.0
 40
1.0
 10
-8.5269
 20
3.4178
 30
0.0
 10
-8.5269
 20
3.4178
 30
0.0
 10
-8.547
 20
3.265
 30
0.0
 10
-8.547
 20
3.265
 30
0.0
  0
SPLINE
  5
49
330
1F
100
AcDbEntity
  8
Ilustrace
 62
   250
370
    30
100
AcDbSpline
210
0.0
220
0.0
230
1.0
 70
     8
 71
     3
 72
    12
 73
     8
 74
     0
 42
0.0000000001
 43
0.0000000001
 40
0.0
 40
0.0
 40
0.0
 40
0.0
 40
0.3333333333333333
 40
0.3333333333333333
 40
0.3333333333333333
 40
0.3333333333333333
 40
1.0
 40
1.0
 40
1.0
 40
1.0
 10
-7.4253
 20
1.7592
 30
0.0
 10
-7.624
 20
1.6961
 30
0.0
 10
-7.803
 20
1.6734
 30
0.0
 10
-8.0113
 20
1.6662
 30
0.0
 10
-8.0113
 20
1.6662
 30
0.0
 10
-8.2258
 20
1.6883
 30
0.0
 10
-8.4055
 20
1.7265
 30
0.0
 10
-8.6061
 20
1.8054
 30
0.0
  0
SPLINE
  5
4A
330
1F
100
AcDbEntity
  8
Ilustrace
 62
   250
370
    30
100
AcDbSpline
210
0.0
220
0.0
230
1.0
 70
    11
 71
     3
 72
    36
 73
    32
 74
     0
 42
0.0000000001
 43
0.0000000001
 40
0.0
 40
0.0
 40
0.0
 40
0.0
 40
0.1111111111111111
 40
0.1111111111111111
 40
0.1111111111111111
 40
0.1111111111111111
 40
0.2222222222222222
 40
0.2222222222222222
 40
0.2222222222222222
 40
0.2222222222222222
 40
0.3333333333333333
 40
0.3333333333333333
 40
0.3333333333333333
 40
0.3333333333333333
 40
0.4444444444444444
 40
0.4444444444444444
 40
0.4444444444444444
 40
0.4444444444444444
 40
0.5555555555555556
 40
0.5555555555555556
 40
0.5555555555555556
 40
0.5555555555555556
 40
0.6666666666666666
 40
0.6666666666666666
 40
0.6666666666666666
 40
0.6666666666666666
 40
0.7777777777777778
 40
0.7777777777777778
 40
0.7777777777777778
 40
0.7777777777777778
 40
1.0
 40
1.0
 40
1.0
 40
1.0
 10
-0.9903
 20
3.2869
 30
0.0
 10
-0.9861
 20
3.1957
 30
0.0
 10
-0.9766
 20
3.1168
 30
0.0
 10
-0.9312
 20
3.0352
 30
0.0
 10
-0.9312
 20
3.0352
 30
0.0
 10
-0.9028
 20
2.9843
 30
0.0
 10
-0.8652
 20
2.9391
 30
0.0
 10
-0.8203
 20
2.9018
 30
0.0
 10
-0.8203
 20
2.9018
 30
0.0
 10
-0.4957
 20
2.632
 30
0.0
 10
0.0075
 20
2.9123
 30
0.0
 10
-0.0509
 20
3.3303
 30
0.0
 10
-0.0509
 20
3.3303
 30
0.0
 10
-0.059
 20
3.3882
 30
0.0
 10
-0.0776
 20
3.4439
 30
0.0
 10
-0.106
 20
3.495
 30
0.0
 10
-0.106
 20
3.495
 30
0.0
 10
-0.1486
 20
3.5712
 30
0.0
 10
-0.2123
 20
3.6351
 30
0.0
 10
-0.2888
 20
3.6777
 30
0.0
 10
-0.2888
 20
3.6777
 30
0.0
 10
-0.3704
 20
3.723
 30
0.0
 10
-0.4493
 20
3.7326
 30
0.0
 10
-0.5404
 20
3.7368
 30
0.0
 10
-0.5404
 20
3.7368
 30
0.0
 10
-0.6166
 20
3.7262
 30
0.0
 10
-0.638
 20
3.7286
 30
0.0
 10
-0.7093
 20
3.6971
 30
0.0
 10
-0.7093
 20
3.6971
 30
0.0
 10
-0.883
 20
3.6205
 30
0.0
 10
-0.9653
 20
3.4666
 30
0.0
 10
-0.9903
 20
3.2869
 30
0.0
  0
SPLINE
  5
4B
330
1F
100
AcDbEntity
  8
Ilustrace
 62
   250
370
    30
100
AcDbSpline
210
0.0
220
0.0
230
1.0
 70
     8
 71
     3
 72
    28
 73
    24
 74
     0
 42
0.0000000001
 43
0.0000000001
 40
0.0
 40
0.0
 40
0.0
 40
0.0
 40
0.1428571428571428
 40
0.1428571428571428
 40
0.1428571428571428
 40
0.1428571428571428
 40
0.2857142857142857
 40
0.2857142857142857
 40
0.2857142857142857
 40
0.2857142857142857
 40
0.4285714285714285
 40
0.4285714285714285
 40
0.4285714285714285
 40
0.4285714285714285
 40
0.5714285714285714
 40
0.5714285714285714
 40
0.5714285714285714
 40
0.5714285714285714
 40
0.7142857142857143
 40
0.7142857142857143
 40
0.7142857142857143
 40
0.7142857142857143
 40
1.0
 40
1.0
 40
1.0
 40
1.0
 10
-1.109
 20
3.265
 30
0.0
 10
-1.0912
 20
3.1308
 30
0.0
 10
-1.0993
 20
3.0902
 30
0.0
 10
-1.0298
 20
2.9699
 30
0.0
 10
-1.0298
 20
2.9699
 30
0.0
 10
-0.978
 20
2.8802
 30
0.0
 10
-0.9034
 20
2.8057
 30
0.0
 10
-0.8137
 20
2.7538
 30
0.0
 10
-0.8137
 20
2.7538
 30
0.0
 10
-0.724
 20
2.702
 30
0.0
 10
-0.6223
 20
2.6747
 30
0.0
 10
-0.5186
 20
2.6747
 30
0.0
 10
-0.5186
 20
2.6747
 30
0.0
 10
-0.0724
 20
2.6747
 30
0.0
 10
0.2158
 20
3.1739
 30
0.0
 10
-0.0073
 20
3.5602
 30
0.0
 10
-0.0073
 20
3.5602
 30
0.0
 10
-0.0591
 20
3.6499
 30
0.0
 10
-0.1337
 20
3.7245
 30
0.0
 10
-0.2234
 20
3.7763
 30
0.0
 10
-0.2234
 20
3.7763
 30
0.0
 10
-0.3437
 20
3.8458
 30
0.0
 10
-0.3843
 20
3.8377
 30
0.0
 10
-0.5186
 20
3.8554
 30
0.0
  0
SPLINE
  5
4C
330
1F
100
AcDbEntity
  8
Ilustrace
 62
   250
370
    30
100
AcDbSpline
210
0.0
220
0.0
230
1.0
 70
    24
 71
     3
 72
     8
 73
     4
 74
     0
 42
0.0000000001
 43
0.0000000001
 40
0.0
 40
0.0
 40
0.0
 40
0.0
 40
1.0
 40
1.0
 40
1.0
 40
1.0
 10
-0.5186
 20
3.8554
 30
0.0
 10
-0.5186
 20
3.8554
 30
0.0
 10
-0.6713
 20
3.8353
 30
0.0
 10
-0.6713
 20
3.8353
 30
0.0
  0
SPLINE
  5
4D
330
1F
100
AcDbEntity
  8
Ilustrace
 62
   250
370
    30
100
AcDbSpline
210
0.0
220
0.0
230
1.0
 70
     8
 71
     3
 72
     8
 73
     4
 74
     0
 42
0.0000000001
 43
0.0000000001
 40
0.0
 40
0.0
 40
0.0
 40
0.0
 40
1.0
 40
1.0
 40
1.0
 40
1.0
 10
-0.6713
 20
3.8353
 30
0.0
 10
-0.8733
 20
3.7813
 30
0.0
 10
-1.0348
 20
3.6197
 30
0.0
 10
-1.0888
 20
3.4178
 30
0.0
  0
SPLINE
  5
4E
330
1F
100
AcDbEntity
  8
Ilustrace
 62
   250
370
    30
100
AcDbSpline
210
0.0
220
0.0
230
1.0
 70
    24
 71
     3
 72
     8
 73
     4
 74
     0
 42
0.0000000001
 43
0.0000000001
 40
0.0
 40
0.0
 40
0.0
 40
0.0
 40
1.0
 40
1.0
 40
1.0
 40
1.0
 10
-1.0888
 20
3.4178
 30
0.0
 10
-1.0888
 20
3.4178
 30
0.0
 10
-1.109
 20
3.265
 30
0.0
 10
-1.109
 20
3.265
 30
0.0
  0
SPLINE
  5
4F
330
1F
100
AcDbEntity
  8
Ilustrace
 62
   250
370
    30
100
AcDbSpline
210
0.0
220
0.0
230
1.0
 70
     8
 71
     3
 72
    12
 73
     8
 74
     0
 42
0.0000000001
 43
0.0000000001
 40
0.0
 40
0.0
 40
0.0
 40
0.0
 40
0.3333333333333333
 40
0.3333333333333333
 40
0.3333333333333333
 40
0.3333333333333333
 40
1.0
 40
1.0
 40
1.0
 40
1.0
 10
0.1307
 20
1.8066
 30
0.0
 10
-0.0961
 20
1.6987
 30
0.0
 10
-0.3259
 20
1.6747
 30
0.0
 10
-0.5732
 20
1.6662
 30
0.0
 10
-0.5732
 20
1.6662
 30
0.0
 10
-0.7391
 20
1.6833
 30
0.0
 10
-0.893
 20
1.6971
 30
0.0
 10
-1.0499
 20
1.7589
 30
0.0
  0
SPLINE
  5
50
330
1F
100
AcDbEntity
  8
Ilustrace
 62
   250
370
    30
100
AcDbSpline
210
0.0
220
0.0
230
1.0
 70
    24
 71
     3
 72
     8
 73
     4
 74
     0
 42
0.0000000001
 43
0.0000000001
 40
0.0
 40
0.0
 40
0.0
 40
0.0
 40
1.0
 40
1.0
 40
1.0
 40
1.0
 10
-6.6415
 20
3.4032
 30
0.0
 10
-6.6415
 20
3.4032
 30
0.0
 10
-6.6344
 20
3.265
 30
0.0
 10
-6.6344
 20
3.265
 30
0.0
  0
SPLINE
  5
51
330
1F
100
AcDbEntity
  8
Ilustrace
 62
   250
370
    30
100
AcDbSpline
210
0.0
220
0.0
230
1.0
 70
    24
 71
     3
 72
     8
 73
     4
 74
     0
 42
0.0000000001
 43
0.0000000001
 40
0.0
 40
0.0
 40
0.0
 40
0.0
 40
1.0
 40
1.0
 40
1.0
 40
1.0
 10
-8.6178
 20
2.12
 30
0.0
 10
-8.6178
 20
2.12
 30
0.0
 10
-8.4946
 20
2.0571
 30
0.0
 10
-8.4946
 20
2.0571
 30
0.0
  0
SPLINE
  5
52
330
1F
100
AcDbEntity
  8
Ilustrace
 62
   250
370
    30
100
AcDbSpline
210
0.0
220
0.0
230
1.0
 70
    24
 71
     3
 72
     8
 73
     4
 74
     0
 42
0.0000000001
 43
0.0000000001
 40
0.0
 40
0.0
 40
0.0
 40
0.0
 40
1.0
 40
1.0
 40
1.0
 40
1.0
 10
-8.1418
 20
1.9557
 30
0.0
 10
-8.1418
 20
1.9557
 30
0.0
 10
-7.9566
 20
1.9427
 30
0.0
 10
-7.9566
 20
1.9427
 30
0.0
  0
SPLINE
  5
53
330
1F
100
AcDbEntity
  8
Ilustrace
 62
   250
370
    30
100
AcDbSpline
210
0.0
220
0.0
230
1.0
 70
    24
 71
     3
 72
     8
 73
     4
 74
     0
 42
0.0000000001
 43
0.0000000001
 40
0.0
 40
0.0
 40
0.0
 40
0.0
 40
1.0
 40
1.0
 40
1.0
 40
1.0
 10
-9.2789
 20
3.265
 30
0.0
 10
-9.2789
 20
3.265
 30
0.0
 10
-9.2718
 20
3.1269
 30
0.0
 10
-9.2718
 20
3.1269
 30
0.0
  0
SPLINE
  5
54
330
1F
100
AcDbEntity
  8
Ilustrace
 62
   250
370
    30
100
AcDbSpline
210
0.0
220
0.0
230
1.0
 70
    24
 71
     3
 72
     8
 73
     4
 74
     0
 42
0.0000000001
 43
0.0000000001
 40
0.0
 40
0.0
 40
0.0
 40
0.0
 40
1.0
 40
1.0
 40
1.0
 40
1.0
 10
-7.4253
 20
2.0557
 30
0.0
 10
-7.4253
 20
2.0557
 30
0.0
 10
-7.4771
 20
2.0447
 30
0.0
 10
-7.4771
 20
2.0447
 30
0.0
  0
SPLINE
  5
55
330
1F
100
AcDbEntity
  8
Ilustrace
 62
   250
370
    30
100
AcDbSpline
210
0.0
220
0.0
230
1.0
 70
     8
 71
     3
 72
     8
 73
     4
 74
     0
 42
0.0000000001
 43
0.0000000001
 40
0.0
 40
0.0
 40
0.0
 40
0.0
 40
1.0
 40
1.0
 40
1.0
 40
1.0
 10
-8.0251
 20
4.585
 30
0.0
 10
-8.2786
 20
4.5762
 30
0.0
 10
-8.5145
 20
4.4827
 30
0.0
 10
-8.7227
 20
4.3424
 30
0.0
  0
SPLINE
  5
56
330
1F
100
AcDbEntity
  8
Ilustrace
 62
   250
370
    30
100
AcDbSpline
210
0.0
220
0.0
230
1.0
 70
     8
 71
     3
 72
     8
 73
     4
 74
     0
 42
0.0000000001
 43
0.0000000001
 40
0.0
 40
0.0
 40
0.0
 40
0.0
 40
1.0
 40
1.0
 40
1.0
 40
1.0
 10
-8.9012
 20
3.4435
 30
0.0
 10
-8.9035
 20
3.5656
 30
0.0
 10
-8.9012
 20
3.6881
 30
0.0
 10
-8.9012
 20
3.8103
 30
0.0
  0
SPLINE
  5
57
330
1F
100
AcDbEntity
  8
Ilustrace
 62
   250
370
    30
100
AcDbSpline
210
0.0
220
0.0
230
1.0
 70
     8
 71
     3
 72
     8
 73
     4
 74
     0
 42
0.0000000001
 43
0.0000000001
 40
0.0
 40
0.0
 40
0.0
 40
0.0
 40
1.0
 40
1.0
 40
1.0
 40
1.0
 10
-9.2759
 20
3.1866
 30
0.0
 10
-9.3093
 20
3.6736
 30
0.0
 10
-9.0553
 20
4.1181
 30
0.0
 10
-8.6573
 20
4.3866
 30
0.0
  0
SPLINE
  5
58
330
1F
100
AcDbEntity
  8
Ilustrace
 62
   250
370
    30
100
AcDbSpline
210
0.0
220
0.0
230
1.0
 70
     8
 71
     3
 72
     8
 73
     4
 74
     0
 42
0.0000000001
 43
0.0000000001
 40
0.0
 40
0.0
 40
0.0
 40
0.0
 40
1.0
 40
1.0
 40
1.0
 40
1.0
 10
-7.9566
 20
4.3556
 30
0.0
 10
-8.0625
 20
4.2947
 30
0.0
 10
-8.1698
 20
4.2352
 30
0.0
 10
-8.2744
 20
4.1722
 30
0.0
  0
SPLINE
  5
59
330
1F
100
AcDbEntity
  8
Ilustrace
 62
   250
370
    30
100
AcDbSpline
210
0.0
220
0.0
230
1.0
 70
     8
 71
     3
 72
     8
 73
     4
 74
     0
 42
0.0000000001
 43
0.0000000001
 40
0.0
 40
0.0
 40
0.0
 40
0.0
 40
1.0
 40
1.0
 40
1.0
 40
1.0
 10
-8.9012
 20
3.8103
 30
0.0
 10
-8.7954
 20
3.8716
 30
0.0
 10
-8.6904
 20
3.9347
 30
0.0
 10
-8.5833
 20
3.9939
 30
0.0
  0
SPLINE
  5
5A
330
1F
100
AcDbEntity
  8
Ilustrace
 62
   250
370
    30
100
AcDbSpline
210
0.0
220
0.0
230
1.0
 70
     8
 71
     3
 72
     8
 73
     4
 74
     0
 42
0.0000000001
 43
0.0000000001
 40
0.0
 40
0.0
 40
0.0
 40
0.0
 40
1.0
 40
1.0
 40
1.0
 40
1.0
 10
-7.6698
 20
4.1902
 30
0.0
 10
-7.7629
 20
4.2484
 30
0.0
 10
-7.8624
 20
4.3013
 30
0.0
 10
-7.9566
 20
4.3556
 30
0.0
  0
SPLINE
  5
5B
330
1F
100
AcDbEntity
  8
Ilustrace
 62
   250
370
    30
100
AcDbSpline
210
0.0
220
0.0
230
1.0
 70
     8
 71
     3
 72
     8
 73
     4
 74
     0
 42
0.0000000001
 43
0.0000000001
 40
0.0
 40
0.0
 40
0.0
 40
0.0
 40
1.0
 40
1.0
 40
1.0
 40
1.0
 10
-9.2305
 20
2.9106
 30
0.0
 10
-9.1348
 20
2.5553
 30
0.0
 10
-8.8787
 20
2.2449
 30
0.0
 10
-8.5483
 20
2.0832
 30
0.0
  0
SPLINE
  5
5C
330
1F
100
AcDbEntity
  8
Ilustrace
 62
   250
370
    30
100
AcDbSpline
210
0.0
220
0.0
230
1.0
 70
     8
 71
     3
 72
     8
 73
     4
 74
     0
 42
0.0000000001
 43
0.0000000001
 40
0.0
 40
0.0
 40
0.0
 40
0.0
 40
1.0
 40
1.0
 40
1.0
 40
1.0
 10
-8.2866
 20
1.9847
 30
0.0
 10
-8.1984
 20
1.9613
 30
0.0
 10
-8.1075
 20
1.9481
 30
0.0
 10
-8.0164
 20
1.9448
 30
0.0
  0
SPLINE
  5
5D
330
1F
100
AcDbEntity
  8
Ilustrace
 62
   250
370
    30
100
AcDbSpline
210
0.0
220
0.0
230
1.0
 70
     8
 71
     3
 72
     8
 73
     4
 74
     0
 42
0.0000000001
 43
0.0000000001
 40
0.0
 40
0.0
 40
0.0
 40
0.0
 40
1.0
 40
1.0
 40
1.0
 40
1.0
 10
-7.5359
 20
2.4173
 30
0.0
 10
-7.4336
 20
2.4765
 30
0.0
 10
-7.3508
 20
2.5424
 30
0.0
 10
-7.2643
 20
2.6226
 30
0.0
  0
SPLINE
  5
5E
330
1F
100
AcDbEntity
  8
Ilustrace
 62
   250
370
    30
100
AcDbSpline
210
0.0
220
0.0
230
1.0
 70
     8
 71
     3
 72
     8
 73
     4
 74
     0
 42
0.0000000001
 43
0.0000000001
 40
0.0
 40
0.0
 40
0.0
 40
0.0
 40
1.0
 40
1.0
 40
1.0
 40
1.0
 10
-7.0541
 20
2.9867
 30
0.0
 10
-7.0278
 20
3.1017
 30
0.0
 10
-7.0122
 20
3.2064
 30
0.0
 10
-7.0122
 20
3.3245
 30
0.0
  0
SPLINE
  5
5F
330
1F
100
AcDbEntity
  8
Ilustrace
 62
   250
370
    30
100
AcDbSpline
210
0.0
220
0.0
230
1.0
 70
     8
 71
     3
 72
     8
 73
     4
 74
     0
 42
0.0000000001
 43
0.0000000001
 40
0.0
 40
0.0
 40
0.0
 40
0.0
 40
1.0
 40
1.0
 40
1.0
 40
1.0
 10
-7.4067
 20
4.4671
 30
0.0
 10
-7.0576
 20
4.2967
 30
0.0
 10
-6.7851
 20
3.9995
 30
0.0
 10
-6.6829
 20
3.6195
 30
0.0
  0
SPLINE
  5
60
330
1F
100
AcDbEntity
  8
Ilustrace
 62
   250
370
    30
100
AcDbSpline
210
0.0
220
0.0
230
1.0
 70
     8
 71
     3
 72
     8
 73
     4
 74
     0
 42
0.0000000001
 43
0.0000000001
 40
0.0
 40
0.0
 40
0.0
 40
0.0
 40
1.0
 40
1.0
 40
1.0
 40
1.0
 10
-6.7793
 20
2.6644
 30
0.0
 10
-6.6705
 20
2.8692
 30
0.0
 10
-6.6216
 20
3.1127
 30
0.0
 10
-6.6374
 20
3.3437
 30
0.0
  0
SPLINE
  5
61
330
1F
100
AcDbEntity
  8
Ilustrace
 62
   250
370
    30
100
AcDbSpline
210
0.0
220
0.0
230
1.0
 70
     8
 71
     3
 72
     8
 73
     4
 74
     0
 42
0.0000000001
 43
0.0000000001
 40
0.0
 40
0.0
 40
0.0
 40
0.0
 40
1.0
 40
1.0
 40
1.0
 40
1.0
 10
-7.33
 20
3.9939
 30
0.0
 10
-7.2229
 20
3.9347
 30
0.0
 10
-7.1179
 20
3.8716
 30
0.0
 10
-7.0122
 20
3.8103
 30
0.0
  0
SPLINE
  5
62
330
1F
100
AcDbEntity
  8
Ilustrace
 62
   250
370
    30
100
AcDbSpline
210
0.0
220
0.0
230
1.0
 70
     8
 71
     3
 72
     8
 73
     4
 74
     0
 42
0.0000000001
 43
0.0000000001
 40
0.0
 40
0.0
 40
0.0
 40
0.0
 40
1.0
 40
1.0
 40
1.0
 40
1.0
 10
-7.0541
 20
3.5434
 30
0.0
 10
-7.0279
 20
3.4288
 30
0.0
 10
-7.0084
 20
3.3235
 30
0.0
 10
-7.0122
 20
3.2056
 30
0.0
  0
SPLINE
  5
63
330
1F
100
AcDbEntity
  8
Ilustrace
 62
   250
370
    30
100
AcDbSpline
210
0.0
220
0.0
230
1.0
 70
     8
 71
     3
 72
     8
 73
     4
 74
     0
 42
0.0000000001
 43
0.0000000001
 40
0.0
 40
0.0
 40
0.0
 40
0.0
 40
1.0
 40
1.0
 40
1.0
 40
1.0
 10
-7.0122
 20
2.7198
 30
0.0
 10
-7.1179
 20
2.6587
 30
0.0
 10
-7.2229
 20
2.5955
 30
0.0
 10
-7.33
 20
2.5362
 30
0.0
  0
SPLINE
  5
64
330
1F
100
AcDbEntity
  8
Ilustrace
 62
   250
370
    30
100
AcDbSpline
210
0.0
220
0.0
230
1.0
 70
     8
 71
     3
 72
     8
 73
     4
 74
     0
 42
0.0000000001
 43
0.0000000001
 40
0.0
 40
0.0
 40
0.0
 40
0.0
 40
1.0
 40
1.0
 40
1.0
 40
1.0
 10
-7.1907
 20
2.1876
 30
0.0
 10
-7.3988
 20
2.0473
 30
0.0
 10
-7.6348
 20
1.954
 30
0.0
 10
-7.8882
 20
1.9451
 30
0.0
  0
SPLINE
  5
65
330
1F
100
AcDbEntity
  8
Ilustrace
 62
   250
370
    30
100
AcDbSpline
210
0.0
220
0.0
230
1.0
 70
     8
 71
     3
 72
     8
 73
     4
 74
     0
 42
0.0000000001
 43
0.0000000001
 40
0.0
 40
0.0
 40
0.0
 40
0.0
 40
1.0
 40
1.0
 40
1.0
 40
1.0
 10
-8.649
 20
2.6226
 30
0.0
 10
-8.5625
 20
2.5424
 30
0.0
 10
-8.4798
 20
2.4765
 30
0.0
 10
-8.3774
 20
2.4173
 30
0.0
  0
SPLINE
  5
66
330
1F
100
AcDbEntity
  8
Ilustrace
 62
   250
370
    30
100
AcDbSpline
210
0.0
220
0.0
230
1.0
 70
     8
 71
     3
 72
     8
 73
     4
 74
     0
 42
0.0000000001
 43
0.0000000001
 40
0.0
 40
0.0
 40
0.0
 40
0.0
 40
1.0
 40
1.0
 40
1.0
 40
1.0
 10
-7.6388
 20
2.358
 30
0.0
 10
-7.7435
 20
2.2948
 30
0.0
 10
-7.8508
 20
2.2356
 30
0.0
 10
-7.9566
 20
2.1744
 30
0.0
  0
SPLINE
  5
67
330
1F
100
AcDbEntity
  8
Ilustrace
 62
   250
370
    30
100
AcDbSpline
210
0.0
220
0.0
230
1.0
 70
     8
 71
     3
 72
     8
 73
     4
 74
     0
 42
0.0000000001
 43
0.0000000001
 40
0.0
 40
0.0
 40
0.0
 40
0.0
 40
1.0
 40
1.0
 40
1.0
 40
1.0
 10
-8.2317
 20
1.9717
 30
0.0
 10
-8.3539
 20
2.001
 30
0.0
 10
-8.4646
 20
2.0424
 30
0.0
 10
-8.5777
 20
2.0977
 30
0.0
  0
SPLINE
  5
68
330
1F
100
AcDbEntity
  8
Ilustrace
 62
   250
370
    30
100
AcDbSpline
210
0.0
220
0.0
230
1.0
 70
     8
 71
     3
 72
     8
 73
     4
 74
     0
 42
0.0000000001
 43
0.0000000001
 40
0.0
 40
0.0
 40
0.0
 40
0.0
 40
1.0
 40
1.0
 40
1.0
 40
1.0
 10
-8.9012
 20
2.7198
 30
0.0
 10
-8.7954
 20
2.6587
 30
0.0
 10
-8.6904
 20
2.5955
 30
0.0
 10
-8.5833
 20
2.5362
 30
0.0
  0
SPLINE
  5
69
330
1F
100
AcDbEntity
  8
Ilustrace
 62
   250
370
    30
100
AcDbSpline
210
0.0
220
0.0
230
1.0
 70
     8
 71
     3
 72
     8
 73
     4
 74
     0
 42
0.0000000001
 43
0.0000000001
 40
0.0
 40
0.0
 40
0.0
 40
0.0
 40
1.0
 40
1.0
 40
1.0
 40
1.0
 10
-7.9566
 20
2.1744
 30
0.0
 10
-8.0625
 20
2.2356
 30
0.0
 10
-8.1698
 20
2.2948
 30
0.0
 10
-8.2744
 20
2.358
 30
0.0
  0
SPLINE
  5
6A
330
1F
100
AcDbEntity
  8
Ilustrace
 62
   250
370
    30
100
AcDbSpline
210
0.0
220
0.0
230
1.0
 70
     8
 71
     3
 72
     8
 73
     4
 74
     0
 42
0.0000000001
 43
0.0000000001
 40
0.0
 40
0.0
 40
0.0
 40
0.0
 40
1.0
 40
1.0
 40
1.0
 40
1.0
 10
-9.2782
 20
3.2192
 30
0.0
 10
-9.2694
 20
3.0936
 30
0.0
 10
-9.2499
 20
2.9769
 30
0.0
 10
-9.2143
 20
2.8564
 30
0.0
  0
SPLINE
  5
6B
330
1F
100
AcDbEntity
  8
Ilustrace
 62
   250
370
    30
100
AcDbSpline
210
0.0
220
0.0
230
1.0
 70
     8
 71
     3
 72
     8
 73
     4
 74
     0
 42
0.0000000001
 43
0.0000000001
 40
0.0
 40
0.0
 40
0.0
 40
0.0
 40
1.0
 40
1.0
 40
1.0
 40
1.0
 10
-8.9012
 20
3.0868
 30
0.0
 10
-8.9035
 20
2.9645
 30
0.0
 10
-8.9012
 20
2.842
 30
0.0
 10
-8.9012
 20
2.7198
 30
0.0
  0
SPLINE
  5
6C
330
1F
100
AcDbEntity
  8
Ilustrace
 62
   250
370
    30
100
AcDbSpline
210
0.0
220
0.0
230
1.0
 70
     8
 71
     3
 72
     8
 73
     4
 74
     0
 42
0.0000000001
 43
0.0000000001
 40
0.0
 40
0.0
 40
0.0
 40
0.0
 40
1.0
 40
1.0
 40
1.0
 40
1.0
 10
-8.4804
 20
2.4768
 30
0.0
 10
-8.3781
 20
2.4177
 30
0.0
 10
-8.2797
 20
2.379
 30
0.0
 10
-8.1668
 20
2.3443
 30
0.0
  0
SPLINE
  5
6D
330
1F
100
AcDbEntity
  8
Ilustrace
 62
   250
370
    30
100
AcDbSpline
210
0.0
220
0.0
230
1.0
 70
     8
 71
     3
 72
     8
 73
     4
 74
     0
 42
0.0000000001
 43
0.0000000001
 40
0.0
 40
0.0
 40
0.0
 40
0.0
 40
1.0
 40
1.0
 40
1.0
 40
1.0
 10
-7.7465
 20
2.3443
 30
0.0
 10
-7.6338
 20
2.379
 30
0.0
 10
-7.5353
 20
2.4177
 30
0.0
 10
-7.4329
 20
2.4768
 30
0.0
  0
SPLINE
  5
6E
330
1F
100
AcDbEntity
  8
Ilustrace
 62
   250
370
    30
100
AcDbSpline
210
0.0
220
0.0
230
1.0
 70
     8
 71
     3
 72
     8
 73
     4
 74
     0
 42
0.0000000001
 43
0.0000000001
 40
0.0
 40
0.0
 40
0.0
 40
0.0
 40
1.0
 40
1.0
 40
1.0
 40
1.0
 10
-7.0122
 20
2.7198
 30
0.0
 10
-7.0122
 20
2.842
 30
0.0
 10
-7.0094
 20
2.9645
 30
0.0
 10
-7.0122
 20
3.0868
 30
0.0
  0
SPLINE
  5
6F
330
1F
100
AcDbEntity
  8
Ilustrace
 62
   250
370
    30
100
AcDbSpline
210
0.0
220
0.0
230
1.0
 70
     8
 71
     3
 72
     8
 73
     4
 74
     0
 42
0.0000000001
 43
0.0000000001
 40
0.0
 40
0.0
 40
0.0
 40
0.0
 40
1.0
 40
1.0
 40
1.0
 40
1.0
 10
-6.6351
 20
3.3109
 30
0.0
 10
-6.644
 20
3.4365
 30
0.0
 10
-6.6634
 20
3.5532
 30
0.0
 10
-6.699
 20
3.6737
 30
0.0
  0
SPLINE
  5
70
330
1F
100
AcDbEntity
  8
Ilustrace
 62
   250
370
    30
100
AcDbSpline
210
0.0
220
0.0
230
1.0
 70
     8
 71
     3
 72
     8
 73
     4
 74
     0
 42
0.0000000001
 43
0.0000000001
 40
0.0
 40
0.0
 40
0.0
 40
0.0
 40
1.0
 40
1.0
 40
1.0
 40
1.0
 10
-7.3358
 20
4.4325
 30
0.0
 10
-7.5028
 20
4.514
 30
0.0
 10
-7.6797
 20
4.5773
 30
0.0
 10
-7.8678
 20
4.5843
 30
0.0
  0
SPLINE
  5
71
330
1F
100
AcDbEntity
  8
Ilustrace
 62
   250
370
    30
100
AcDbSpline
210
0.0
220
0.0
230
1.0
 70
     8
 71
     3
 72
     8
 73
     4
 74
     0
 42
0.0000000001
 43
0.0000000001
 40
0.0
 40
0.0
 40
0.0
 40
0.0
 40
1.0
 40
1.0
 40
1.0
 40
1.0
 10
-8.649
 20
3.9075
 30
0.0
 10
-8.5
 20
4.0458
 30
0.0
 10
-8.3613
 20
4.1259
 30
0.0
 10
-8.1668
 20
4.1859
 30
0.0
  0
SPLINE
  5
72
330
1F
100
AcDbEntity
  8
Ilustrace
 62
   250
370
    30
100
AcDbSpline
210
0.0
220
0.0
230
1.0
 70
     8
 71
     3
 72
     8
 73
     4
 74
     0
 42
0.0000000001
 43
0.0000000001
 40
0.0
 40
0.0
 40
0.0
 40
0.0
 40
1.0
 40
1.0
 40
1.0
 40
1.0
 10
-7.0122
 20
3.4435
 30
0.0
 10
-7.0098
 20
3.5656
 30
0.0
 10
-7.0122
 20
3.6881
 30
0.0
 10
-7.0122
 20
3.8103
 30
0.0
  0
SPLINE
  5
73
330
1F
100
AcDbEntity
  8
Ilustrace
 62
   250
370
    30
100
AcDbSpline
210
0.0
220
0.0
230
1.0
 70
     8
 71
     3
 72
    12
 73
     8
 74
     0
 42
0.0000000001
 43
0.0000000001
 40
0.0
 40
0.0
 40
0.0
 40
0.0
 40
0.3333333333333333
 40
0.3333333333333333
 40
0.3333333333333333
 40
0.3333333333333333
 40
1.0
 40
1.0
 40
1.0
 40
1.0
 10
-7.7716
 20
4.5745
 30
0.0
 10
-7.7716
 20
4.5745
 30
0.0
 10
-7.9566
 20
4.5875
 30
0.0
 10
-7.9566
 20
4.5875
 30
0.0
 10
-7.9566
 20
4.5875
 30
0.0
 10
-7.9566
 20
4.5875
 30
0.0
 10
-8.0485
 20
4.5843
 30
0.0
 10
-8.0485
 20
4.5843
 30
0.0
  0
SPLINE
  5
74
330
1F
100
AcDbEntity
  8
Ilustrace
 62
   250
370
    30
100
AcDbSpline
210
0.0
220
0.0
230
1.0
 70
    24
 71
     3
 72
     8
 73
     4
 74
     0
 42
0.0000000001
 43
0.0000000001
 40
0.0
 40
0.0
 40
0.0
 40
0.0
 40
1.0
 40
1.0
 40
1.0
 40
1.0
 10
-7.6388
 20
4.1722
 30
0.0
 10
-7.6388
 20
4.1722
 30
0.0
 10
-7.7187
 20
4.2196
 30
0.0
 10
-7.7187
 20
4.2196
 30
0.0
  0
SPLINE
  5
75
330
1F
100
AcDbEntity
  8
Ilustrace
 62
   250
370
    30
100
AcDbSpline
210
0.0
220
0.0
230
1.0
 70
     8
 71
     3
 72
     8
 73
     4
 74
     0
 42
0.0000000001
 43
0.0000000001
 40
0.0
 40
0.0
 40
0.0
 40
0.0
 40
1.0
 40
1.0
 40
1.0
 40
1.0
 10
-6.7683
 20
2.6851
 30
0.0
 10
-6.8352
 20
2.5595
 30
0.0
 10
-6.9119
 20
2.4403
 30
0.0
 10
-7.0128
 20
2.3392
 30
0.0
  0
SPLINE
  5
76
330
1F
100
AcDbEntity
  8
Ilustrace
 62
   250
370
    30
100
AcDbSpline
210
0.0
220
0.0
230
1.0
 70
     8
 71
     3
 72
     8
 73
     4
 74
     0
 42
0.0000000001
 43
0.0000000001
 40
0.0
 40
0.0
 40
0.0
 40
0.0
 40
1.0
 40
1.0
 40
1.0
 40
1.0
 10
-7.2561
 20
2.1435
 30
0.0
 10
-7.1518
 20
2.2139
 30
0.0
 10
-7.0605
 20
2.2892
 30
0.0
 10
-6.974
 20
2.3803
 30
0.0
  0
SPLINE
  5
77
330
1F
100
AcDbEntity
  8
Ilustrace
 62
   250
370
    30
100
AcDbSpline
210
0.0
220
0.0
230
1.0
 70
     8
 71
     3
 72
    12
 73
     8
 74
     0
 42
0.0000000001
 43
0.0000000001
 40
0.0
 40
0.0
 40
0.0
 40
0.0
 40
0.3333333333333333
 40
0.3333333333333333
 40
0.3333333333333333
 40
0.3333333333333333
 40
1.0
 40
1.0
 40
1.0
 40
1.0
 10
-7.8648
 20
1.946
 30
0.0
 10
-7.8648
 20
1.946
 30
0.0
 10
-7.9566
 20
1.9427
 30
0.0
 10
-7.9566
 20
1.9427
 30
0.0
 10
-7.9566
 20
1.9427
 30
0.0
 10
-7.9566
 20
1.9427
 30
0.0
 10
-8.0496
 20
1.9461
 30
0.0
 10
-8.0496
 20
1.9461
 30
0.0
  0
SPLINE
  5
78
330
1F
100
AcDbEntity
  8
Ilustrace
 62
   250
370
    30
100
AcDbSpline
210
0.0
220
0.0
230
1.0
 70
     8
 71
     3
 72
     8
 73
     4
 74
     0
 42
0.0000000001
 43
0.0000000001
 40
0.0
 40
0.0
 40
0.0
 40
0.0
 40
1.0
 40
1.0
 40
1.0
 40
1.0
 10
-7.5359
 20
4.1127
 30
0.0
 10
-7.4336
 20
4.0537
 30
0.0
 10
-7.3508
 20
3.9878
 30
0.0
 10
-7.2643
 20
3.9075
 30
0.0
  0
SPLINE
  5
79
330
1F
100
AcDbEntity
  8
Ilustrace
 62
   250
370
    30
100
AcDbSpline
210
0.0
220
0.0
230
1.0
 70
     8
 71
     3
 72
     8
 73
     4
 74
     0
 42
0.0000000001
 43
0.0000000001
 40
0.0
 40
0.0
 40
0.0
 40
0.0
 40
1.0
 40
1.0
 40
1.0
 40
1.0
 10
-7.4329
 20
4.0532
 30
0.0
 10
-7.5333
 20
4.1155
 30
0.0
 10
-7.6342
 20
4.1513
 30
0.0
 10
-7.7465
 20
4.1859
 30
0.0
  0
SPLINE
  5
7A
330
1F
100
AcDbEntity
  8
Ilustrace
 62
   250
370
    30
100
AcDbSpline
210
0.0
220
0.0
230
1.0
 70
     8
 71
     3
 72
     8
 73
     4
 74
     0
 42
0.0000000001
 43
0.0000000001
 40
0.0
 40
0.0
 40
0.0
 40
0.0
 40
1.0
 40
1.0
 40
1.0
 40
1.0
 10
-8.8592
 20
3.5434
 30
0.0
 10
-8.9045
 20
3.3452
 30
0.0
 10
-8.9045
 20
3.185
 30
0.0
 10
-8.8592
 20
2.9867
 30
0.0
  0
SPLINE
  5
7B
330
1F
100
AcDbEntity
  8
Ilustrace
 62
   250
370
    30
100
AcDbSpline
210
0.0
220
0.0
230
1.0
 70
    24
 71
     3
 72
     8
 73
     4
 74
     0
 42
0.0000000001
 43
0.0000000001
 40
0.0
 40
0.0
 40
0.0
 40
0.0
 40
1.0
 40
1.0
 40
1.0
 40
1.0
 10
-9.1019
 20
2.604
 30
0.0
 10
-9.1019
 20
2.604
 30
0.0
 10
-9.2339
 20
2.9228
 30
0.0
 10
-9.2339
 20
2.9228
 30
0.0
  0
SPLINE
  5
7C
330
1F
100
AcDbEntity
  8
Ilustrace
 62
   250
370
    30
100
AcDbSpline
210
0.0
220
0.0
230
1.0
 70
     8
 71
     3
 72
    20
 73
    16
 74
     0
 42
0.0000000001
 43
0.0000000001
 40
0.0
 40
0.0
 40
0.0
 40
0.0
 40
0.2
 40
0.2
 40
0.2
 40
0.2
 40
0.4
 40
0.4
 40
0.4
 40
0.4
 40
0.6
 40
0.6
 40
0.6
 40
0.6
 40
1.0
 40
1.0
 40
1.0
 40
1.0
 10
-9.2339
 20
2.9228
 30
0.0
 10
-9.294
 20
3.1471
 30
0.0
 10
-9.294
 20
3.3832
 30
0.0
 10
-9.2339
 20
3.6073
 30
0.0
 10
-9.2339
 20
3.6073
 30
0.0
 10
-9.0124
 20
4.4339
 30
0.0
 10
-8.0365
 20
4.8381
 30
0.0
 10
-7.2955
 20
4.4103
 30
0.0
 10
-7.2955
 20
4.4103
 30
0.0
 10
-6.5545
 20
3.9824
 30
0.0
 10
-6.4165
 20
2.9351
 30
0.0
 10
-7.0217
 20
2.33
 30
0.0
 10
-7.0217
 20
2.33
 30
0.0
 10
-7.1858
 20
2.1659
 30
0.0
 10
-7.3903
 20
2.0478
 30
0.0
 10
-7.6145
 20
1.9878
 30
0.0
  0
SPLINE
  5
7D
330
1F
100
AcDbEntity
  8
Ilustrace
 62
   250
370
    30
100
AcDbSpline
210
0.0
220
0.0
230
1.0
 70
     8
 71
     3
 72
    12
 73
     8
 74
     0
 42
0.0000000001
 43
0.0000000001
 40
0.0
 40
0.0
 40
0.0
 40
0.0
 40
0.3333333333333333
 40
0.3333333333333333
 40
0.3333333333333333
 40
0.3333333333333333
 40
1.0
 40
1.0
 40
1.0
 40
1.0
 10
-7.6145
 20
1.9878
 30
0.0
 10
-7.6145
 20
1.9878
 30
0.0
 10
-7.9566
 20
1.9427
 30
0.0
 10
-7.9566
 20
1.9427
 30
0.0
 10
-7.9566
 20
1.9427
 30
0.0
 10
-7.9566
 20
1.9427
 30
0.0
 10
-8.299
 20
1.9878
 30
0.0
 10
-8.299
 20
1.9878
 30
0.0
  0
SPLINE
  5
7E
330
1F
100
AcDbEntity
  8
Ilustrace
 62
   250
370
    30
100
AcDbSpline
210
0.0
220
0.0
230
1.0
 70
     8
 71
     3
 72
     8
 73
     4
 74
     0
 42
0.0000000001
 43
0.0000000001
 40
0.0
 40
0.0
 40
0.0
 40
0.0
 40
1.0
 40
1.0
 40
1.0
 40
1.0
 10
-8.299
 20
1.9878
 30
0.0
 10
-8.523
 20
2.0478
 30
0.0
 10
-8.7275
 20
2.1659
 30
0.0
 10
-8.8917
 20
2.33
 30
0.0
  0
SPLINE
  5
7F
330
1F
100
AcDbEntity
  8
Ilustrace
 62
   250
370
    30
100
AcDbSpline
210
0.0
220
0.0
230
1.0
 70
    24
 71
     3
 72
     8
 73
     4
 74
     0
 42
0.0000000001
 43
0.0000000001
 40
0.0
 40
0.0
 40
0.0
 40
0.0
 40
1.0
 40
1.0
 40
1.0
 40
1.0
 10
-8.8917
 20
2.33
 30
0.0
 10
-8.8917
 20
2.33
 30
0.0
 10
-9.1019
 20
2.604
 30
0.0
 10
-9.1019
 20
2.604
 30
0.0
  0
SPLINE
  5
80
330
1F
100
AcDbEntity
  8
Ilustrace
 62
   250
370
    30
100
AcDbSpline
210
0.0
220
0.0
230
1.0
 70
    24
 71
     3
 72
     8
 73
     4
 74
     0
 42
0.0000000001
 43
0.0000000001
 40
0.0
 40
0.0
 40
0.0
 40
0.0
 40
1.0
 40
1.0
 40
1.0
 40
1.0
 10
-7.7465
 20
2.3443
 30
0.0
 10
-7.7465
 20
2.3443
 30
0.0
 10
-7.8861
 20
2.3232
 30
0.0
 10
-7.8861
 20
2.3232
 30
0.0
  0
SPLINE
  5
81
330
1F
100
AcDbEntity
  8
Ilustrace
 62
   250
370
    30
100
AcDbSpline
210
0.0
220
0.0
230
1.0
 70
     8
 71
     3
 72
     8
 73
     4
 74
     0
 42
0.0000000001
 43
0.0000000001
 40
0.0
 40
0.0
 40
0.0
 40
0.0
 40
1.0
 40
1.0
 40
1.0
 40
1.0
 10
-7.8861
 20
2.3232
 30
0.0
 10
-8.0743
 20
2.3232
 30
0.0
 10
-7.9808
 20
2.3161
 30
0.0
 10
-8.1668
 20
2.3443
 30
0.0
  0
SPLINE
  5
82
330
1F
100
AcDbEntity
  8
Ilustrace
 62
   250
370
    30
100
AcDbSpline
210
0.0
220
0.0
230
1.0
 70
     8
 71
     3
 72
     8
 73
     4
 74
     0
 42
0.0000000001
 43
0.0000000001
 40
0.0
 40
0.0
 40
0.0
 40
0.0
 40
1.0
 40
1.0
 40
1.0
 40
1.0
 10
-8.8592
 20
2.9867
 30
0.0
 10
-8.8038
 20
2.8455
 30
0.0
 10
-8.7435
 20
2.7413
 30
0.0
 10
-8.649
 20
2.6226
 30
0.0
  0
SPLINE
  5
83
330
1F
100
AcDbEntity
  8
Ilustrace
 62
   250
370
    30
100
AcDbSpline
210
0.0
220
0.0
230
1.0
 70
     8
 71
     3
 72
     8
 73
     4
 74
     0
 42
0.0000000001
 43
0.0000000001
 40
0.0
 40
0.0
 40
0.0
 40
0.0
 40
1.0
 40
1.0
 40
1.0
 40
1.0
 10
-7.2643
 20
2.6226
 30
0.0
 10
-7.1698
 20
2.7413
 30
0.0
 10
-7.1095
 20
2.8455
 30
0.0
 10
-7.0541
 20
2.9867
 30
0.0
  0
SPLINE
  5
84
330
1F
100
AcDbEntity
  8
Ilustrace
 62
   250
370
    30
100
AcDbSpline
210
0.0
220
0.0
230
1.0
 70
     8
 71
     3
 72
     8
 73
     4
 74
     0
 42
0.0000000001
 43
0.0000000001
 40
0.0
 40
0.0
 40
0.0
 40
0.0
 40
1.0
 40
1.0
 40
1.0
 40
1.0
 10
-8.649
 20
3.9075
 30
0.0
 10
-8.7435
 20
3.7889
 30
0.0
 10
-8.8038
 20
3.6845
 30
0.0
 10
-8.8592
 20
3.5434
 30
0.0
  0
SPLINE
  5
85
330
1F
100
AcDbEntity
  8
Ilustrace
 62
   250
370
    30
100
AcDbSpline
210
0.0
220
0.0
230
1.0
 70
     8
 71
     3
 72
     8
 73
     4
 74
     0
 42
0.0000000001
 43
0.0000000001
 40
0.0
 40
0.0
 40
0.0
 40
0.0
 40
1.0
 40
1.0
 40
1.0
 40
1.0
 10
-8.1668
 20
4.1859
 30
0.0
 10
-8.017
 20
4.2084
 30
0.0
 10
-7.8965
 20
4.2084
 30
0.0
 10
-7.7465
 20
4.1859
 30
0.0
  0
SPLINE
  5
86
330
1F
100
AcDbEntity
  8
Ilustrace
 62
   250
370
    30
100
AcDbSpline
210
0.0
220
0.0
230
1.0
 70
     8
 71
     3
 72
     8
 73
     4
 74
     0
 42
0.0000000001
 43
0.0000000001
 40
0.0
 40
0.0
 40
0.0
 40
0.0
 40
1.0
 40
1.0
 40
1.0
 40
1.0
 10
-7.2643
 20
3.9075
 30
0.0
 10
-7.1698
 20
3.7889
 30
0.0
 10
-7.1095
 20
3.6845
 30
0.0
 10
-7.0541
 20
3.5434
 30
0.0
  0
SPLINE
  5
87
330
1F
100
AcDbEntity
  8
Ilustrace
 62
   250
370
    30
100
AcDbSpline
210
0.0
220
0.0
230
1.0
 70
    24
 71
     3
 72
     8
 73
     4
 74
     0
 42
0.0000000001
 43
0.0000000001
 40
0.0
 40
0.0
 40
0.0
 40
0.0
 40
1.0
 40
1.0
 40
1.0
 40
1.0
 10
-0.9981
 20
4.4855
 30
0.0
 10
-0.9981
 20
4.4855
 30
0.0
 10
-1.0499
 20
4.4745
 30
0.0
 10
-1.0499
 20
4.4745
 30
0.0
  0
SPLINE
  5
88
330
1F
100
AcDbEntity
  8
Ilustrace
 62
   250
370
    30
100
AcDbSpline
210
0.0
220
0.0
230
1.0
 70
    24
 71
     3
 72
     8
 73
     4
 74
     0
 42
0.0000000001
 43
0.0000000001
 40
0.0
 40
0.0
 40
0.0
 40
0.0
 40
1.0
 40
1.0
 40
1.0
 40
1.0
 10
0.7964
 20
3.4032
 30
0.0
 10
0.7964
 20
3.4032
 30
0.0
 10
0.8037
 20
3.265
 30
0.0
 10
0.8037
 20
3.265
 30
0.0
  0
SPLINE
  5
89
330
1F
100
AcDbEntity
  8
Ilustrace
 62
   250
370
    30
100
AcDbSpline
210
0.0
220
0.0
230
1.0
 70
    24
 71
     3
 72
     8
 73
     4
 74
     0
 42
0.0000000001
 43
0.0000000001
 40
0.0
 40
0.0
 40
0.0
 40
0.0
 40
1.0
 40
1.0
 40
1.0
 40
1.0
 10
-1.841
 20
3.265
 30
0.0
 10
-1.841
 20
3.265
 30
0.0
 10
-1.8337
 20
3.1269
 30
0.0
 10
-1.8337
 20
3.1269
 30
0.0
  0
SPLINE
  5
8A
330
1F
100
AcDbEntity
  8
Ilustrace
 62
   250
370
    30
100
AcDbSpline
210
0.0
220
0.0
230
1.0
 70
    24
 71
     3
 72
     8
 73
     4
 74
     0
 42
0.0000000001
 43
0.0000000001
 40
0.0
 40
0.0
 40
0.0
 40
0.0
 40
1.0
 40
1.0
 40
1.0
 40
1.0
 10
-0.5186
 20
1.9427
 30
0.0
 10
-0.5186
 20
1.9427
 30
0.0
 10
-0.7036
 20
1.9557
 30
0.0
 10
-0.7036
 20
1.9557
 30
0.0
  0
SPLINE
  5
8B
330
1F
100
AcDbEntity
  8
Ilustrace
 62
   250
370
    30
100
AcDbSpline
210
0.0
220
0.0
230
1.0
 70
     8
 71
     3
 72
     8
 73
     4
 74
     0
 42
0.0000000001
 43
0.0000000001
 40
0.0
 40
0.0
 40
0.0
 40
0.0
 40
1.0
 40
1.0
 40
1.0
 40
1.0
 10
-0.3085
 20
4.1859
 30
0.0
 10
-0.4945
 20
4.214
 30
0.0
 10
-0.401
 20
4.207
 30
0.0
 10
-0.5892
 20
4.207
 30
0.0
  0
SPLINE
  5
8C
330
1F
100
AcDbEntity
  8
Ilustrace
 62
   250
370
    30
100
AcDbSpline
210
0.0
220
0.0
230
1.0
 70
    24
 71
     3
 72
     8
 73
     4
 74
     0
 42
0.0000000001
 43
0.0000000001
 40
0.0
 40
0.0
 40
0.0
 40
0.0
 40
1.0
 40
1.0
 40
1.0
 40
1.0
 10
-0.5892
 20
4.207
 30
0.0
 10
-0.5892
 20
4.207
 30
0.0
 10
-0.7288
 20
4.1859
 30
0.0
 10
-0.7288
 20
4.1859
 30
0.0
  0
SPLINE
  5
8D
330
1F
100
AcDbEntity
  8
Ilustrace
 62
   250
370
    30
100
AcDbSpline
210
0.0
220
0.0
230
1.0
 70
     8
 71
     3
 72
     8
 73
     4
 74
     0
 42
0.0000000001
 43
0.0000000001
 40
0.0
 40
0.0
 40
0.0
 40
0.0
 40
1.0
 40
1.0
 40
1.0
 40
1.0
 10
-1.4212
 20
3.5434
 30
0.0
 10
-1.3657
 20
3.6845
 30
0.0
 10
-1.3055
 20
3.7889
 30
0.0
 10
-1.211
 20
3.9075
 30
0.0
  0
SPLINE
  5
8E
330
1F
100
AcDbEntity
  8
Ilustrace
 62
   250
370
    30
100
AcDbSpline
210
0.0
220
0.0
230
1.0
 70
     8
 71
     3
 72
     8
 73
     4
 74
     0
 42
0.0000000001
 43
0.0000000001
 40
0.0
 40
0.0
 40
0.0
 40
0.0
 40
1.0
 40
1.0
 40
1.0
 40
1.0
 10
0.1738
 20
3.9075
 30
0.0
 10
0.2684
 20
3.7889
 30
0.0
 10
0.3285
 20
3.6845
 30
0.0
 10
0.384
 20
3.5434
 30
0.0
  0
SPLINE
  5
8F
330
1F
100
AcDbEntity
  8
Ilustrace
 62
   250
370
    30
100
AcDbSpline
210
0.0
220
0.0
230
1.0
 70
     8
 71
     3
 72
     8
 73
     4
 74
     0
 42
0.0000000001
 43
0.0000000001
 40
0.0
 40
0.0
 40
0.0
 40
0.0
 40
1.0
 40
1.0
 40
1.0
 40
1.0
 10
-0.3085
 20
4.1859
 30
0.0
 10
-0.1957
 20
4.1511
 30
0.0
 10
-0.0972
 20
4.1125
 30
0.0
 10
0.0051
 20
4.0532
 30
0.0
  0
SPLINE
  5
90
330
1F
100
AcDbEntity
  8
Ilustrace
 62
   250
370
    30
100
AcDbSpline
210
0.0
220
0.0
230
1.0
 70
     8
 71
     3
 72
     8
 73
     4
 74
     0
 42
0.0000000001
 43
0.0000000001
 40
0.0
 40
0.0
 40
0.0
 40
0.0
 40
1.0
 40
1.0
 40
1.0
 40
1.0
 10
0.0314
 20
4.4671
 30
0.0
 10
0.3804
 20
4.2967
 30
0.0
 10
0.6529
 20
3.9999
 30
0.0
 10
0.7552
 20
3.6195
 30
0.0
  0
SPLINE
  5
91
330
1F
100
AcDbEntity
  8
Ilustrace
 62
   250
370
    30
100
AcDbSpline
210
0.0
220
0.0
230
1.0
 70
     8
 71
     3
 72
     8
 73
     4
 74
     0
 42
0.0000000001
 43
0.0000000001
 40
0.0
 40
0.0
 40
0.0
 40
0.0
 40
1.0
 40
1.0
 40
1.0
 40
1.0
 10
0.6587
 20
2.6644
 30
0.0
 10
0.7676
 20
2.8691
 30
0.0
 10
0.8165
 20
3.1129
 30
0.0
 10
0.8007
 20
3.3437
 30
0.0
  0
SPLINE
  5
92
330
1F
100
AcDbEntity
  8
Ilustrace
 62
   250
370
    30
100
AcDbSpline
210
0.0
220
0.0
230
1.0
 70
     8
 71
     3
 72
     8
 73
     4
 74
     0
 42
0.0000000001
 43
0.0000000001
 40
0.0
 40
0.0
 40
0.0
 40
0.0
 40
1.0
 40
1.0
 40
1.0
 40
1.0
 10
0.1082
 20
3.9939
 30
0.0
 10
0.2152
 20
3.9347
 30
0.0
 10
0.3201
 20
3.8716
 30
0.0
 10
0.426
 20
3.8103
 30
0.0
  0
SPLINE
  5
93
330
1F
100
AcDbEntity
  8
Ilustrace
 62
   250
370
    30
100
AcDbSpline
210
0.0
220
0.0
230
1.0
 70
     8
 71
     3
 72
     8
 73
     4
 74
     0
 42
0.0000000001
 43
0.0000000001
 40
0.0
 40
0.0
 40
0.0
 40
0.0
 40
1.0
 40
1.0
 40
1.0
 40
1.0
 10
0.384
 20
2.9867
 30
0.0
 10
0.4102
 20
3.1017
 30
0.0
 10
0.426
 20
3.2064
 30
0.0
 10
0.426
 20
3.3245
 30
0.0
  0
SPLINE
  5
94
330
1F
100
AcDbEntity
  8
Ilustrace
 62
   250
370
    30
100
AcDbSpline
210
0.0
220
0.0
230
1.0
 70
     8
 71
     3
 72
     8
 73
     4
 74
     0
 42
0.0000000001
 43
0.0000000001
 40
0.0
 40
0.0
 40
0.0
 40
0.0
 40
1.0
 40
1.0
 40
1.0
 40
1.0
 10
0.384
 20
3.5434
 30
0.0
 10
0.4102
 20
3.4288
 30
0.0
 10
0.4297
 20
3.3235
 30
0.0
 10
0.426
 20
3.2056
 30
0.0
  0
SPLINE
  5
95
330
1F
100
AcDbEntity
  8
Ilustrace
 62
   250
370
    30
100
AcDbSpline
210
0.0
220
0.0
230
1.0
 70
     8
 71
     3
 72
     8
 73
     4
 74
     0
 42
0.0000000001
 43
0.0000000001
 40
0.0
 40
0.0
 40
0.0
 40
0.0
 40
1.0
 40
1.0
 40
1.0
 40
1.0
 10
0.426
 20
2.7198
 30
0.0
 10
0.3201
 20
2.6587
 30
0.0
 10
0.2152
 20
2.5955
 30
0.0
 10
0.1082
 20
2.5362
 30
0.0
  0
SPLINE
  5
96
330
1F
100
AcDbEntity
  8
Ilustrace
 62
   250
370
    30
100
AcDbSpline
210
0.0
220
0.0
230
1.0
 70
     8
 71
     3
 72
     8
 73
     4
 74
     0
 42
0.0000000001
 43
0.0000000001
 40
0.0
 40
0.0
 40
0.0
 40
0.0
 40
1.0
 40
1.0
 40
1.0
 40
1.0
 10
-0.4501
 20
1.9451
 30
0.0
 10
-0.1968
 20
1.954
 30
0.0
 10
0.0393
 20
2.0473
 30
0.0
 10
0.2474
 20
2.1876
 30
0.0
  0
SPLINE
  5
97
330
1F
100
AcDbEntity
  8
Ilustrace
 62
   250
370
    30
100
AcDbSpline
210
0.0
220
0.0
230
1.0
 70
     8
 71
     3
 72
     8
 73
     4
 74
     0
 42
0.0000000001
 43
0.0000000001
 40
0.0
 40
0.0
 40
0.0
 40
0.0
 40
1.0
 40
1.0
 40
1.0
 40
1.0
 10
0.426
 20
3.0868
 30
0.0
 10
0.4282
 20
2.9645
 30
0.0
 10
0.426
 20
2.842
 30
0.0
 10
0.426
 20
2.7198
 30
0.0
  0
SPLINE
  5
98
330
1F
100
AcDbEntity
  8
Ilustrace
 62
   250
370
    30
100
AcDbSpline
210
0.0
220
0.0
230
1.0
 70
     8
 71
     3
 72
     8
 73
     4
 74
     0
 42
0.0000000001
 43
0.0000000001
 40
0.0
 40
0.0
 40
0.0
 40
0.0
 40
1.0
 40
1.0
 40
1.0
 40
1.0
 10
0.6697
 20
2.6851
 30
0.0
 10
0.5488
 20
2.4578
 30
0.0
 10
0.3934
 20
2.2862
 30
0.0
 10
0.1819
 20
2.1435
 30
0.0
  0
SPLINE
  5
99
330
1F
100
AcDbEntity
  8
Ilustrace
 62
   250
370
    30
100
AcDbSpline
210
0.0
220
0.0
230
1.0
 70
     8
 71
     3
 72
     8
 73
     4
 74
     0
 42
0.0000000001
 43
0.0000000001
 40
0.0
 40
0.0
 40
0.0
 40
0.0
 40
1.0
 40
1.0
 40
1.0
 40
1.0
 10
-1.7923
 20
2.9106
 30
0.0
 10
-1.6465
 20
2.3686
 30
0.0
 10
-1.1397
 20
1.9654
 30
0.0
 10
-0.5784
 20
1.9448
 30
0.0
  0
SPLINE
  5
9A
330
1F
100
AcDbEntity
  8
Ilustrace
 62
   250
370
    30
100
AcDbSpline
210
0.0
220
0.0
230
1.0
 70
     8
 71
     3
 72
     8
 73
     4
 74
     0
 42
0.0000000001
 43
0.0000000001
 40
0.0
 40
0.0
 40
0.0
 40
0.0
 40
1.0
 40
1.0
 40
1.0
 40
1.0
 10
0.1738
 20
2.6226
 30
0.0
 10
0.0872
 20
2.5424
 30
0.0
 10
0.0045
 20
2.4765
 30
0.0
 10
-0.0978
 20
2.4173
 30
0.0
  0
SPLINE
  5
9B
330
1F
100
AcDbEntity
  8
Ilustrace
 62
   250
370
    30
100
AcDbSpline
210
0.0
220
0.0
230
1.0
 70
     8
 71
     3
 72
     8
 73
     4
 74
     0
 42
0.0000000001
 43
0.0000000001
 40
0.0
 40
0.0
 40
0.0
 40
0.0
 40
1.0
 40
1.0
 40
1.0
 40
1.0
 10
-0.5186
 20
2.1744
 30
0.0
 10
-0.6244
 20
2.2356
 30
0.0
 10
-0.7317
 20
2.2948
 30
0.0
 10
-0.8363
 20
2.358
 30
0.0
  0
SPLINE
  5
9C
330
1F
100
AcDbEntity
  8
Ilustrace
 62
   250
370
    30
100
AcDbSpline
210
0.0
220
0.0
230
1.0
 70
     8
 71
     3
 72
     8
 73
     4
 74
     0
 42
0.0000000001
 43
0.0000000001
 40
0.0
 40
0.0
 40
0.0
 40
0.0
 40
1.0
 40
1.0
 40
1.0
 40
1.0
 10
-1.1453
 20
2.5362
 30
0.0
 10
-1.2524
 20
2.5955
 30
0.0
 10
-1.3573
 20
2.6587
 30
0.0
 10
-1.4631
 20
2.7198
 30
0.0
  0
SPLINE
  5
9D
330
1F
100
AcDbEntity
  8
Ilustrace
 62
   250
370
    30
100
AcDbSpline
210
0.0
220
0.0
230
1.0
 70
     8
 71
     3
 72
     8
 73
     4
 74
     0
 42
0.0000000001
 43
0.0000000001
 40
0.0
 40
0.0
 40
0.0
 40
0.0
 40
1.0
 40
1.0
 40
1.0
 40
1.0
 10
-1.4631
 20
3.2056
 30
0.0
 10
-1.4631
 20
3.3238
 30
0.0
 10
-1.4475
 20
3.4284
 30
0.0
 10
-1.4212
 20
3.5434
 30
0.0
  0
SPLINE
  5
9E
330
1F
100
AcDbEntity
  8
Ilustrace
 62
   250
370
    30
100
AcDbSpline
210
0.0
220
0.0
230
1.0
 70
     8
 71
     3
 72
     8
 73
     4
 74
     0
 42
0.0000000001
 43
0.0000000001
 40
0.0
 40
0.0
 40
0.0
 40
0.0
 40
1.0
 40
1.0
 40
1.0
 40
1.0
 10
-1.838
 20
3.1866
 30
0.0
 10
-1.8631
 20
3.5536
 30
0.0
 10
-1.7224
 20
3.9305
 30
0.0
 10
-1.4624
 20
4.1909
 30
0.0
  0
SPLINE
  5
9F
330
1F
100
AcDbEntity
  8
Ilustrace
 62
   250
370
    30
100
AcDbSpline
210
0.0
220
0.0
230
1.0
 70
     8
 71
     3
 72
     8
 73
     4
 74
     0
 42
0.0000000001
 43
0.0000000001
 40
0.0
 40
0.0
 40
0.0
 40
0.0
 40
1.0
 40
1.0
 40
1.0
 40
1.0
 10
-0.587
 20
4.585
 30
0.0
 10
-0.8403
 20
4.5762
 30
0.0
 10
-1.0764
 20
4.4827
 30
0.0
 10
-1.2847
 20
4.3424
 30
0.0
  0
SPLINE
  5
A0
330
1F
100
AcDbEntity
  8
Ilustrace
 62
   250
370
    30
100
AcDbSpline
210
0.0
220
0.0
230
1.0
 70
     8
 71
     3
 72
     8
 73
     4
 74
     0
 42
0.0000000001
 43
0.0000000001
 40
0.0
 40
0.0
 40
0.0
 40
0.0
 40
1.0
 40
1.0
 40
1.0
 40
1.0
 10
-1.4631
 20
3.8103
 30
0.0
 10
-1.4631
 20
3.6881
 30
0.0
 10
-1.4654
 20
3.5656
 30
0.0
 10
-1.4631
 20
3.4435
 30
0.0
  0
SPLINE
  5
A1
330
1F
100
AcDbEntity
  8
Ilustrace
 62
   250
370
    30
100
AcDbSpline
210
0.0
220
0.0
230
1.0
 70
     8
 71
     3
 72
     8
 73
     4
 74
     0
 42
0.0000000001
 43
0.0000000001
 40
0.0
 40
0.0
 40
0.0
 40
0.0
 40
1.0
 40
1.0
 40
1.0
 40
1.0
 10
-1.8401
 20
3.2192
 30
0.0
 10
-1.8313
 20
3.0936
 30
0.0
 10
-1.8119
 20
2.9769
 30
0.0
 10
-1.7762
 20
2.8564
 30
0.0
  0
SPLINE
  5
A2
330
1F
100
AcDbEntity
  8
Ilustrace
 62
   250
370
    30
100
AcDbSpline
210
0.0
220
0.0
230
1.0
 70
     8
 71
     3
 72
     8
 73
     4
 74
     0
 42
0.0000000001
 43
0.0000000001
 40
0.0
 40
0.0
 40
0.0
 40
0.0
 40
1.0
 40
1.0
 40
1.0
 40
1.0
 10
-1.4631
 20
3.0868
 30
0.0
 10
-1.4654
 20
2.9645
 30
0.0
 10
-1.4631
 20
2.842
 30
0.0
 10
-1.4631
 20
2.7198
 30
0.0
  0
SPLINE
  5
A3
330
1F
100
AcDbEntity
  8
Ilustrace
 62
   250
370
    30
100
AcDbSpline
210
0.0
220
0.0
230
1.0
 70
     8
 71
     3
 72
     8
 73
     4
 74
     0
 42
0.0000000001
 43
0.0000000001
 40
0.0
 40
0.0
 40
0.0
 40
0.0
 40
1.0
 40
1.0
 40
1.0
 40
1.0
 10
-1.211
 20
2.6226
 30
0.0
 10
-1.1245
 20
2.5424
 30
0.0
 10
-1.0418
 20
2.4765
 30
0.0
 10
-0.9394
 20
2.4173
 30
0.0
  0
SPLINE
  5
A4
330
1F
100
AcDbEntity
  8
Ilustrace
 62
   250
370
    30
100
AcDbSpline
210
0.0
220
0.0
230
1.0
 70
     8
 71
     3
 72
     8
 73
     4
 74
     0
 42
0.0000000001
 43
0.0000000001
 40
0.0
 40
0.0
 40
0.0
 40
0.0
 40
1.0
 40
1.0
 40
1.0
 40
1.0
 10
-0.2008
 20
2.358
 30
0.0
 10
-0.3055
 20
2.2948
 30
0.0
 10
-0.4128
 20
2.2356
 30
0.0
 10
-0.5186
 20
2.1744
 30
0.0
  0
SPLINE
  5
A5
330
1F
100
AcDbEntity
  8
Ilustrace
 62
   250
370
    30
100
AcDbSpline
210
0.0
220
0.0
230
1.0
 70
     8
 71
     3
 72
     8
 73
     4
 74
     0
 42
0.0000000001
 43
0.0000000001
 40
0.0
 40
0.0
 40
0.0
 40
0.0
 40
1.0
 40
1.0
 40
1.0
 40
1.0
 10
-1.0423
 20
2.4768
 30
0.0
 10
-0.9421
 20
2.4146
 30
0.0
 10
-0.8411
 20
2.379
 30
0.0
 10
-0.7288
 20
2.3443
 30
0.0
  0
SPLINE
  5
A6
330
1F
100
AcDbEntity
  8
Ilustrace
 62
   250
370
    30
100
AcDbSpline
210
0.0
220
0.0
230
1.0
 70
     8
 71
     3
 72
     8
 73
     4
 74
     0
 42
0.0000000001
 43
0.0000000001
 40
0.0
 40
0.0
 40
0.0
 40
0.0
 40
1.0
 40
1.0
 40
1.0
 40
1.0
 10
-0.3085
 20
2.3443
 30
0.0
 10
-0.1957
 20
2.379
 30
0.0
 10
-0.0972
 20
2.4177
 30
0.0
 10
0.0051
 20
2.4768
 30
0.0
  0
SPLINE
  5
A7
330
1F
100
AcDbEntity
  8
Ilustrace
 62
   250
370
    30
100
AcDbSpline
210
0.0
220
0.0
230
1.0
 70
     8
 71
     3
 72
     8
 73
     4
 74
     0
 42
0.0000000001
 43
0.0000000001
 40
0.0
 40
0.0
 40
0.0
 40
0.0
 40
1.0
 40
1.0
 40
1.0
 40
1.0
 10
0.739
 20
3.6737
 30
0.0
 10
0.7747
 20
3.5532
 30
0.0
 10
0.7941
 20
3.4365
 30
0.0
 10
0.8029
 20
3.3109
 30
0.0
  0
SPLINE
  5
A8
330
1F
100
AcDbEntity
  8
Ilustrace
 62
   250
370
    30
100
AcDbSpline
210
0.0
220
0.0
230
1.0
 70
     8
 71
     3
 72
     8
 73
     4
 74
     0
 42
0.0000000001
 43
0.0000000001
 40
0.0
 40
0.0
 40
0.0
 40
0.0
 40
1.0
 40
1.0
 40
1.0
 40
1.0
 10
-0.6104
 20
4.5843
 30
0.0
 10
-0.3531
 20
4.5932
 30
0.0
 10
-0.1269
 20
4.5444
 30
0.0
 10
0.1025
 20
4.4325
 30
0.0
  0
SPLINE
  5
A9
330
1F
100
AcDbEntity
  8
Ilustrace
 62
   250
370
    30
100
AcDbSpline
210
0.0
220
0.0
230
1.0
 70
     8
 71
     3
 72
     8
 73
     4
 74
     0
 42
0.0000000001
 43
0.0000000001
 40
0.0
 40
0.0
 40
0.0
 40
0.0
 40
1.0
 40
1.0
 40
1.0
 40
1.0
 10
0.1738
 20
3.9075
 30
0.0
 10
0.0876
 20
3.9875
 30
0.0
 10
0.0062
 20
4.057
 30
0.0
 10
-0.0978
 20
4.1127
 30
0.0
  0
SPLINE
  5
AA
330
1F
100
AcDbEntity
  8
Ilustrace
 62
   250
370
    30
100
AcDbSpline
210
0.0
220
0.0
230
1.0
 70
     8
 71
     3
 72
     8
 73
     4
 74
     0
 42
0.0000000001
 43
0.0000000001
 40
0.0
 40
0.0
 40
0.0
 40
0.0
 40
1.0
 40
1.0
 40
1.0
 40
1.0
 10
-0.5186
 20
4.3556
 30
0.0
 10
-0.6244
 20
4.2947
 30
0.0
 10
-0.7317
 20
4.2354
 30
0.0
 10
-0.8363
 20
4.1722
 30
0.0
  0
SPLINE
  5
AB
330
1F
100
AcDbEntity
  8
Ilustrace
 62
   250
370
    30
100
AcDbSpline
210
0.0
220
0.0
230
1.0
 70
     8
 71
     3
 72
     8
 73
     4
 74
     0
 42
0.0000000001
 43
0.0000000001
 40
0.0
 40
0.0
 40
0.0
 40
0.0
 40
1.0
 40
1.0
 40
1.0
 40
1.0
 10
-1.2192
 20
4.3866
 30
0.0
 10
-1.3235
 20
4.3161
 30
0.0
 10
-1.4148
 20
4.241
 30
0.0
 10
-1.5013
 20
4.15
 30
0.0
  0
SPLINE
  5
AC
330
1F
100
AcDbEntity
  8
Ilustrace
 62
   250
370
    30
100
AcDbSpline
210
0.0
220
0.0
230
1.0
 70
     8
 71
     3
 72
     8
 73
     4
 74
     0
 42
0.0000000001
 43
0.0000000001
 40
0.0
 40
0.0
 40
0.0
 40
0.0
 40
1.0
 40
1.0
 40
1.0
 40
1.0
 10
-1.4212
 20
2.9867
 30
0.0
 10
-1.4475
 20
3.1017
 30
0.0
 10
-1.4631
 20
3.2064
 30
0.0
 10
-1.4631
 20
3.3245
 30
0.0
  0
SPLINE
  5
AD
330
1F
100
AcDbEntity
  8
Ilustrace
 62
   250
370
    30
100
AcDbSpline
210
0.0
220
0.0
230
1.0
 70
     8
 71
     3
 72
     8
 73
     4
 74
     0
 42
0.0000000001
 43
0.0000000001
 40
0.0
 40
0.0
 40
0.0
 40
0.0
 40
1.0
 40
1.0
 40
1.0
 40
1.0
 10
-1.4631
 20
3.8103
 30
0.0
 10
-1.3573
 20
3.8716
 30
0.0
 10
-1.2524
 20
3.9347
 30
0.0
 10
-1.1453
 20
3.9939
 30
0.0
  0
SPLINE
  5
AE
330
1F
100
AcDbEntity
  8
Ilustrace
 62
   250
370
    30
100
AcDbSpline
210
0.0
220
0.0
230
1.0
 70
     8
 71
     3
 72
     8
 73
     4
 74
     0
 42
0.0000000001
 43
0.0000000001
 40
0.0
 40
0.0
 40
0.0
 40
0.0
 40
1.0
 40
1.0
 40
1.0
 40
1.0
 10
-0.5186
 20
4.3556
 30
0.0
 10
-0.4243
 20
4.3013
 30
0.0
 10
-0.3247
 20
4.2484
 30
0.0
 10
-0.2318
 20
4.1902
 30
0.0
  0
SPLINE
  5
AF
330
1F
100
AcDbEntity
  8
Ilustrace
 62
   250
370
    30
100
AcDbSpline
210
0.0
220
0.0
230
1.0
 70
     8
 71
     3
 72
     8
 73
     4
 74
     0
 42
0.0000000001
 43
0.0000000001
 40
0.0
 40
0.0
 40
0.0
 40
0.0
 40
1.0
 40
1.0
 40
1.0
 40
1.0
 10
0.426
 20
3.4435
 30
0.0
 10
0.4282
 20
3.5656
 30
0.0
 10
0.426
 20
3.6881
 30
0.0
 10
0.426
 20
3.8103
 30
0.0
  0
SPLINE
  5
B0
330
1F
100
AcDbEntity
  8
Ilustrace
 62
   250
370
    30
100
AcDbSpline
210
0.0
220
0.0
230
1.0
 70
     8
 71
     3
 72
     8
 73
     4
 74
     0
 42
0.0000000001
 43
0.0000000001
 40
0.0
 40
0.0
 40
0.0
 40
0.0
 40
1.0
 40
1.0
 40
1.0
 40
1.0
 10
-1.0423
 20
4.0532
 30
0.0
 10
-0.9401
 20
4.1125
 30
0.0
 10
-0.8415
 20
4.1511
 30
0.0
 10
-0.7288
 20
4.1859
 30
0.0
  0
SPLINE
  5
B1
330
1F
100
AcDbEntity
  8
Ilustrace
 62
   250
370
    30
100
AcDbSpline
210
0.0
220
0.0
230
1.0
 70
    24
 71
     3
 72
     8
 73
     4
 74
     0
 42
0.0000000001
 43
0.0000000001
 40
0.0
 40
0.0
 40
0.0
 40
0.0
 40
1.0
 40
1.0
 40
1.0
 40
1.0
 10
-0.2008
 20
4.1722
 30
0.0
 10
-0.2008
 20
4.1722
 30
0.0
 10
-0.2808
 20
4.2196
 30
0.0
 10
-0.2808
 20
4.2196
 30
0.0
  0
SPLINE
  5
B2
330
1F
100
AcDbEntity
  8
Ilustrace
 62
   250
370
    30
100
AcDbSpline
210
0.0
220
0.0
230
1.0
 70
     8
 71
     3
 72
     8
 73
     4
 74
     0
 42
0.0000000001
 43
0.0000000001
 40
0.0
 40
0.0
 40
0.0
 40
0.0
 40
1.0
 40
1.0
 40
1.0
 40
1.0
 10
-0.9394
 20
4.1127
 30
0.0
 10
-1.0434
 20
4.057
 30
0.0
 10
-1.1248
 20
3.9875
 30
0.0
 10
-1.211
 20
3.9075
 30
0.0
  0
SPLINE
  5
B3
330
1F
100
AcDbEntity
  8
Ilustrace
 62
   250
370
    30
100
AcDbSpline
210
0.0
220
0.0
230
1.0
 70
    24
 71
     3
 72
     8
 73
     4
 74
     0
 42
0.0000000001
 43
0.0000000001
 40
0.0
 40
0.0
 40
0.0
 40
0.0
 40
1.0
 40
1.0
 40
1.0
 40
1.0
 10
-0.6116
 20
1.9461
 30
0.0
 10
-0.6116
 20
1.9461
 30
0.0
 10
-0.4268
 20
1.946
 30
0.0
 10
-0.4268
 20
1.946
 30
0.0
  0
SPLINE
  5
B4
330
1F
100
AcDbEntity
  8
Ilustrace
 62
   250
370
    30
100
AcDbSpline
210
0.0
220
0.0
230
1.0
 70
    24
 71
     3
 72
     8
 73
     4
 74
     0
 42
0.0000000001
 43
0.0000000001
 40
0.0
 40
0.0
 40
0.0
 40
0.0
 40
1.0
 40
1.0
 40
1.0
 40
1.0
 10
-1.6637
 20
2.604
 30
0.0
 10
-1.6637
 20
2.604
 30
0.0
 10
-1.7959
 20
2.9228
 30
0.0
 10
-1.7959
 20
2.9228
 30
0.0
  0
SPLINE
  5
B5
330
1F
100
AcDbEntity
  8
Ilustrace
 62
   250
370
    30
100
AcDbSpline
210
0.0
220
0.0
230
1.0
 70
     8
 71
     3
 72
    20
 73
    16
 74
     0
 42
0.0000000001
 43
0.0000000001
 40
0.0
 40
0.0
 40
0.0
 40
0.0
 40
0.2
 40
0.2
 40
0.2
 40
0.2
 40
0.4
 40
0.4
 40
0.4
 40
0.4
 40
0.6
 40
0.6
 40
0.6
 40
0.6
 40
1.0
 40
1.0
 40
1.0
 40
1.0
 10
-1.7959
 20
2.9228
 30
0.0
 10
-1.856
 20
3.1471
 30
0.0
 10
-1.856
 20
3.3832
 30
0.0
 10
-1.7959
 20
3.6073
 30
0.0
 10
-1.7959
 20
3.6073
 30
0.0
 10
-1.5744
 20
4.4339
 30
0.0
 10
-0.5984
 20
4.8381
 30
0.0
 10
0.1425
 20
4.4103
 30
0.0
 10
0.1425
 20
4.4103
 30
0.0
 10
0.8836
 20
3.9824
 30
0.0
 10
1.0215
 20
2.9351
 30
0.0
 10
0.4164
 20
2.33
 30
0.0
 10
0.4164
 20
2.33
 30
0.0
 10
0.2522
 20
2.1659
 30
0.0
 10
0.0478
 20
2.0478
 30
0.0
 10
-0.1763
 20
1.9878
 30
0.0
  0
SPLINE
  5
B6
330
1F
100
AcDbEntity
  8
Ilustrace
 62
   250
370
    30
100
AcDbSpline
210
0.0
220
0.0
230
1.0
 70
     8
 71
     3
 72
    12
 73
     8
 74
     0
 42
0.0000000001
 43
0.0000000001
 40
0.0
 40
0.0
 40
0.0
 40
0.0
 40
0.3333333333333333
 40
0.3333333333333333
 40
0.3333333333333333
 40
0.3333333333333333
 40
1.0
 40
1.0
 40
1.0
 40
1.0
 10
-0.1763
 20
1.9878
 30
0.0
 10
-0.1763
 20
1.9878
 30
0.0
 10
-0.5186
 20
1.9427
 30
0.0
 10
-0.5186
 20
1.9427
 30
0.0
 10
-0.5186
 20
1.9427
 30
0.0
 10
-0.5186
 20
1.9427
 30
0.0
 10
-0.8608
 20
1.9878
 30
0.0
 10
-0.8608
 20
1.9878
 30
0.0
  0
SPLINE
  5
B7
330
1F
100
AcDbEntity
  8
Ilustrace
 62
   250
370
    30
100
AcDbSpline
210
0.0
220
0.0
230
1.0
 70
     8
 71
     3
 72
     8
 73
     4
 74
     0
 42
0.0000000001
 43
0.0000000001
 40
0.0
 40
0.0
 40
0.0
 40
0.0
 40
1.0
 40
1.0
 40
1.0
 40
1.0
 10
-0.8608
 20
1.9878
 30
0.0
 10
-1.085
 20
2.0478
 30
0.0
 10
-1.2894
 20
2.1659
 30
0.0
 10
-1.4537
 20
2.33
 30
0.0
  0
SPLINE
  5
B8
330
1F
100
AcDbEntity
  8
Ilustrace
 62
   250
370
    30
100
AcDbSpline
210
0.0
220
0.0
230
1.0
 70
    24
 71
     3
 72
     8
 73
     4
 74
     0
 42
0.0000000001
 43
0.0000000001
 40
0.0
 40
0.0
 40
0.0
 40
0.0
 40
1.0
 40
1.0
 40
1.0
 40
1.0
 10
-1.4537
 20
2.33
 30
0.0
 10
-1.4537
 20
2.33
 30
0.0
 10
-1.6637
 20
2.604
 30
0.0
 10
-1.6637
 20
2.604
 30
0.0
  0
SPLINE
  5
B9
330
1F
100
AcDbEntity
  8
Ilustrace
 62
   250
370
    30
100
AcDbSpline
210
0.0
220
0.0
230
1.0
 70
     8
 71
     3
 72
     8
 73
     4
 74
     0
 42
0.0000000001
 43
0.0000000001
 40
0.0
 40
0.0
 40
0.0
 40
0.0
 40
1.0
 40
1.0
 40
1.0
 40
1.0
 10
-1.211
 20
2.6226
 30
0.0
 10
-1.3055
 20
2.7412
 30
0.0
 10
-1.3657
 20
2.8455
 30
0.0
 10
-1.4212
 20
2.9867
 30
0.0
  0
SPLINE
  5
BA
330
1F
100
AcDbEntity
  8
Ilustrace
 62
   250
370
    30
100
AcDbSpline
210
0.0
220
0.0
230
1.0
 70
     8
 71
     3
 72
     8
 73
     4
 74
     0
 42
0.0000000001
 43
0.0000000001
 40
0.0
 40
0.0
 40
0.0
 40
0.0
 40
1.0
 40
1.0
 40
1.0
 40
1.0
 10
-0.7288
 20
2.3443
 30
0.0
 10
-0.5788
 20
2.3216
 30
0.0
 10
-0.4583
 20
2.3216
 30
0.0
 10
-0.3085
 20
2.3443
 30
0.0
  0
SPLINE
  5
BB
330
1F
100
AcDbEntity
  8
Ilustrace
 62
   250
370
    30
100
AcDbSpline
210
0.0
220
0.0
230
1.0
 70
     8
 71
     3
 72
     8
 73
     4
 74
     0
 42
0.0000000001
 43
0.0000000001
 40
0.0
 40
0.0
 40
0.0
 40
0.0
 40
1.0
 40
1.0
 40
1.0
 40
1.0
 10
0.1738
 20
2.6226
 30
0.0
 10
0.2684
 20
2.7413
 30
0.0
 10
0.3285
 20
2.8455
 30
0.0
 10
0.384
 20
2.9867
 30
0.0
  0
SPLINE
  5
BC
330
1F
100
AcDbEntity
  8
Ilustrace
 62
   250
370
    30
100
AcDbSpline
210
0.0
220
0.0
230
1.0
 70
    24
 71
     3
 72
     8
 73
     4
 74
     0
 42
0.0000000001
 43
0.0000000001
 40
0.0
 40
0.0
 40
0.0
 40
0.0
 40
1.0
 40
1.0
 40
1.0
 40
1.0
 10
-14.1551
 20
4.9179
 30
0.0
 10
-14.1551
 20
4.9179
 30
0.0
 10
-14.6273
 20
4.9179
 30
0.0
 10
-14.6273
 20
4.9179
 30
0.0
  0
SPLINE
  5
BD
330
1F
100
AcDbEntity
  8
Ilustrace
 62
   250
370
    30
100
AcDbSpline
210
0.0
220
0.0
230
1.0
 70
    24
 71
     3
 72
     8
 73
     4
 74
     0
 42
0.0000000001
 43
0.0000000001
 40
0.0
 40
0.0
 40
0.0
 40
0.0
 40
1.0
 40
1.0
 40
1.0
 40
1.0
 10
5.6799
 20
4.9179
 30
0.0
 10
5.6799
 20
4.9179
 30
0.0
 10
6.1521
 20
4.9179
 30
0.0
 10
6.1521
 20
4.9179
 30
0.0
  0
SPLINE
  5
BE
330
1F
100
AcDbEntity
  8
Ilustrace
 62
   250
370
    30
100
AcDbSpline
210
0.0
220
0.0
230
1.0
 70
    24
 71
     3
 72
     8
 73
     4
 74
     0
 42
0.0000000001
 43
0.0000000001
 40
0.0
 40
0.0
 40
0.0
 40
0.0
 40
1.0
 40
1.0
 40
1.0
 40
1.0
 10
-14.2731
 20
-3.4646
 30
0.0
 10
-14.2731
 20
-3.4646
 30
0.0
 10
-14.6273
 20
-3.4646
 30
0.0
 10
-14.6273
 20
-3.4646
 30
0.0
  0
SPLINE
  5
BF
330
1F
100
AcDbEntity
  8
Ilustrace
 62
   250
370
    30
100
AcDbSpline
210
0.0
220
0.0
230
1.0
 70
    24
 71
     3
 72
     8
 73
     4
 74
     0
 42
0.0000000001
 43
0.0000000001
 40
0.0
 40
0.0
 40
0.0
 40
0.0
 40
1.0
 40
1.0
 40
1.0
 40
1.0
 10
-13.919
 20
-3.8189
 30
0.0
 10
-13.919
 20
-3.8189
 30
0.0
 10
-13.919
 20
-4.1731
 30
0.0
 10
-13.919
 20
-4.1731
 30
0.0
  0
SPLINE
  5
C0
330
1F
100
AcDbEntity
  8
Ilustrace
 62
   250
370
    30
100
AcDbSpline
210
0.0
220
0.0
230
1.0
 70
    24
 71
     3
 72
     8
 73
     4
 74
     0
 42
0.0000000001
 43
0.0000000001
 40
0.0
 40
0.0
 40
0.0
 40
0.0
 40
1.0
 40
1.0
 40
1.0
 40
1.0
 10
5.4437
 20
-3.8189
 30
0.0
 10
5.4437
 20
-3.8189
 30
0.0
 10
5.4437
 20
-4.1731
 30
0.0
 10
5.4437
 20
-4.1731
 30
0.0
  0
SPLINE
  5
C1
330
1F
100
AcDbEntity
  8
Ilustrace
 62
   250
370
    30
100
AcDbSpline
210
0.0
220
0.0
230
1.0
 70
    24
 71
     3
 72
     8
 73
     4
 74
     0
 42
0.0000000001
 43
0.0000000001
 40
0.0
 40
0.0
 40
0.0
 40
0.0
 40
1.0
 40
1.0
 40
1.0
 40
1.0
 10
5.7979
 20
-3.4646
 30
0.0
 10
5.7979
 20
-3.4646
 30
0.0
 10
6.1521
 20
-3.4646
 30
0.0
 10
6.1521
 20
-3.4646
 30
0.0
  0
SPLINE
  5
C2
330
1F
100
AcDbEntity
  8
Ilustrace
 62
   250
370
    30
100
AcDbSpline
210
0.0
220
0.0
230
1.0
 70
    24
 71
     3
 72
     8
 73
     4
 74
     0
 42
0.0000000001
 43
0.0000000001
 40
0.0
 40
0.0
 40
0.0
 40
0.0
 40
1.0
 40
1.0
 40
1.0
 40
1.0
 10
-7.4253
 20
4.9179
 30
0.0
 10
-7.4253
 20
4.9179
 30
0.0
 10
-8.7241
 20
4.9179
 30
0.0
 10
-8.7241
 20
4.9179
 30
0.0
  0
SPLINE
  5
C3
330
1F
100
AcDbEntity
  8
Ilustrace
 62
   250
370
    30
100
AcDbSpline
210
0.0
220
0.0
230
1.0
 70
    24
 71
     3
 72
     8
 73
     4
 74
     0
 42
0.0000000001
 43
0.0000000001
 40
0.0
 40
0.0
 40
0.0
 40
0.0
 40
1.0
 40
1.0
 40
1.0
 40
1.0
 10
0.2488
 20
4.9179
 30
0.0
 10
0.2488
 20
4.9179
 30
0.0
 10
-1.0499
 20
4.9179
 30
0.0
 10
-1.0499
 20
4.9179
 30
0.0
  0
SPLINE
  5
C4
330
1F
100
AcDbEntity
  8
Ilustrace
 62
   250
370
    30
100
AcDbSpline
210
0.0
220
0.0
230
1.0
 70
    24
 71
     3
 72
    12
 73
     8
 74
     0
 42
0.0000000001
 43
0.0000000001
 40
0.0
 40
0.0
 40
0.0
 40
0.0
 40
0.3333333333333333
 40
0.3333333333333333
 40
0.3333333333333333
 40
0.3333333333333333
 40
1.0
 40
1.0
 40
1.0
 40
1.0
 10
5.7979
 20
4.9179
 30
0.0
 10
5.7979
 20
4.9179
 30
0.0
 10
5.7979
 20
4.4457
 30
0.0
 10
5.7979
 20
4.4457
 30
0.0
 10
5.7979
 20
4.4457
 30
0.0
 10
5.7979
 20
4.4457
 30
0.0
 10
5.7979
 20
-2.9924
 30
0.0
 10
5.7979
 20
-2.9924
 30
0.0
  0
SPLINE
  5
C5
330
1F
100
AcDbEntity
  8
Ilustrace
 62
   250
370
    30
100
AcDbSpline
210
0.0
220
0.0
230
1.0
 70
     8
 71
     3
 72
    12
 73
     8
 74
     0
 42
0.0000000001
 43
0.0000000001
 40
0.0
 40
0.0
 40
0.0
 40
0.0
 40
0.3333333333333333
 40
0.3333333333333333
 40
0.3333333333333333
 40
0.3333333333333333
 40
1.0
 40
1.0
 40
1.0
 40
1.0
 10
5.7979
 20
-2.9924
 30
0.0
 10
5.7979
 20
-3.2467
 30
0.0
 10
5.8899
 20
-3.6837
 30
0.0
 10
5.5607
 20
-3.7989
 30
0.0
 10
5.5607
 20
-3.7989
 30
0.0
 10
5.522
 20
-3.8125
 30
0.0
 10
5.4842
 20
-3.8166
 30
0.0
 10
5.4437
 20
-3.8189
 30
0.0
  0
SPLINE
  5
C6
330
1F
100
AcDbEntity
  8
Ilustrace
 62
   250
370
    30
100
AcDbSpline
210
0.0
220
0.0
230
1.0
 70
    24
 71
     3
 72
    16
 73
    12
 74
     0
 42
0.0000000001
 43
0.0000000001
 40
0.0
 40
0.0
 40
0.0
 40
0.0
 40
0.25
 40
0.25
 40
0.25
 40
0.25
 40
0.5
 40
0.5
 40
0.5
 40
0.5
 40
1.0
 40
1.0
 40
1.0
 40
1.0
 10
5.4437
 20
-3.8189
 30
0.0
 10
5.4437
 20
-3.8189
 30
0.0
 10
4.9715
 20
-3.8189
 30
0.0
 10
4.9715
 20
-3.8189
 30
0.0
 10
4.9715
 20
-3.8189
 30
0.0
 10
4.9715
 20
-3.8189
 30
0.0
 10
-13.4467
 20
-3.8189
 30
0.0
 10
-13.4467
 20
-3.8189
 30
0.0
 10
-13.4467
 20
-3.8189
 30
0.0
 10
-13.4467
 20
-3.8189
 30
0.0
 10
-13.919
 20
-3.8189
 30
0.0
 10
-13.919
 20
-3.8189
 30
0.0
  0
SPLINE
  5
C7
330
1F
100
AcDbEntity
  8
Ilustrace
 62
   250
370
    30
100
AcDbSpline
210
0.0
220
0.0
230
1.0
 70
     8
 71
     3
 72
    12
 73
     8
 74
     0
 42
0.0000000001
 43
0.0000000001
 40
0.0
 40
0.0
 40
0.0
 40
0.0
 40
0.3333333333333333
 40
0.3333333333333333
 40
0.3333333333333333
 40
0.3333333333333333
 40
1.0
 40
1.0
 40
1.0
 40
1.0
 10
-13.919
 20
-3.8189
 30
0.0
 10
-13.9589
 20
-3.8186
 30
0.0
 10
-13.9983
 20
-3.8121
 30
0.0
 10
-14.0359
 20
-3.7989
 30
0.0
 10
-14.0359
 20
-3.7989
 30
0.0
 10
-14.3651
 20
-3.6837
 30
0.0
 10
-14.2731
 20
-3.2467
 30
0.0
 10
-14.2731
 20
-2.9924
 30
0.0
  0
SPLINE
  5
C8
330
1F
100
AcDbEntity
  8
Ilustrace
 62
   250
370
    30
100
AcDbSpline
210
0.0
220
0.0
230
1.0
 70
    24
 71
     3
 72
    12
 73
     8
 74
     0
 42
0.0000000001
 43
0.0000000001
 40
0.0
 40
0.0
 40
0.0
 40
0.0
 40
0.3333333333333333
 40
0.3333333333333333
 40
0.3333333333333333
 40
0.3333333333333333
 40
1.0
 40
1.0
 40
1.0
 40
1.0
 10
-14.2731
 20
-2.9924
 30
0.0
 10
-14.2731
 20
-2.9924
 30
0.0
 10
-14.2731
 20
4.4457
 30
0.0
 10
-14.2731
 20
4.4457
 30
0.0
 10
-14.2731
 20
4.4457
 30
0.0
 10
-14.2731
 20
4.4457
 30
0.0
 10
-14.2731
 20
4.9179
 30
0.0
 10
-14.2731
 20
4.9179
 30
0.0
  0
SPLINE
  5
C9
330
1F
100
AcDbEntity
  8
Ilustrace
 62
   250
370
    30
100
AcDbSpline
210
0.0
220
0.0
230
1.0
 70
     8
 71
     3
 72
    20
 73
    16
 74
     0
 42
0.0000000001
 43
0.0000000001
 40
0.0
 40
0.0
 40
0.0
 40
0.0
 40
0.2
 40
0.2
 40
0.2
 40
0.2
 40
0.4
 40
0.4
 40
0.4
 40
0.4
 40
0.6
 40
0.6
 40
0.6
 40
0.6
 40
1.0
 40
1.0
 40
1.0
 40
1.0
 10
-14.6237
 20
-3.5304
 30
0.0
 10
-14.6237
 20
-3.5304
 30
0.0
 10
-14.6273
 20
-3.4646
 30
0.0
 10
-14.6273
 20
-3.4646
 30
0.0
 10
-14.6273
 20
-3.4646
 30
0.0
 10
-14.6273
 20
-3.4646
 30
0.0
 10
-14.6273
 20
-2.9924
 30
0.0
 10
-14.6273
 20
-2.9924
 30
0.0
 10
-14.6273
 20
-2.9924
 30
0.0
 10
-14.6273
 20
-2.9924
 30
0.0
 10
-14.6273
 20
4.4457
 30
0.0
 10
-14.6273
 20
4.4457
 30
0.0
 10
-14.6273
 20
4.4457
 30
0.0
 10
-14.6273
 20
4.4457
 30
0.0
 10
-14.6273
 20
4.9179
 30
0.0
 10
-14.6273
 20
4.9179
 30
0.0
  0
SPLINE
  5
CA
330
1F
100
AcDbEntity
  8
Ilustrace
 62
   250
370
    30
100
AcDbSpline
210
0.0
220
0.0
230
1.0
 70
     8
 71
     3
 72
     8
 73
     4
 74
     0
 42
0.0000000001
 43
0.0000000001
 40
0.0
 40
0.0
 40
0.0
 40
0.0
 40
1.0
 40
1.0
 40
1.0
 40
1.0
 10
-14.6273
 20
-3.4646
 30
0.0
 10
-14.6156
 20
-3.6738
 30
0.0
 10
-14.539
 20
-3.8874
 30
0.0
 10
-14.3631
 20
-4.0162
 30
0.0
  0
SPLINE
  5
CB
330
1F
100
AcDbEntity
  8
Ilustrace
 62
   250
370
    30
100
AcDbSpline
210
0.0
220
0.0
230
1.0
 70
     8
 71
     3
 72
    24
 73
    20
 74
     0
 42
0.0000000001
 43
0.0000000001
 40
0.0
 40
0.0
 40
0.0
 40
0.0
 40
0.1666666666666667
 40
0.1666666666666667
 40
0.1666666666666667
 40
0.1666666666666667
 40
0.3333333333333333
 40
0.3333333333333333
 40
0.3333333333333333
 40
0.3333333333333333
 40
0.5
 40
0.5
 40
0.5
 40
0.5
 40
0.6666666666666666
 40
0.6666666666666666
 40
0.6666666666666666
 40
0.6666666666666666
 40
1.0
 40
1.0
 40
1.0
 40
1.0
 10
5.5095
 20
-4.1693
 30
0.0
 10
5.5095
 20
-4.1693
 30
0.0
 10
5.4437
 20
-4.1731
 30
0.0
 10
5.4437
 20
-4.1731
 30
0.0
 10
5.4437
 20
-4.1731
 30
0.0
 10
5.4437
 20
-4.1731
 30
0.0
 10
4.9715
 20
-4.1731
 30
0.0
 10
4.9715
 20
-4.1731
 30
0.0
 10
4.9715
 20
-4.1731
 30
0.0
 10
4.9715
 20
-4.1731
 30
0.0
 10
-13.4467
 20
-4.1731
 30
0.0
 10
-13.4467
 20
-4.1731
 30
0.0
 10
-13.4467
 20
-4.1731
 30
0.0
 10
-13.4467
 20
-4.1731
 30
0.0
 10
-13.919
 20
-4.1731
 30
0.0
 10
-13.919
 20
-4.1731
 30
0.0
 10
-13.919
 20
-4.1731
 30
0.0
 10
-13.919
 20
-4.1731
 30
0.0
 10
-13.9847
 20
-4.1693
 30
0.0
 10
-13.9847
 20
-4.1693
 30
0.0
  0
SPLINE
  5
CC
330
1F
100
AcDbEntity
  8
Ilustrace
 62
   250
370
    30
100
AcDbSpline
210
0.0
220
0.0
230
1.0
 70
     8
 71
     3
 72
     8
 73
     4
 74
     0
 42
0.0000000001
 43
0.0000000001
 40
0.0
 40
0.0
 40
0.0
 40
0.0
 40
1.0
 40
1.0
 40
1.0
 40
1.0
 10
-14.1273
 20
-3.7504
 30
0.0
 10
-14.1835
 20
-3.5388
 30
0.0
 10
-14.2276
 20
-3.3243
 30
0.0
 10
-14.2731
 20
-3.1105
 30
0.0
  0
SPLINE
  5
CD
330
1F
100
AcDbEntity
  8
Ilustrace
 62
   250
370
    30
100
AcDbSpline
210
0.0
220
0.0
230
1.0
 70
     8
 71
     3
 72
     8
 73
     4
 74
     0
 42
0.0000000001
 43
0.0000000001
 40
0.0
 40
0.0
 40
0.0
 40
0.0
 40
1.0
 40
1.0
 40
1.0
 40
1.0
 10
-14.4705
 20
-3.9088
 30
0.0
 10
-14.3417
 20
-4.0847
 30
0.0
 10
-14.1281
 20
-4.1612
 30
0.0
 10
-13.919
 20
-4.1731
 30
0.0
  0
SPLINE
  5
CE
330
1F
100
AcDbEntity
  8
Ilustrace
 62
   250
370
    30
100
AcDbSpline
210
0.0
220
0.0
230
1.0
 70
    24
 71
     3
 72
    12
 73
     8
 74
     0
 42
0.0000000001
 43
0.0000000001
 40
0.0
 40
0.0
 40
0.0
 40
0.0
 40
0.3333333333333333
 40
0.3333333333333333
 40
0.3333333333333333
 40
0.3333333333333333
 40
1.0
 40
1.0
 40
1.0
 40
1.0
 10
6.1521
 20
4.9179
 30
0.0
 10
6.1521
 20
4.9179
 30
0.0
 10
6.1521
 20
4.4457
 30
0.0
 10
6.1521
 20
4.4457
 30
0.0
 10
6.1521
 20
4.4457
 30
0.0
 10
6.1521
 20
4.4457
 30
0.0
 10
6.1521
 20
-2.9924
 30
0.0
 10
6.1521
 20
-2.9924
 30
0.0
  0
SPLINE
  5
CF
330
1F
100
AcDbEntity
  8
Ilustrace
 62
   250
370
    30
100
AcDbSpline
210
0.0
220
0.0
230
1.0
 70
     8
 71
     3
 72
     8
 73
     4
 74
     0
 42
0.0000000001
 43
0.0000000001
 40
0.0
 40
0.0
 40
0.0
 40
0.0
 40
1.0
 40
1.0
 40
1.0
 40
1.0
 10
6.1521
 20
-2.9924
 30
0.0
 10
6.1521
 20
-3.3406
 30
0.0
 10
6.214
 20
-3.7773
 30
0.0
 10
5.8879
 20
-4.0161
 30
0.0
  0
SPLINE
  5
D0
330
1F
100
AcDbEntity
  8
Ilustrace
 62
   250
370
    30
100
AcDbSpline
210
0.0
220
0.0
230
1.0
 70
     8
 71
     3
 72
     8
 73
     4
 74
     0
 42
0.0000000001
 43
0.0000000001
 40
0.0
 40
0.0
 40
0.0
 40
0.0
 40
1.0
 40
1.0
 40
1.0
 40
1.0
 10
5.7979
 20
-3.1105
 30
0.0
 10
5.7518
 20
-3.325
 30
0.0
 10
5.7072
 20
-3.5397
 30
0.0
 10
5.6504
 20
-3.7516
 30
0.0
  0
SPLINE
  5
D1
330
1F
100
AcDbEntity
  8
Ilustrace
 62
   250
370
    30
100
AcDbSpline
210
0.0
220
0.0
230
1.0
 70
     8
 71
     3
 72
     8
 73
     4
 74
     0
 42
0.0000000001
 43
0.0000000001
 40
0.0
 40
0.0
 40
0.0
 40
0.0
 40
1.0
 40
1.0
 40
1.0
 40
1.0
 10
5.4437
 20
-4.1731
 30
0.0
 10
5.6528
 20
-4.1612
 30
0.0
 10
5.8666
 20
-4.0847
 30
0.0
 10
5.9953
 20
-3.9088
 30
0.0
  0
SPLINE
  5
D2
330
1F
100
AcDbEntity
  8
Ilustrace
 62
   250
370
    30
100
AcDbSpline
210
0.0
220
0.0
230
1.0
 70
     8
 71
     3
 72
     8
 73
     4
 74
     0
 42
0.0000000001
 43
0.0000000001
 40
0.0
 40
0.0
 40
0.0
 40
0.0
 40
1.0
 40
1.0
 40
1.0
 40
1.0
 10
-13.919
 20
-3.8189
 30
0.0
 10
-14.1038
 20
-3.7432
 30
0.0
 10
-14.1557
 20
-3.4629
 30
0.0
 10
-14.2141
 20
-3.2939
 30
0.0
  0
SPLINE
  5
D3
330
1F
100
AcDbEntity
  8
Ilustrace
 62
   250
370
    30
100
AcDbSpline
210
0.0
220
0.0
230
1.0
 70
     8
 71
     3
 72
    12
 73
     8
 74
     0
 42
0.0000000001
 43
0.0000000001
 40
0.0
 40
0.0
 40
0.0
 40
0.0
 40
0.3333333333333333
 40
0.3333333333333333
 40
0.3333333333333333
 40
0.3333333333333333
 40
1.0
 40
1.0
 40
1.0
 40
1.0
 10
5.7979
 20
-3.1105
 30
0.0
 10
5.7438
 20
-3.2785
 30
0.0
 10
5.6941
 20
-3.4503
 30
0.0
 10
5.6208
 20
-3.6113
 30
0.0
 10
5.6208
 20
-3.6113
 30
0.0
 10
5.577
 20
-3.7075
 30
0.0
 10
5.5415
 20
-3.7788
 30
0.0
 10
5.4437
 20
-3.8189
 30
0.0
  0
SPLINE
  5
D4
330
1F
100
AcDbEntity
  8
Ilustrace
 62
   250
370
    30
100
AcDbSpline
210
0.0
220
0.0
230
1.0
 70
     8
 71
     3
 72
     8
 73
     4
 74
     0
 42
0.0000000001
 43
0.0000000001
 40
0.0
 40
0.0
 40
0.0
 40
0.0
 40
1.0
 40
1.0
 40
1.0
 40
1.0
 10
5.4758
 20
-3.7353
 30
0.0
 10
5.7522
 20
-3.5186
 30
0.0
 10
5.6799
 20
-3.1991
 30
0.0
 10
5.6799
 20
-2.8743
 30
0.0
  0
SPLINE
  5
D5
330
1F
100
AcDbEntity
  8
Ilustrace
 62
   250
370
    30
100
AcDbSpline
210
0.0
220
0.0
230
1.0
 70
    24
 71
     3
 72
     8
 73
     4
 74
     0
 42
0.0000000001
 43
0.0000000001
 40
0.0
 40
0.0
 40
0.0
 40
0.0
 40
1.0
 40
1.0
 40
1.0
 40
1.0
 10
5.6799
 20
-2.8743
 30
0.0
 10
5.6799
 20
-2.8743
 30
0.0
 10
5.6799
 20
8.8141
 30
0.0
 10
5.6799
 20
8.8141
 30
0.0
  0
SPLINE
  5
D6
330
1F
100
AcDbEntity
  8
Ilustrace
 62
   250
370
    30
100
AcDbSpline
210
0.0
220
0.0
230
1.0
 70
     8
 71
     3
 72
    12
 73
     8
 74
     0
 42
0.0000000001
 43
0.0000000001
 40
0.0
 40
0.0
 40
0.0
 40
0.0
 40
0.3333333333333333
 40
0.3333333333333333
 40
0.3333333333333333
 40
0.3333333333333333
 40
1.0
 40
1.0
 40
1.0
 40
1.0
 10
5.6799
 20
8.8141
 30
0.0
 10
5.6799
 20
9.1029
 30
0.0
 10
5.7562
 20
9.4816
 30
0.0
 10
5.4758
 20
9.6751
 30
0.0
 10
5.4758
 20
9.6751
 30
0.0
 10
5.2713
 20
9.8162
 30
0.0
 10
4.9478
 20
9.7587
 30
0.0
 10
4.7353
 20
9.7587
 30
0.0
  0
SPLINE
  5
D7
330
1F
100
AcDbEntity
  8
Ilustrace
 62
   250
370
    30
100
AcDbSpline
210
0.0
220
0.0
230
1.0
 70
    24
 71
     3
 72
    12
 73
     8
 74
     0
 42
0.0000000001
 43
0.0000000001
 40
0.0
 40
0.0
 40
0.0
 40
0.0
 40
0.3333333333333333
 40
0.3333333333333333
 40
0.3333333333333333
 40
0.3333333333333333
 40
1.0
 40
1.0
 40
1.0
 40
1.0
 10
4.7353
 20
9.7587
 30
0.0
 10
4.7353
 20
9.7587
 30
0.0
 10
-13.2106
 20
9.7587
 30
0.0
 10
-13.2106
 20
9.7587
 30
0.0
 10
-13.2106
 20
9.7587
 30
0.0
 10
-13.2106
 20
9.7587
 30
0.0
 10
-13.6827
 20
9.7587
 30
0.0
 10
-13.6827
 20
9.7587
 30
0.0
  0
SPLINE
  5
D8
330
1F
100
AcDbEntity
  8
Ilustrace
 62
   250
370
    30
100
AcDbSpline
210
0.0
220
0.0
230
1.0
 70
     8
 71
     3
 72
    12
 73
     8
 74
     0
 42
0.0000000001
 43
0.0000000001
 40
0.0
 40
0.0
 40
0.0
 40
0.0
 40
0.3333333333333333
 40
0.3333333333333333
 40
0.3333333333333333
 40
0.3333333333333333
 40
1.0
 40
1.0
 40
1.0
 40
1.0
 10
-13.6827
 20
9.7587
 30
0.0
 10
-13.7412
 20
9.7551
 30
0.0
 10
-13.795
 20
9.749
 30
0.0
 10
-13.8503
 20
9.7279
 30
0.0
 10
-13.8503
 20
9.7279
 30
0.0
 10
-14.2334
 20
9.5827
 30
0.0
 10
-14.1551
 20
9.1383
 30
0.0
 10
-14.1551
 20
8.8141
 30
0.0
  0
SPLINE
  5
D9
330
1F
100
AcDbEntity
  8
Ilustrace
 62
   250
370
    30
100
AcDbSpline
210
0.0
220
0.0
230
1.0
 70
    24
 71
     3
 72
     8
 73
     4
 74
     0
 42
0.0000000001
 43
0.0000000001
 40
0.0
 40
0.0
 40
0.0
 40
0.0
 40
1.0
 40
1.0
 40
1.0
 40
1.0
 10
-14.1551
 20
8.8141
 30
0.0
 10
-14.1551
 20
8.8141
 30
0.0
 10
-14.1551
 20
-2.8743
 30
0.0
 10
-14.1551
 20
-2.8743
 30
0.0
  0
SPLINE
  5
DA
330
1F
100
AcDbEntity
  8
Ilustrace
 62
   250
370
    30
100
AcDbSpline
210
0.0
220
0.0
230
1.0
 70
     8
 71
     3
 72
     8
 73
     4
 74
     0
 42
0.0000000001
 43
0.0000000001
 40
0.0
 40
0.0
 40
0.0
 40
0.0
 40
1.0
 40
1.0
 40
1.0
 40
1.0
 10
-14.1551
 20
-2.8743
 30
0.0
 10
-14.1551
 20
-3.1991
 30
0.0
 10
-14.2274
 20
-3.5186
 30
0.0
 10
-13.9511
 20
-3.7353
 30
0.0
  0
SPLINE
  5
DB
330
1F
100
AcDbEntity
  8
Ilustrace
 62
   250
370
    30
100
AcDbSpline
210
0.0
220
0.0
230
1.0
 70
     8
 71
     3
 72
    20
 73
    16
 74
     0
 42
0.0000000001
 43
0.0000000001
 40
0.0
 40
0.0
 40
0.0
 40
0.0
 40
0.2
 40
0.2
 40
0.2
 40
0.2
 40
0.4
 40
0.4
 40
0.4
 40
0.4
 40
0.6
 40
0.6
 40
0.6
 40
0.6
 40
1.0
 40
1.0
 40
1.0
 40
1.0
 10
-7.4253
 20
4.4759
 30
0.0
 10
-7.4253
 20
4.4759
 30
0.0
 10
-7.4253
 20
4.9481
 30
0.0
 10
-7.4253
 20
4.9481
 30
0.0
 10
-7.4253
 20
4.9481
 30
0.0
 10
-7.4253
 20
4.9481
 30
0.0
 10
-7.4253
 20
7.8106
 30
0.0
 10
-7.4253
 20
7.8106
 30
0.0
 10
-7.4253
 20
7.8106
 30
0.0
 10
-7.4253
 20
7.8106
 30
0.0
 10
-7.4253
 20
8.2828
 30
0.0
 10
-7.4253
 20
8.2828
 30
0.0
 10
-7.4253
 20
8.2828
 30
0.0
 10
-7.4253
 20
8.2828
 30
0.0
 10
-7.4295
 20
8.3556
 30
0.0
 10
-7.4295
 20
8.3556
 30
0.0
  0
SPLINE
  5
DC
330
1F
100
AcDbEntity
  8
Ilustrace
 62
   250
370
    30
100
AcDbSpline
210
0.0
220
0.0
230
1.0
 70
     8
 71
     3
 72
    12
 73
     8
 74
     0
 42
0.0000000001
 43
0.0000000001
 40
0.0
 40
0.0
 40
0.0
 40
0.0
 40
0.3333333333333333
 40
0.3333333333333333
 40
0.3333333333333333
 40
0.3333333333333333
 40
1.0
 40
1.0
 40
1.0
 40
1.0
 10
-7.4295
 20
8.3556
 30
0.0
 10
-7.4676
 20
8.6933
 30
0.0
 10
-7.7479
 20
8.9139
 30
0.0
 10
-8.0747
 20
8.9321
 30
0.0
 10
-8.0747
 20
8.9321
 30
0.0
 10
-8.4015
 20
8.9139
 30
0.0
 10
-8.682
 20
8.6933
 30
0.0
 10
-8.7201
 20
8.3556
 30
0.0
  0
SPLINE
  5
DD
330
1F
100
AcDbEntity
  8
Ilustrace
 62
   250
370
    30
100
AcDbSpline
210
0.0
220
0.0
230
1.0
 70
     8
 71
     3
 72
    20
 73
    16
 74
     0
 42
0.0000000001
 43
0.0000000001
 40
0.0
 40
0.0
 40
0.0
 40
0.0
 40
0.2
 40
0.2
 40
0.2
 40
0.2
 40
0.4
 40
0.4
 40
0.4
 40
0.4
 40
0.6
 40
0.6
 40
0.6
 40
0.6
 40
1.0
 40
1.0
 40
1.0
 40
1.0
 10
-8.7201
 20
8.3556
 30
0.0
 10
-8.7201
 20
8.3556
 30
0.0
 10
-8.7241
 20
8.2828
 30
0.0
 10
-8.7241
 20
8.2828
 30
0.0
 10
-8.7241
 20
8.2828
 30
0.0
 10
-8.7241
 20
8.2828
 30
0.0
 10
-8.7241
 20
7.8106
 30
0.0
 10
-8.7241
 20
7.8106
 30
0.0
 10
-8.7241
 20
7.8106
 30
0.0
 10
-8.7241
 20
7.8106
 30
0.0
 10
-8.7241
 20
4.801
 30
0.0
 10
-8.7241
 20
4.801
 30
0.0
 10
-8.7241
 20
4.801
 30
0.0
 10
-8.7241
 20
4.801
 30
0.0
 10
-8.7241
 20
4.3287
 30
0.0
 10
-8.7241
 20
4.3287
 30
0.0
  0
SPLINE
  5
DE
330
1F
100
AcDbEntity
  8
Ilustrace
 62
   250
370
    30
100
AcDbSpline
210
0.0
220
0.0
230
1.0
 70
     8
 71
     3
 72
    20
 73
    16
 74
     0
 42
0.0000000001
 43
0.0000000001
 40
0.0
 40
0.0
 40
0.0
 40
0.0
 40
0.2
 40
0.2
 40
0.2
 40
0.2
 40
0.4
 40
0.4
 40
0.4
 40
0.4
 40
0.6
 40
0.6
 40
0.6
 40
0.6
 40
1.0
 40
1.0
 40
1.0
 40
1.0
 10
-7.4253
 20
2.0661
 30
0.0
 10
-7.4253
 20
2.0661
 30
0.0
 10
-7.4253
 20
1.5938
 30
0.0
 10
-7.4253
 20
1.5938
 30
0.0
 10
-7.4253
 20
1.5938
 30
0.0
 10
-7.4253
 20
1.5938
 30
0.0
 10
-7.4253
 20
-1.8708
 30
0.0
 10
-7.4253
 20
-1.8708
 30
0.0
 10
-7.4253
 20
-1.8708
 30
0.0
 10
-7.4253
 20
-1.8708
 30
0.0
 10
-7.4253
 20
-2.343
 30
0.0
 10
-7.4253
 20
-2.343
 30
0.0
 10
-7.4253
 20
-2.343
 30
0.0
 10
-7.4253
 20
-2.343
 30
0.0
 10
-7.4295
 20
-2.4158
 30
0.0
 10
-7.4295
 20
-2.4158
 30
0.0
  0
SPLINE
  5
DF
330
1F
100
AcDbEntity
  8
Ilustrace
 62
   250
370
    30
100
AcDbSpline
210
0.0
220
0.0
230
1.0
 70
     8
 71
     3
 72
    12
 73
     8
 74
     0
 42
0.0000000001
 43
0.0000000001
 40
0.0
 40
0.0
 40
0.0
 40
0.0
 40
0.3333333333333333
 40
0.3333333333333333
 40
0.3333333333333333
 40
0.3333333333333333
 40
1.0
 40
1.0
 40
1.0
 40
1.0
 10
-7.4295
 20
-2.4158
 30
0.0
 10
-7.4676
 20
-2.7535
 30
0.0
 10
-7.7479
 20
-2.9741
 30
0.0
 10
-8.0747
 20
-2.9924
 30
0.0
 10
-8.0747
 20
-2.9924
 30
0.0
 10
-8.4015
 20
-2.9741
 30
0.0
 10
-8.682
 20
-2.7535
 30
0.0
 10
-8.7201
 20
-2.4158
 30
0.0
  0
SPLINE
  5
E0
330
1F
100
AcDbEntity
  8
Ilustrace
 62
   250
370
    30
100
AcDbSpline
210
0.0
220
0.0
230
1.0
 70
     8
 71
     3
 72
    20
 73
    16
 74
     0
 42
0.0000000001
 43
0.0000000001
 40
0.0
 40
0.0
 40
0.0
 40
0.0
 40
0.2
 40
0.2
 40
0.2
 40
0.2
 40
0.4
 40
0.4
 40
0.4
 40
0.4
 40
0.6
 40
0.6
 40
0.6
 40
0.6
 40
1.0
 40
1.0
 40
1.0
 40
1.0
 10
-8.7201
 20
-2.4158
 30
0.0
 10
-8.7201
 20
-2.4158
 30
0.0
 10
-8.7241
 20
-2.343
 30
0.0
 10
-8.7241
 20
-2.343
 30
0.0
 10
-8.7241
 20
-2.343
 30
0.0
 10
-8.7241
 20
-2.343
 30
0.0
 10
-8.7241
 20
-1.8708
 30
0.0
 10
-8.7241
 20
-1.8708
 30
0.0
 10
-8.7241
 20
-1.8708
 30
0.0
 10
-8.7241
 20
-1.8708
 30
0.0
 10
-8.7241
 20
1.7165
 30
0.0
 10
-8.7241
 20
1.7165
 30
0.0
 10
-8.7241
 20
1.7165
 30
0.0
 10
-8.7241
 20
1.7165
 30
0.0
 10
-8.7241
 20
2.1886
 30
0.0
 10
-8.7241
 20
2.1886
 30
0.0
  0
SPLINE
  5
E1
330
1F
100
AcDbEntity
  8
Ilustrace
 62
   250
370
    30
100
AcDbSpline
210
0.0
220
0.0
230
1.0
 70
    24
 71
     3
 72
    12
 73
     8
 74
     0
 42
0.0000000001
 43
0.0000000001
 40
0.0
 40
0.0
 40
0.0
 40
0.0
 40
0.3333333333333333
 40
0.3333333333333333
 40
0.3333333333333333
 40
0.3333333333333333
 40
1.0
 40
1.0
 40
1.0
 40
1.0
 10
-1.0499
 20
4.4641
 30
0.0
 10
-1.0499
 20
4.4641
 30
0.0
 10
-1.0499
 20
4.9362
 30
0.0
 10
-1.0499
 20
4.9362
 30
0.0
 10
-1.0499
 20
4.9362
 30
0.0
 10
-1.0499
 20
4.9362
 30
0.0
 10
-1.0499
 20
7.8106
 30
0.0
 10
-1.0499
 20
7.8106
 30
0.0
  0
SPLINE
  5
E2
330
1F
100
AcDbEntity
  8
Ilustrace
 62
   250
370
    30
100
AcDbSpline
210
0.0
220
0.0
230
1.0
 70
     8
 71
     3
 72
    16
 73
    12
 74
     0
 42
0.0000000001
 43
0.0000000001
 40
0.0
 40
0.0
 40
0.0
 40
0.0
 40
0.25
 40
0.25
 40
0.25
 40
0.25
 40
0.5
 40
0.5
 40
0.5
 40
0.5
 40
1.0
 40
1.0
 40
1.0
 40
1.0
 10
-1.0499
 20
7.8106
 30
0.0
 10
-1.0499
 20
7.9552
 30
0.0
 10
-1.0762
 20
8.2411
 30
0.0
 10
-1.0335
 20
8.4273
 30
0.0
 10
-1.0335
 20
8.4273
 30
0.0
 10
-0.9221
 20
8.9159
 30
0.0
 10
-0.2958
 20
9.0964
 30
0.0
 10
0.0586
 20
8.7419
 30
0.0
 10
0.0586
 20
8.7419
 30
0.0
 10
0.3095
 20
8.491
 30
0.0
 10
0.2488
 20
8.1353
 30
0.0
 10
0.2488
 20
7.8106
 30
0.0
  0
SPLINE
  5
E3
330
1F
100
AcDbEntity
  8
Ilustrace
 62
   250
370
    30
100
AcDbSpline
210
0.0
220
0.0
230
1.0
 70
    24
 71
     3
 72
    12
 73
     8
 74
     0
 42
0.0000000001
 43
0.0000000001
 40
0.0
 40
0.0
 40
0.0
 40
0.0
 40
0.3333333333333333
 40
0.3333333333333333
 40
0.3333333333333333
 40
0.3333333333333333
 40
1.0
 40
1.0
 40
1.0
 40
1.0
 10
0.2488
 20
7.8106
 30
0.0
 10
0.2488
 20
7.8106
 30
0.0
 10
0.2488
 20
4.8137
 30
0.0
 10
0.2488
 20
4.8137
 30
0.0
 10
0.2488
 20
4.8137
 30
0.0
 10
0.2488
 20
4.8137
 30
0.0
 10
0.2488
 20
4.3416
 30
0.0
 10
0.2488
 20
4.3416
 30
0.0
  0
SPLINE
  5
E4
330
1F
100
AcDbEntity
  8
Ilustrace
 62
   250
370
    30
100
AcDbSpline
210
0.0
220
0.0
230
1.0
 70
     8
 71
     3
 72
    20
 73
    16
 74
     0
 42
0.0000000001
 43
0.0000000001
 40
0.0
 40
0.0
 40
0.0
 40
0.0
 40
0.2
 40
0.2
 40
0.2
 40
0.2
 40
0.4
 40
0.4
 40
0.4
 40
0.4
 40
0.6
 40
0.6
 40
0.6
 40
0.6
 40
1.0
 40
1.0
 40
1.0
 40
1.0
 10
0.2488
 20
2.2015
 30
0.0
 10
0.2488
 20
2.2015
 30
0.0
 10
0.2488
 20
1.7291
 30
0.0
 10
0.2488
 20
1.7291
 30
0.0
 10
0.2488
 20
1.7291
 30
0.0
 10
0.2488
 20
1.7291
 30
0.0
 10
0.2488
 20
-1.8708
 30
0.0
 10
0.2488
 20
-1.8708
 30
0.0
 10
0.2488
 20
-1.8708
 30
0.0
 10
0.2488
 20
-1.8708
 30
0.0
 10
0.2488
 20
-2.343
 30
0.0
 10
0.2488
 20
-2.343
 30
0.0
 10
0.2488
 20
-2.343
 30
0.0
 10
0.2488
 20
-2.343
 30
0.0
 10
0.2448
 20
-2.4158
 30
0.0
 10
0.2448
 20
-2.4158
 30
0.0
  0
SPLINE
  5
E5
330
1F
100
AcDbEntity
  8
Ilustrace
 62
   250
370
    30
100
AcDbSpline
210
0.0
220
0.0
230
1.0
 70
     8
 71
     3
 72
    12
 73
     8
 74
     0
 42
0.0000000001
 43
0.0000000001
 40
0.0
 40
0.0
 40
0.0
 40
0.0
 40
0.3333333333333333
 40
0.3333333333333333
 40
0.3333333333333333
 40
0.3333333333333333
 40
1.0
 40
1.0
 40
1.0
 40
1.0
 10
0.2448
 20
-2.4158
 30
0.0
 10
0.2068
 20
-2.7535
 30
0.0
 10
-0.0738
 20
-2.9741
 30
0.0
 10
-0.4006
 20
-2.9924
 30
0.0
 10
-0.4006
 20
-2.9924
 30
0.0
 10
-0.7272
 20
-2.9741
 30
0.0
 10
-1.0077
 20
-2.7535
 30
0.0
 10
-1.0458
 20
-2.4158
 30
0.0
  0
SPLINE
  5
E6
330
1F
100
AcDbEntity
  8
Ilustrace
 62
   250
370
    30
100
AcDbSpline
210
0.0
220
0.0
230
1.0
 70
     8
 71
     3
 72
    20
 73
    16
 74
     0
 42
0.0000000001
 43
0.0000000001
 40
0.0
 40
0.0
 40
0.0
 40
0.0
 40
0.2
 40
0.2
 40
0.2
 40
0.2
 40
0.4
 40
0.4
 40
0.4
 40
0.4
 40
0.6
 40
0.6
 40
0.6
 40
0.6
 40
1.0
 40
1.0
 40
1.0
 40
1.0
 10
-1.0458
 20
-2.4158
 30
0.0
 10
-1.0458
 20
-2.4158
 30
0.0
 10
-1.0499
 20
-2.343
 30
0.0
 10
-1.0499
 20
-2.343
 30
0.0
 10
-1.0499
 20
-2.343
 30
0.0
 10
-1.0499
 20
-2.343
 30
0.0
 10
-1.0499
 20
-1.8708
 30
0.0
 10
-1.0499
 20
-1.8708
 30
0.0
 10
-1.0499
 20
-1.8708
 30
0.0
 10
-1.0499
 20
-1.8708
 30
0.0
 10
-1.0499
 20
1.5821
 30
0.0
 10
-1.0499
 20
1.5821
 30
0.0
 10
-1.0499
 20
1.5821
 30
0.0
 10
-1.0499
 20
1.5821
 30
0.0
 10
-1.0499
 20
2.0543
 30
0.0
 10
-1.0499
 20
2.0543
 30
0.0
  0
SPLINE
  5
E7
330
1F
100
AcDbEntity
  8
Ilustrace
 62
   254
100
AcDbSpline
210
0.0
220
0.0
230
1.0
 70
    11
 71
     3
 72
    20
 73
    16
 74
     0
 42
0.0000000001
 43
0.0000000001
 40
0.0
 40
0.0
 40
0.0
 40
0.0
 40
0.2
 40
0.2
 40
0.2
 40
0.2
 40
0.4
 40
0.4
 40
0.4
 40
0.4
 40
0.6
 40
0.6
 40
0.6
 40
0.6
 40
1.0
 40
1.0
 40
1.0
 40
1.0
 10
-14.5323
 20
-16.3144
 30
0.0
 10
-14.5323
 20
-16.3144
 30
0.0
 10
6.1272
 20
-16.3144
 30
0.0
 10
6.1272
 20
-16.3144
 30
0.0
 10
6.1272
 20
-16.3144
 30
0.0
 10
6.1272
 20
-16.3144
 30
0.0
 10
6.1272
 20
-7.4508
 30
0.0
 10
6.1272
 20
-7.4508
 30
0.0
 10
6.1272
 20
-7.4508
 30
0.0
 10
6.1272
 20
-7.4508
 30
0.0
 10
-14.5323
 20
-7.4508
 30
0.0
 10
-14.5323
 20
-7.4508
 30
0.0
 10
-14.5323
 20
-7.4508
 30
0.0
 10
-14.5323
 20
-7.4508
 30
0.0
 10
-14.5323
 20
-16.3144
 30
0.0
 10
-14.5323
 20
-16.3144
 30
0.0
  0
SPLINE
  5
E8
330
1F
100
AcDbEntity
  8
Ilustrace
 62
   254
100
AcDbSpline
210
0.0
220
0.0
230
1.0
 70
    11
 71
     3
 72
   232
 73
   228
 74
     0
 42
0.0000000001
 43
0.0000000001
 40
0.0
 40
0.0
 40
0.0
 40
0.0
 40
0.0172413793103448
 40
0.0172413793103448
 40
0.0172413793103448
 40
0.0172413793103448
 40
0.0344827586206897
 40
0.0344827586206897
 40
0.0344827586206897
 40
0.0344827586206897
 40
0.0517241379310345
 40
0.0517241379310345
 40
0.0517241379310345
 40
0.0517241379310345
 40
0.0689655172413793
 40
0.0689655172413793
 40
0.0689655172413793
 40
0.0689655172413793
 40
0.0862068965517241
 40
0.0862068965517241
 40
0.0862068965517241
 40
0.0862068965517241
 40
0.103448275862069
 40
0.103448275862069
 40
0.103448275862069
 40
0.103448275862069
 40
0.1206896551724138
 40
0.1206896551724138
 40
0.1206896551724138
 40
0.1206896551724138
 40
0.1379310344827586
 40
0.1379310344827586
 40
0.1379310344827586
 40
0.1379310344827586
 40
0.1551724137931035
 40
0.1551724137931035
 40
0.1551724137931035
 40
0.1551724137931035
 40
0.1724137931034483
 40
0.1724137931034483
 40
0.1724137931034483
 40
0.1724137931034483
 40
0.1896551724137931
 40
0.1896551724137931
 40
0.1896551724137931
 40
0.1896551724137931
 40
0.2068965517241379
 40
0.2068965517241379
 40
0.2068965517241379
 40
0.2068965517241379
 40
0.2241379310344828
 40
0.2241379310344828
 40
0.2241379310344828
 40
0.2241379310344828
 40
0.2413793103448276
 40
0.2413793103448276
 40
0.2413793103448276
 40
0.2413793103448276
 40
0.2586206896551724
 40
0.2586206896551724
 40
0.2586206896551724
 40
0.2586206896551724
 40
0.2758620689655172
 40
0.2758620689655172
 40
0.2758620689655172
 40
0.2758620689655172
 40
0.293103448275862
 40
0.293103448275862
 40
0.293103448275862
 40
0.293103448275862
 40
0.3103448275862069
 40
0.3103448275862069
 40
0.3103448275862069
 40
0.3103448275862069
 40
0.3275862068965517
 40
0.3275862068965517
 40
0.3275862068965517
 40
0.3275862068965517
 40
0.3448275862068966
 40
0.3448275862068966
 40
0.3448275862068966
 40
0.3448275862068966
 40
0.3620689655172414
 40
0.3620689655172414
 40
0.3620689655172414
 40
0.3620689655172414
 40
0.3793103448275862
 40
0.3793103448275862
 40
0.3793103448275862
 40
0.3793103448275862
 40
0.396551724137931
 40
0.396551724137931
 40
0.396551724137931
 40
0.396551724137931
 40
0.4137931034482759
 40
0.4137931034482759
 40
0.4137931034482759
 40
0.4137931034482759
 40
0.4310344827586207
 40
0.4310344827586207
 40
0.4310344827586207
 40
0.4310344827586207
 40
0.4482758620689655
 40
0.4482758620689655
 40
0.4482758620689655
 40
0.4482758620689655
 40
0.4655172413793103
 40
0.4655172413793103
 40
0.4655172413793103
 40
0.4655172413793103
 40
0.4827586206896552
 40
0.4827586206896552
 40
0.4827586206896552
 40
0.4827586206896552
 40
0.5
 40
0.5
 40
0.5
 40
0.5
 40
0.5172413793103449
 40
0.5172413793103449
 40
0.5172413793103449
 40
0.5172413793103449
 40
0.5344827586206896
 40
0.5344827586206896
 40
0.5344827586206896
 40
0.5344827586206896
 40
0.5517241379310345
 40
0.5517241379310345
 40
0.5517241379310345
 40
0.5517241379310345
 40
0.5689655172413793
 40
0.5689655172413793
 40
0.5689655172413793
 40
0.5689655172413793
 40
0.5862068965517241
 40
0.5862068965517241
 40
0.5862068965517241
 40
0.5862068965517241
 40
0.603448275862069
 40
0.603448275862069
 40
0.603448275862069
 40
0.603448275862069
 40
0.6206896551724138
 40
0.6206896551724138
 40
0.6206896551724138
 40
0.6206896551724138
 40
0.6379310344827587
 40
0.6379310344827587
 40
0.6379310344827587
 40
0.6379310344827587
 40
0.6551724137931034
 40
0.6551724137931034
 40
0.6551724137931034
 40
0.6551724137931034
 40
0.6724137931034483
 40
0.6724137931034483
 40
0.6724137931034483
 40
0.6724137931034483
 40
0.6896551724137931
 40
0.6896551724137931
 40
0.6896551724137931
 40
0.6896551724137931
 40
0.7068965517241379
 40
0.7068965517241379
 40
0.7068965517241379
 40
0.7068965517241379
 40
0.7241379310344828
 40
0.7241379310344828
 40
0.7241379310344828
 40
0.7241379310344828
 40
0.7413793103448276
 40
0.7413793103448276
 40
0.7413793103448276
 40
0.7413793103448276
 40
0.7586206896551724
 40
0.7586206896551724
 40
0.7586206896551724
 40
0.7586206896551724
 40
0.7758620689655172
 40
0.7758620689655172
 40
0.7758620689655172
 40
0.7758620689655172
 40
0.7931034482758621
 40
0.7931034482758621
 40
0.7931034482758621
 40
0.7931034482758621
 40
0.8103448275862069
 40
0.8103448275862069
 40
0.8103448275862069
 40
0.8103448275862069
 40
0.8275862068965517
 40
0.8275862068965517
 40
0.8275862068965517
 40
0.8275862068965517
 40
0.8448275862068966
 40
0.8448275862068966
 40
0.8448275862068966
 40
0.8448275862068966
 40
0.8620689655172413
 40
0.8620689655172413
 40
0.8620689655172413
 40
0.8620689655172413
 40
0.8793103448275862
 40
0.8793103448275862
 40
0.8793103448275862
 40
0.8793103448275862
 40
0.896551724137931
 40
0.896551724137931
 40
0.896551724137931
 40
0.896551724137931
 40
0.9137931034482759
 40
0.9137931034482759
 40
0.9137931034482759
 40
0.9137931034482759
 40
0.9310344827586207
 40
0.9310344827586207
 40
0.9310344827586207
 40
0.9310344827586207
 40
0.9482758620689655
 40
0.9482758620689655
 40
0.9482758620689655
 40
0.9482758620689655
 40
0.9655172413793104
 40
0.9655172413793104
 40
0.9655172413793104
 40
0.9655172413793104
 40
1.0
 40
1.0
 40
1.0
 40
1.0
 10
-9.5546
 20
-7.2914
 30
0.0
 10
-9.3096
 20
-7.0806
 30
0.0
 10
-9.0491
 20
-6.905
 30
0.0
 10
-8.7403
 20
-6.8001
 30
0.0
 10
-8.7403
 20
-6.8001
 30
0.0
 10
-8.1081
 20
-6.5857
 30
0.0
 10
-7.4075
 20
-6.6335
 30
0.0
 10
-6.8208
 20
-6.9579
 30
0.0
 10
-6.8208
 20
-6.9579
 30
0.0
 10
-6.6565
 20
-7.0488
 30
0.0
 10
-6.4914
 20
-7.1581
 30
0.0
 10
-6.3581
 20
-7.2914
 30
0.0
 10
-6.3581
 20
-7.2914
 30
0.0
 10
-6.3581
 20
-7.2914
 30
0.0
 10
-6.3581
 20
-7.442
 30
0.0
 10
-6.3581
 20
-7.442
 30
0.0
 10
-6.3581
 20
-7.442
 30
0.0
 10
-6.3581
 20
-7.442
 30
0.0
 10
-1.8374
 20
-8.1556
 30
0.0
 10
-1.8374
 20
-8.1556
 30
0.0
 10
-1.8374
 20
-8.1556
 30
0.0
 10
-1.8374
 20
-8.1556
 30
0.0
 10
-2.1173
 20
-7.442
 30
0.0
 10
-2.1173
 20
-7.442
 30
0.0
 10
-2.1173
 20
-7.442
 30
0.0
 10
-2.1173
 20
-7.442
 30
0.0
 10
-2.1173
 20
-7.2914
 30
0.0
 10
-2.1173
 20
-7.2914
 30
0.0
 10
-2.1173
 20
-7.2914
 30
0.0
 10
-1.9797
 20
-7.1539
 30
0.0
 10
-1.8069
 20
-7.0395
 30
0.0
 10
-1.6364
 20
-6.9472
 30
0.0
 10
-1.6364
 20
-6.9472
 30
0.0
 10
-0.8777
 20
-6.5358
 30
0.0
 10
0.0718
 20
-6.5868
 30
0.0
 10
0.7889
 20
-7.0618
 30
0.0
 10
0.7889
 20
-7.0618
 30
0.0
 10
0.887
 20
-7.1269
 30
0.0
 10
0.9953
 20
-7.2073
 30
0.0
 10
1.0794
 20
-7.2914
 30
0.0
 10
1.0794
 20
-7.2914
 30
0.0
 10
1.0794
 20
-7.2914
 30
0.0
 10
1.0794
 20
-7.442
 30
0.0
 10
1.0794
 20
-7.442
 30
0.0
 10
1.0794
 20
-7.442
 30
0.0
 10
1.0794
 20
-7.442
 30
0.0
 10
-2.1173
 20
-7.442
 30
0.0
 10
-2.1173
 20
-7.442
 30
0.0
 10
-2.1173
 20
-7.442
 30
0.0
 10
-2.1173
 20
-7.442
 30
0.0
 10
-1.8374
 20
-8.1556
 30
0.0
 10
-1.8374
 20
-8.1556
 30
0.0
 10
-1.8374
 20
-8.1556
 30
0.0
 10
-1.8374
 20
-8.1556
 30
0.0
 10
0.796
 20
-8.1556
 30
0.0
 10
0.796
 20
-8.1556
 30
0.0
 10
0.796
 20
-8.1556
 30
0.0
 10
0.796
 20
-8.1556
 30
0.0
 10
0.8031
 20
-8.1878
 30
0.0
 10
0.8031
 20
-8.1878
 30
0.0
 10
0.8031
 20
-8.1878
 30
0.0
 10
0.8031
 20
-8.1878
 30
0.0
 10
0.8031
 20
-8.4315
 30
0.0
 10
0.8031
 20
-8.4315
 30
0.0
 10
0.8031
 20
-8.4315
 30
0.0
 10
0.8031
 20
-8.4315
 30
0.0
 10
0.43
 20
-8.6467
 30
0.0
 10
0.43
 20
-8.6467
 30
0.0
 10
0.43
 20
-8.6467
 30
0.0
 10
0.43
 20
-8.6467
 30
0.0
 10
0.4228
 20
-8.6467
 30
0.0
 10
0.4228
 20
-8.6467
 30
0.0
 10
0.4228
 20
-8.6467
 30
0.0
 10
0.4228
 20
-8.6467
 30
0.0
 10
0.4264
 20
-9.1487
 30
0.0
 10
0.4264
 20
-9.1487
 30
0.0
 10
0.4264
 20
-9.1487
 30
0.0
 10
0.4264
 20
-9.1487
 30
0.0
 10
0.4228
 20
-9.1666
 30
0.0
 10
0.4228
 20
-9.1666
 30
0.0
 10
0.4228
 20
-9.1666
 30
0.0
 10
0.4228
 20
-9.1666
 30
0.0
 10
0.0712
 20
-9.1703
 30
0.0
 10
0.0712
 20
-9.1703
 30
0.0
 10
0.0712
 20
-9.1703
 30
0.0
 10
0.0712
 20
-9.1703
 30
0.0
 10
0.0712
 20
-11.0994
 30
0.0
 10
0.0712
 20
-11.0994
 30
0.0
 10
0.0712
 20
-11.0994
 30
0.0
 10
0.0712
 20
-11.0994
 30
0.0
 10
-0.0472
 20
-11.2177
 30
0.0
 10
-0.0472
 20
-11.2177
 30
0.0
 10
-0.0472
 20
-11.2177
 30
0.0
 10
-0.0472
 20
-11.2177
 30
0.0
 10
-0.9907
 20
-11.2177
 30
0.0
 10
-0.9907
 20
-11.2177
 30
0.0
 10
-0.9907
 20
-11.2177
 30
0.0
 10
-0.9907
 20
-11.2177
 30
0.0
 10
-1.1091
 20
-11.0994
 30
0.0
 10
-1.1091
 20
-11.0994
 30
0.0
 10
-1.1091
 20
-11.0994
 30
0.0
 10
-1.1091
 20
-11.0994
 30
0.0
 10
-1.1091
 20
-9.1703
 30
0.0
 10
-1.1091
 20
-9.1703
 30
0.0
 10
-1.1091
 20
-9.1703
 30
0.0
 10
-1.1091
 20
-9.1703
 30
0.0
 10
-1.4607
 20
-9.1666
 30
0.0
 10
-1.4607
 20
-9.1666
 30
0.0
 10
-1.4607
 20
-9.1666
 30
0.0
 10
-1.4607
 20
-9.1666
 30
0.0
 10
-1.4643
 20
-9.1487
 30
0.0
 10
-1.4643
 20
-9.1487
 30
0.0
 10
-1.4643
 20
-9.1487
 30
0.0
 10
-1.4643
 20
-9.1487
 30
0.0
 10
-1.4607
 20
-8.6467
 30
0.0
 10
-1.4607
 20
-8.6467
 30
0.0
 10
-1.4607
 20
-8.6467
 30
0.0
 10
-1.4607
 20
-8.6467
 30
0.0
 10
-1.4679
 20
-8.6467
 30
0.0
 10
-1.4679
 20
-8.6467
 30
0.0
 10
-1.4679
 20
-8.6467
 30
0.0
 10
-1.4679
 20
-8.6467
 30
0.0
 10
-1.841
 20
-8.4315
 30
0.0
 10
-1.841
 20
-8.4315
 30
0.0
 10
-1.841
 20
-8.4315
 30
0.0
 10
-1.841
 20
-8.4315
 30
0.0
 10
-1.841
 20
-8.1878
 30
0.0
 10
-1.841
 20
-8.1878
 30
0.0
 10
-1.841
 20
-8.1878
 30
0.0
 10
-1.841
 20
-8.1878
 30
0.0
 10
-1.8374
 20
-8.1556
 30
0.0
 10
-1.8374
 20
-8.1556
 30
0.0
 10
-1.8374
 20
-8.1556
 30
0.0
 10
-1.8374
 20
-8.1556
 30
0.0
 10
-6.3581
 20
-7.442
 30
0.0
 10
-6.3581
 20
-7.442
 30
0.0
 10
-6.3581
 20
-7.442
 30
0.0
 10
-6.3581
 20
-7.442
 30
0.0
 10
-9.5546
 20
-7.442
 30
0.0
 10
-9.5546
 20
-7.442
 30
0.0
 10
-9.5546
 20
-7.442
 30
0.0
 10
-9.5546
 20
-7.442
 30
0.0
 10
-9.2748
 20
-8.1556
 30
0.0
 10
-9.2748
 20
-8.1556
 30
0.0
 10
-9.2748
 20
-8.1556
 30
0.0
 10
-9.2748
 20
-8.1556
 30
0.0
 10
-6.6414
 20
-8.1556
 30
0.0
 10
-6.6414
 20
-8.1556
 30
0.0
 10
-6.6414
 20
-8.1556
 30
0.0
 10
-6.6414
 20
-8.1556
 30
0.0
 10
-6.6378
 20
-8.1699
 30
0.0
 10
-6.6378
 20
-8.1699
 30
0.0
 10
-6.6378
 20
-8.1699
 30
0.0
 10
-6.6378
 20
-8.1699
 30
0.0
 10
-6.6378
 20
-8.4315
 30
0.0
 10
-6.6378
 20
-8.4315
 30
0.0
 10
-6.6378
 20
-8.4315
 30
0.0
 10
-6.6378
 20
-8.4315
 30
0.0
 10
-7.0074
 20
-8.6467
 30
0.0
 10
-7.0074
 20
-8.6467
 30
0.0
 10
-7.0074
 20
-8.6467
 30
0.0
 10
-7.0074
 20
-8.6467
 30
0.0
 10
-7.0145
 20
-8.6467
 30
0.0
 10
-7.0145
 20
-8.6467
 30
0.0
 10
-7.0145
 20
-8.6467
 30
0.0
 10
-7.0145
 20
-8.6467
 30
0.0
 10
-7.0145
 20
-9.1666
 30
0.0
 10
-7.0145
 20
-9.1666
 30
0.0
 10
-7.0145
 20
-9.1666
 30
0.0
 10
-7.0145
 20
-9.1666
 30
0.0
 10
-7.3697
 20
-9.1666
 30
0.0
 10
-7.3697
 20
-9.1666
 30
0.0
 10
-7.3697
 20
-9.1666
 30
0.0
 10
-7.3697
 20
-9.1666
 30
0.0
 10
-7.3697
 20
-11.1029
 30
0.0
 10
-7.3697
 20
-11.1029
 30
0.0
 10
-7.3697
 20
-11.1029
 30
0.0
 10
-7.3697
 20
-11.1029
 30
0.0
 10
-7.4846
 20
-11.2177
 30
0.0
 10
-7.4846
 20
-11.2177
 30
0.0
 10
-7.4846
 20
-11.2177
 30
0.0
 10
-7.4846
 20
-11.2177
 30
0.0
 10
-8.4282
 20
-11.2177
 30
0.0
 10
-8.4282
 20
-11.2177
 30
0.0
 10
-8.4282
 20
-11.2177
 30
0.0
 10
-8.4282
 20
-11.2177
 30
0.0
 10
-8.5465
 20
-11.0994
 30
0.0
 10
-8.5465
 20
-11.0994
 30
0.0
 10
-8.5465
 20
-11.0994
 30
0.0
 10
-8.5465
 20
-11.0994
 30
0.0
 10
-8.5465
 20
-9.1703
 30
0.0
 10
-8.5465
 20
-9.1703
 30
0.0
 10
-8.5465
 20
-9.1703
 30
0.0
 10
-8.5465
 20
-9.1703
 30
0.0
 10
-8.8981
 20
-9.1666
 30
0.0
 10
-8.8981
 20
-9.1666
 30
0.0
 10
-8.8981
 20
-9.1666
 30
0.0
 10
-8.8981
 20
-9.1666
 30
0.0
 10
-8.9017
 20
-9.1487
 30
0.0
 10
-8.9017
 20
-9.1487
 30
0.0
 10
-8.9017
 20
-9.1487
 30
0.0
 10
-8.9017
 20
-9.1487
 30
0.0
 10
-8.8981
 20
-8.6467
 30
0.0
 10
-8.8981
 20
-8.6467
 30
0.0
 10
-8.8981
 20
-8.6467
 30
0.0
 10
-8.8981
 20
-8.6467
 30
0.0
 10
-8.9053
 20
-8.6467
 30
0.0
 10
-8.9053
 20
-8.6467
 30
0.0
 10
-8.9053
 20
-8.6467
 30
0.0
 10
-8.9053
 20
-8.6467
 30
0.0
 10
-9.2783
 20
-8.4315
 30
0.0
 10
-9.2783
 20
-8.4315
 30
0.0
 10
-9.2783
 20
-8.4315
 30
0.0
 10
-9.2783
 20
-8.4315
 30
0.0
 10
-9.2783
 20
-8.1806
 30
0.0
 10
-9.2783
 20
-8.1806
 30
0.0
 10
-9.2783
 20
-8.1806
 30
0.0
 10
-9.2783
 20
-8.1806
 30
0.0
 10
-9.2748
 20
-8.1556
 30
0.0
 10
-9.2748
 20
-8.1556
 30
0.0
 10
-9.2748
 20
-8.1556
 30
0.0
 10
-9.2748
 20
-8.1556
 30
0.0
 10
-9.5546
 20
-7.442
 30
0.0
 10
-9.5546
 20
-7.442
 30
0.0
 10
-9.5546
 20
-7.442
 30
0.0
 10
-9.5546
 20
-7.442
 30
0.0
 10
-9.5546
 20
-7.2914
 30
0.0
 10
-9.5546
 20
-7.2914
 30
0.0
  0
SPLINE
  5
E9
330
1F
100
AcDbEntity
  8
Ilustrace
 62
   250
370
    30
100
AcDbSpline
210
0.0
220
0.0
230
1.0
 70
    24
 71
     3
 72
     8
 73
     4
 74
     0
 42
0.0000000001
 43
0.0000000001
 40
0.0
 40
0.0
 40
0.0
 40
0.0
 40
1.0
 40
1.0
 40
1.0
 40
1.0
 10
-7.4844
 20
-11.2231
 30
0.0
 10
-7.4844
 20
-11.2231
 30
0.0
 10
-8.4289
 20
-11.2231
 30
0.0
 10
-8.4289
 20
-11.2231
 30
0.0
  0
SPLINE
  5
EA
330
1F
100
AcDbEntity
  8
Ilustrace
 62
   250
370
    30
100
AcDbSpline
210
0.0
220
0.0
230
1.0
 70
    24
 71
     3
 72
     8
 73
     4
 74
     0
 42
0.0000000001
 43
0.0000000001
 40
0.0
 40
0.0
 40
0.0
 40
0.0
 40
1.0
 40
1.0
 40
1.0
 40
1.0
 10
-7.3664
 20
-11.1049
 30
0.0
 10
-7.3664
 20
-11.1049
 30
0.0
 10
-8.547
 20
-11.1049
 30
0.0
 10
-8.547
 20
-11.1049
 30
0.0
  0
SPLINE
  5
EB
330
1F
100
AcDbEntity
  8
Ilustrace
 62
   250
370
    15
100
AcDbSpline
210
0.0
220
0.0
230
1.0
 70
    24
 71
     3
 72
     8
 73
     4
 74
     0
 42
0.0000000001
 43
0.0000000001
 40
0.0
 40
0.0
 40
0.0
 40
0.0
 40
1.0
 40
1.0
 40
1.0
 40
1.0
 10
-7.5932
 20
-10.7554
 30
0.0
 10
-7.5932
 20
-10.7554
 30
0.0
 10
-8.3495
 20
-10.7554
 30
0.0
 10
-8.3495
 20
-10.7554
 30
0.0
  0
SPLINE
  5
EC
330
1F
100
AcDbEntity
  8
Ilustrace
 62
   250
370
    15
100
AcDbSpline
210
0.0
220
0.0
230
1.0
 70
    24
 71
     3
 72
     8
 73
     4
 74
     0
 42
0.0000000001
 43
0.0000000001
 40
0.0
 40
0.0
 40
0.0
 40
0.0
 40
1.0
 40
1.0
 40
1.0
 40
1.0
 10
-0.1519
 20
-10.8822
 30
0.0
 10
-0.1519
 20
-10.8822
 30
0.0
 10
-0.9082
 20
-10.8822
 30
0.0
 10
-0.9082
 20
-10.8822
 30
0.0
  0
SPLINE
  5
ED
330
1F
100
AcDbEntity
  8
Ilustrace
 62
   250
370
    15
100
AcDbSpline
210
0.0
220
0.0
230
1.0
 70
    24
 71
     3
 72
     8
 73
     4
 74
     0
 42
0.0000000001
 43
0.0000000001
 40
0.0
 40
0.0
 40
0.0
 40
0.0
 40
1.0
 40
1.0
 40
1.0
 40
1.0
 10
-7.5988
 20
-10.2649
 30
0.0
 10
-7.5988
 20
-10.2649
 30
0.0
 10
-8.3551
 20
-10.2649
 30
0.0
 10
-8.3551
 20
-10.2649
 30
0.0
  0
SPLINE
  5
EE
330
1F
100
AcDbEntity
  8
Ilustrace
 62
   250
370
    15
100
AcDbSpline
210
0.0
220
0.0
230
1.0
 70
    24
 71
     3
 72
     8
 73
     4
 74
     0
 42
0.0000000001
 43
0.0000000001
 40
0.0
 40
0.0
 40
0.0
 40
0.0
 40
1.0
 40
1.0
 40
1.0
 40
1.0
 10
-0.1575
 20
-10.3917
 30
0.0
 10
-0.1575
 20
-10.3917
 30
0.0
 10
-0.9138
 20
-10.3917
 30
0.0
 10
-0.9138
 20
-10.3917
 30
0.0
  0
SPLINE
  5
EF
330
1F
100
AcDbEntity
  8
Ilustrace
 62
   250
370
    15
100
AcDbSpline
210
0.0
220
0.0
230
1.0
 70
    24
 71
     3
 72
     8
 73
     4
 74
     0
 42
0.0000000001
 43
0.0000000001
 40
0.0
 40
0.0
 40
0.0
 40
0.0
 40
1.0
 40
1.0
 40
1.0
 40
1.0
 10
-7.5768
 20
-9.5318
 30
0.0
 10
-7.5768
 20
-9.5318
 30
0.0
 10
-8.3331
 20
-9.5318
 30
0.0
 10
-8.3331
 20
-9.5318
 30
0.0
  0
SPLINE
  5
F0
330
1F
100
AcDbEntity
  8
Ilustrace
 62
   250
370
    15
100
AcDbSpline
210
0.0
220
0.0
230
1.0
 70
    24
 71
     3
 72
     8
 73
     4
 74
     0
 42
0.0000000001
 43
0.0000000001
 40
0.0
 40
0.0
 40
0.0
 40
0.0
 40
1.0
 40
1.0
 40
1.0
 40
1.0
 10
-0.1355
 20
-9.6586
 30
0.0
 10
-0.1355
 20
-9.6586
 30
0.0
 10
-0.8918
 20
-9.6586
 30
0.0
 10
-0.8918
 20
-9.6586
 30
0.0
  0
SPLINE
  5
F1
330
1F
100
AcDbEntity
  8
Ilustrace
 62
   250
370
    15
100
AcDbSpline
210
0.0
220
0.0
230
1.0
 70
    24
 71
     3
 72
     8
 73
     4
 74
     0
 42
0.0000000001
 43
0.0000000001
 40
0.0
 40
0.0
 40
0.0
 40
0.0
 40
1.0
 40
1.0
 40
1.0
 40
1.0
 10
-7.5932
 20
-10.5055
 30
0.0
 10
-7.5932
 20
-10.5055
 30
0.0
 10
-8.3495
 20
-10.5055
 30
0.0
 10
-8.3495
 20
-10.5055
 30
0.0
  0
SPLINE
  5
F2
330
1F
100
AcDbEntity
  8
Ilustrace
 62
   250
370
    15
100
AcDbSpline
210
0.0
220
0.0
230
1.0
 70
    24
 71
     3
 72
     8
 73
     4
 74
     0
 42
0.0000000001
 43
0.0000000001
 40
0.0
 40
0.0
 40
0.0
 40
0.0
 40
1.0
 40
1.0
 40
1.0
 40
1.0
 10
-0.1519
 20
-10.6323
 30
0.0
 10
-0.1519
 20
-10.6323
 30
0.0
 10
-0.9082
 20
-10.6323
 30
0.0
 10
-0.9082
 20
-10.6323
 30
0.0
  0
SPLINE
  5
F3
330
1F
100
AcDbEntity
  8
Ilustrace
 62
   250
370
    15
100
AcDbSpline
210
0.0
220
0.0
230
1.0
 70
    24
 71
     3
 72
     8
 73
     4
 74
     0
 42
0.0000000001
 43
0.0000000001
 40
0.0
 40
0.0
 40
0.0
 40
0.0
 40
1.0
 40
1.0
 40
1.0
 40
1.0
 10
-7.5712
 20
-9.7724
 30
0.0
 10
-7.5712
 20
-9.7724
 30
0.0
 10
-8.3275
 20
-9.7724
 30
0.0
 10
-8.3275
 20
-9.7724
 30
0.0
  0
SPLINE
  5
F4
330
1F
100
AcDbEntity
  8
Ilustrace
 62
   250
370
    15
100
AcDbSpline
210
0.0
220
0.0
230
1.0
 70
    24
 71
     3
 72
     8
 73
     4
 74
     0
 42
0.0000000001
 43
0.0000000001
 40
0.0
 40
0.0
 40
0.0
 40
0.0
 40
1.0
 40
1.0
 40
1.0
 40
1.0
 10
-0.1299
 20
-9.8992
 30
0.0
 10
-0.1299
 20
-9.8992
 30
0.0
 10
-0.8862
 20
-9.8992
 30
0.0
 10
-0.8862
 20
-9.8992
 30
0.0
  0
SPLINE
  5
F5
330
1F
100
AcDbEntity
  8
Ilustrace
 62
   250
370
    15
100
AcDbSpline
210
0.0
220
0.0
230
1.0
 70
    24
 71
     3
 72
     8
 73
     4
 74
     0
 42
0.0000000001
 43
0.0000000001
 40
0.0
 40
0.0
 40
0.0
 40
0.0
 40
1.0
 40
1.0
 40
1.0
 40
1.0
 10
-7.5988
 20
-10.015
 30
0.0
 10
-7.5988
 20
-10.015
 30
0.0
 10
-8.3551
 20
-10.015
 30
0.0
 10
-8.3551
 20
-10.015
 30
0.0
  0
SPLINE
  5
F6
330
1F
100
AcDbEntity
  8
Ilustrace
 62
   250
370
    15
100
AcDbSpline
210
0.0
220
0.0
230
1.0
 70
    24
 71
     3
 72
     8
 73
     4
 74
     0
 42
0.0000000001
 43
0.0000000001
 40
0.0
 40
0.0
 40
0.0
 40
0.0
 40
1.0
 40
1.0
 40
1.0
 40
1.0
 10
-0.1575
 20
-10.1418
 30
0.0
 10
-0.1575
 20
-10.1418
 30
0.0
 10
-0.9138
 20
-10.1418
 30
0.0
 10
-0.9138
 20
-10.1418
 30
0.0
  0
SPLINE
  5
F7
330
1F
100
AcDbEntity
  8
Ilustrace
 62
   250
370
    15
100
AcDbSpline
210
0.0
220
0.0
230
1.0
 70
    24
 71
     3
 72
     8
 73
     4
 74
     0
 42
0.0000000001
 43
0.0000000001
 40
0.0
 40
0.0
 40
0.0
 40
0.0
 40
1.0
 40
1.0
 40
1.0
 40
1.0
 10
-7.5768
 20
-9.2819
 30
0.0
 10
-7.5768
 20
-9.2819
 30
0.0
 10
-8.3331
 20
-9.2819
 30
0.0
 10
-8.3331
 20
-9.2819
 30
0.0
  0
SPLINE
  5
F8
330
1F
100
AcDbEntity
  8
Ilustrace
 62
   250
370
    15
100
AcDbSpline
210
0.0
220
0.0
230
1.0
 70
    24
 71
     3
 72
     8
 73
     4
 74
     0
 42
0.0000000001
 43
0.0000000001
 40
0.0
 40
0.0
 40
0.0
 40
0.0
 40
1.0
 40
1.0
 40
1.0
 40
1.0
 10
-0.1355
 20
-9.4087
 30
0.0
 10
-0.1355
 20
-9.4087
 30
0.0
 10
-0.8918
 20
-9.4087
 30
0.0
 10
-0.8918
 20
-9.4087
 30
0.0
  0
SPLINE
  5
F9
330
1F
100
AcDbEntity
  8
Ilustrace
 62
   250
370
    30
100
AcDbSpline
210
0.0
220
0.0
230
1.0
 70
    24
 71
     3
 72
     8
 73
     4
 74
     0
 42
0.0000000001
 43
0.0000000001
 40
0.0
 40
0.0
 40
0.0
 40
0.0
 40
1.0
 40
1.0
 40
1.0
 40
1.0
 10
-6.357
 20
-7.4449
 30
0.0
 10
-6.357
 20
-7.4449
 30
0.0
 10
-6.357
 20
-7.2902
 30
0.0
 10
-6.357
 20
-7.2902
 30
0.0
  0
SPLINE
  5
FA
330
1F
100
AcDbEntity
  8
Ilustrace
 62
   250
370
    30
100
AcDbSpline
210
0.0
220
0.0
230
1.0
 70
    24
 71
     3
 72
     8
 73
     4
 74
     0
 42
0.0000000001
 43
0.0000000001
 40
0.0
 40
0.0
 40
0.0
 40
0.0
 40
1.0
 40
1.0
 40
1.0
 40
1.0
 10
-9.5565
 20
-7.4449
 30
0.0
 10
-9.5565
 20
-7.4449
 30
0.0
 10
-9.5565
 20
-7.2902
 30
0.0
 10
-9.5565
 20
-7.2902
 30
0.0
  0
SPLINE
  5
FB
330
1F
100
AcDbEntity
  8
Ilustrace
 62
   250
370
    30
100
AcDbSpline
210
0.0
220
0.0
230
1.0
 70
    24
 71
     3
 72
    12
 73
     8
 74
     0
 42
0.0000000001
 43
0.0000000001
 40
0.0
 40
0.0
 40
0.0
 40
0.0
 40
0.3333333333333333
 40
0.3333333333333333
 40
0.3333333333333333
 40
0.3333333333333333
 40
1.0
 40
1.0
 40
1.0
 40
1.0
 10
-7.3664
 20
-9.1686
 30
0.0
 10
-7.3664
 20
-9.1686
 30
0.0
 10
-7.3664
 20
-9.6408
 30
0.0
 10
-7.3664
 20
-9.6408
 30
0.0
 10
-7.3664
 20
-9.6408
 30
0.0
 10
-7.3664
 20
-9.6408
 30
0.0
 10
-7.3664
 20
-10.6327
 30
0.0
 10
-7.3664
 20
-10.6327
 30
0.0
  0
SPLINE
  5
FC
330
1F
100
AcDbEntity
  8
Ilustrace
 62
   250
370
    30
100
AcDbSpline
210
0.0
220
0.0
230
1.0
 70
     8
 71
     3
 72
     8
 73
     4
 74
     0
 42
0.0000000001
 43
0.0000000001
 40
0.0
 40
0.0
 40
0.0
 40
0.0
 40
1.0
 40
1.0
 40
1.0
 40
1.0
 10
-7.3664
 20
-10.6327
 30
0.0
 10
-7.3664
 20
-11.1606
 30
0.0
 10
-7.255
 20
-10.9936
 30
0.0
 10
-7.4844
 20
-11.2231
 30
0.0
  0
SPLINE
  5
FD
330
1F
100
AcDbEntity
  8
Ilustrace
 62
   250
370
    30
100
AcDbSpline
210
0.0
220
0.0
230
1.0
 70
     8
 71
     3
 72
    16
 73
    12
 74
     0
 42
0.0000000001
 43
0.0000000001
 40
0.0
 40
0.0
 40
0.0
 40
0.0
 40
0.25
 40
0.25
 40
0.25
 40
0.25
 40
0.5
 40
0.5
 40
0.5
 40
0.5
 40
1.0
 40
1.0
 40
1.0
 40
1.0
 10
-7.4844
 20
-11.2231
 30
0.0
 10
-7.4844
 20
-11.2231
 30
0.0
 10
-8.4289
 20
-11.2231
 30
0.0
 10
-8.4289
 20
-11.2231
 30
0.0
 10
-8.4289
 20
-11.2231
 30
0.0
 10
-8.4289
 20
-11.2231
 30
0.0
 10
-8.547
 20
-11.1049
 30
0.0
 10
-8.547
 20
-11.1049
 30
0.0
 10
-8.547
 20
-11.1049
 30
0.0
 10
-8.547
 20
-11.1049
 30
0.0
 10
-8.547
 20
-9.1686
 30
0.0
 10
-8.547
 20
-9.1686
 30
0.0
  0
SPLINE
  5
FE
330
1F
100
AcDbEntity
  8
Ilustrace
 62
   250
370
    30
100
AcDbSpline
210
0.0
220
0.0
230
1.0
 70
     8
 71
     3
 72
    20
 73
    16
 74
     0
 42
0.0000000001
 43
0.0000000001
 40
0.0
 40
0.0
 40
0.0
 40
0.0
 40
0.2
 40
0.2
 40
0.2
 40
0.2
 40
0.4
 40
0.4
 40
0.4
 40
0.4
 40
0.6
 40
0.6
 40
0.6
 40
0.6
 40
1.0
 40
1.0
 40
1.0
 40
1.0
 10
-6.357
 20
-7.2902
 30
0.0
 10
-6.7111
 20
-6.9899
 30
0.0
 10
-7.1051
 20
-6.7752
 30
0.0
 10
-7.5679
 20
-6.6979
 30
0.0
 10
-7.5679
 20
-6.6979
 30
0.0
 10
-7.7393
 20
-6.6692
 30
0.0
 10
-7.7835
 20
-6.6728
 30
0.0
 10
-7.9566
 20
-6.6656
 30
0.0
 10
-7.9566
 20
-6.6656
 30
0.0
 10
-8.13
 20
-6.6728
 30
0.0
 10
-8.174
 20
-6.6692
 30
0.0
 10
-8.3454
 20
-6.6979
 30
0.0
 10
-8.3454
 20
-6.6979
 30
0.0
 10
-8.8082
 20
-6.7752
 30
0.0
 10
-9.2023
 20
-6.9899
 30
0.0
 10
-9.5565
 20
-7.2902
 30
0.0
  0
SPLINE
  5
FF
330
1F
100
AcDbEntity
  8
Ilustrace
 62
   250
370
    30
100
AcDbSpline
210
0.0
220
0.0
230
1.0
 70
    24
 71
     3
 72
     8
 73
     4
 74
     0
 42
0.0000000001
 43
0.0000000001
 40
0.0
 40
0.0
 40
0.0
 40
0.0
 40
1.0
 40
1.0
 40
1.0
 40
1.0
 10
-0.0463
 20
-11.2231
 30
0.0
 10
-0.0463
 20
-11.2231
 30
0.0
 10
-0.9909
 20
-11.2231
 30
0.0
 10
-0.9909
 20
-11.2231
 30
0.0
  0
SPLINE
  5
100
330
1F
100
AcDbEntity
  8
Ilustrace
 62
   250
370
    30
100
AcDbSpline
210
0.0
220
0.0
230
1.0
 70
    24
 71
     3
 72
     8
 73
     4
 74
     0
 42
0.0000000001
 43
0.0000000001
 40
0.0
 40
0.0
 40
0.0
 40
0.0
 40
1.0
 40
1.0
 40
1.0
 40
1.0
 10
0.0718
 20
-11.1049
 30
0.0
 10
0.0718
 20
-11.1049
 30
0.0
 10
-1.109
 20
-11.1049
 30
0.0
 10
-1.109
 20
-11.1049
 30
0.0
  0
SPLINE
  5
101
330
1F
100
AcDbEntity
  8
Ilustrace
 62
   250
370
    30
100
AcDbSpline
210
0.0
220
0.0
230
1.0
 70
    24
 71
     3
 72
     8
 73
     4
 74
     0
 42
0.0000000001
 43
0.0000000001
 40
0.0
 40
0.0
 40
0.0
 40
0.0
 40
1.0
 40
1.0
 40
1.0
 40
1.0
 10
1.0812
 20
-7.4449
 30
0.0
 10
1.0812
 20
-7.4449
 30
0.0
 10
1.0812
 20
-7.2902
 30
0.0
 10
1.0812
 20
-7.2902
 30
0.0
  0
SPLINE
  5
102
330
1F
100
AcDbEntity
  8
Ilustrace
 62
   250
370
    30
100
AcDbSpline
210
0.0
220
0.0
230
1.0
 70
    24
 71
     3
 72
     8
 73
     4
 74
     0
 42
0.0000000001
 43
0.0000000001
 40
0.0
 40
0.0
 40
0.0
 40
0.0
 40
1.0
 40
1.0
 40
1.0
 40
1.0
 10
-2.1184
 20
-7.4449
 30
0.0
 10
-2.1184
 20
-7.4449
 30
0.0
 10
-2.1184
 20
-7.2902
 30
0.0
 10
-2.1184
 20
-7.2902
 30
0.0
  0
SPLINE
  5
103
330
1F
100
AcDbEntity
  8
Ilustrace
 62
   250
370
    30
100
AcDbSpline
210
0.0
220
0.0
230
1.0
 70
    24
 71
     3
 72
    12
 73
     8
 74
     0
 42
0.0000000001
 43
0.0000000001
 40
0.0
 40
0.0
 40
0.0
 40
0.0
 40
0.3333333333333333
 40
0.3333333333333333
 40
0.3333333333333333
 40
0.3333333333333333
 40
1.0
 40
1.0
 40
1.0
 40
1.0
 10
0.0718
 20
-9.1686
 30
0.0
 10
0.0718
 20
-9.1686
 30
0.0
 10
0.0718
 20
-9.6408
 30
0.0
 10
0.0718
 20
-9.6408
 30
0.0
 10
0.0718
 20
-9.6408
 30
0.0
 10
0.0718
 20
-9.6408
 30
0.0
 10
0.0718
 20
-10.6327
 30
0.0
 10
0.0718
 20
-10.6327
 30
0.0
  0
SPLINE
  5
104
330
1F
100
AcDbEntity
  8
Ilustrace
 62
   250
370
    30
100
AcDbSpline
210
0.0
220
0.0
230
1.0
 70
     8
 71
     3
 72
     8
 73
     4
 74
     0
 42
0.0000000001
 43
0.0000000001
 40
0.0
 40
0.0
 40
0.0
 40
0.0
 40
1.0
 40
1.0
 40
1.0
 40
1.0
 10
0.0718
 20
-10.6327
 30
0.0
 10
0.0718
 20
-11.1606
 30
0.0
 10
0.1831
 20
-10.9936
 30
0.0
 10
-0.0463
 20
-11.2231
 30
0.0
  0
SPLINE
  5
105
330
1F
100
AcDbEntity
  8
Ilustrace
 62
   250
370
    30
100
AcDbSpline
210
0.0
220
0.0
230
1.0
 70
     8
 71
     3
 72
    16
 73
    12
 74
     0
 42
0.0000000001
 43
0.0000000001
 40
0.0
 40
0.0
 40
0.0
 40
0.0
 40
0.25
 40
0.25
 40
0.25
 40
0.25
 40
0.5
 40
0.5
 40
0.5
 40
0.5
 40
1.0
 40
1.0
 40
1.0
 40
1.0
 10
-0.0463
 20
-11.2231
 30
0.0
 10
-0.0463
 20
-11.2231
 30
0.0
 10
-0.9909
 20
-11.2231
 30
0.0
 10
-0.9909
 20
-11.2231
 30
0.0
 10
-0.9909
 20
-11.2231
 30
0.0
 10
-0.9909
 20
-11.2231
 30
0.0
 10
-1.109
 20
-11.1049
 30
0.0
 10
-1.109
 20
-11.1049
 30
0.0
 10
-1.109
 20
-11.1049
 30
0.0
 10
-1.109
 20
-11.1049
 30
0.0
 10
-1.109
 20
-9.1686
 30
0.0
 10
-1.109
 20
-9.1686
 30
0.0
  0
SPLINE
  5
106
330
1F
100
AcDbEntity
  8
Ilustrace
 62
   250
370
    30
100
AcDbSpline
210
0.0
220
0.0
230
1.0
 70
     8
 71
     3
 72
    20
 73
    16
 74
     0
 42
0.0000000001
 43
0.0000000001
 40
0.0
 40
0.0
 40
0.0
 40
0.0
 40
0.2
 40
0.2
 40
0.2
 40
0.2
 40
0.4
 40
0.4
 40
0.4
 40
0.4
 40
0.6
 40
0.6
 40
0.6
 40
0.6
 40
1.0
 40
1.0
 40
1.0
 40
1.0
 10
1.0812
 20
-7.2902
 30
0.0
 10
0.9489
 20
-7.1782
 30
0.0
 10
0.9188
 20
-7.1456
 30
0.0
 10
0.7734
 20
-7.0504
 30
0.0
 10
0.7734
 20
-7.0504
 30
0.0
 10
0.3806
 20
-6.7938
 30
0.0
 10
-0.0547
 20
-6.6849
 30
0.0
 10
-0.5186
 20
-6.6656
 30
0.0
 10
-0.5186
 20
-6.6656
 30
0.0
 10
-0.9825
 20
-6.6849
 30
0.0
 10
-1.4178
 20
-6.7938
 30
0.0
 10
-1.8105
 20
-7.0504
 30
0.0
 10
-1.8105
 20
-7.0504
 30
0.0
 10
-1.9561
 20
-7.1456
 30
0.0
 10
-1.9861
 20
-7.178
 30
0.0
 10
-2.1184
 20
-7.2902
 30
0.0
  0
SPLINE
  5
107
330
1F
100
AcDbEntity
  8
Ilustrace
 62
   250
370
    30
100
AcDbSpline
210
0.0
220
0.0
230
1.0
 70
    24
 71
     3
 72
     8
 73
     4
 74
     0
 42
0.0000000001
 43
0.0000000001
 40
0.0
 40
0.0
 40
0.0
 40
0.0
 40
1.0
 40
1.0
 40
1.0
 40
1.0
 10
-8.2317
 20
-8.2206
 30
0.0
 10
-8.2317
 20
-8.2206
 30
0.0
 10
-8.4946
 20
-8.1533
 30
0.0
 10
-8.4946
 20
-8.1533
 30
0.0
  0
SPLINE
  5
108
330
1F
100
AcDbEntity
  8
Ilustrace
 62
   250
370
    30
100
AcDbSpline
210
0.0
220
0.0
230
1.0
 70
    24
 71
     3
 72
     8
 73
     4
 74
     0
 42
0.0000000001
 43
0.0000000001
 40
0.0
 40
0.0
 40
0.0
 40
0.0
 40
1.0
 40
1.0
 40
1.0
 40
1.0
 10
-8.9394
 20
-8.1533
 30
0.0
 10
-8.9394
 20
-8.1533
 30
0.0
 10
-8.7339
 20
-8.217
 30
0.0
 10
-8.7339
 20
-8.217
 30
0.0
  0
SPLINE
  5
109
330
1F
100
AcDbEntity
  8
Ilustrace
 62
   250
370
    30
100
AcDbSpline
210
0.0
220
0.0
230
1.0
 70
    24
 71
     3
 72
     8
 73
     4
 74
     0
 42
0.0000000001
 43
0.0000000001
 40
0.0
 40
0.0
 40
0.0
 40
0.0
 40
1.0
 40
1.0
 40
1.0
 40
1.0
 10
-8.4946
 20
-8.219
 30
0.0
 10
-8.4946
 20
-8.219
 30
0.0
 10
-8.7339
 20
-8.1533
 30
0.0
 10
-8.7339
 20
-8.1533
 30
0.0
  0
SPLINE
  5
10A
330
1F
100
AcDbEntity
  8
Ilustrace
 62
   250
370
    30
100
AcDbSpline
210
0.0
220
0.0
230
1.0
 70
    24
 71
     3
 72
     8
 73
     4
 74
     0
 42
0.0000000001
 43
0.0000000001
 40
0.0
 40
0.0
 40
0.0
 40
0.0
 40
1.0
 40
1.0
 40
1.0
 40
1.0
 10
-9.2143
 20
-8.1533
 30
0.0
 10
-9.2143
 20
-8.1533
 30
0.0
 10
-9.1019
 20
-8.2096
 30
0.0
 10
-9.1019
 20
-8.2096
 30
0.0
  0
SPLINE
  5
10B
330
1F
100
AcDbEntity
  8
Ilustrace
 62
   250
370
    30
100
AcDbSpline
210
0.0
220
0.0
230
1.0
 70
    24
 71
     3
 72
     8
 73
     4
 74
     0
 42
0.0000000001
 43
0.0000000001
 40
0.0
 40
0.0
 40
0.0
 40
0.0
 40
1.0
 40
1.0
 40
1.0
 40
1.0
 10
-8.9394
 20
-8.214
 30
0.0
 10
-8.9394
 20
-8.214
 30
0.0
 10
-9.1019
 20
-8.1533
 30
0.0
 10
-9.1019
 20
-8.1533
 30
0.0
  0
SPLINE
  5
10C
330
1F
100
AcDbEntity
  8
Ilustrace
 62
   250
370
    30
100
AcDbSpline
210
0.0
220
0.0
230
1.0
 70
    24
 71
     3
 72
     8
 73
     4
 74
     0
 42
0.0000000001
 43
0.0000000001
 40
0.0
 40
0.0
 40
0.0
 40
0.0
 40
1.0
 40
1.0
 40
1.0
 40
1.0
 10
-9.2145
 20
-8.1996
 30
0.0
 10
-9.2145
 20
-8.1996
 30
0.0
 10
-9.2718
 20
-8.1533
 30
0.0
 10
-9.2718
 20
-8.1533
 30
0.0
  0
SPLINE
  5
10D
330
1F
100
AcDbEntity
  8
Ilustrace
 62
   250
370
    30
100
AcDbSpline
210
0.0
220
0.0
230
1.0
 70
    24
 71
     3
 72
     8
 73
     4
 74
     0
 42
0.0000000001
 43
0.0000000001
 40
0.0
 40
0.0
 40
0.0
 40
0.0
 40
1.0
 40
1.0
 40
1.0
 40
1.0
 10
-8.2317
 20
-8.1533
 30
0.0
 10
-8.2317
 20
-8.1533
 30
0.0
 10
-7.9566
 20
-8.2222
 30
0.0
 10
-7.9566
 20
-8.2222
 30
0.0
  0
SPLINE
  5
10E
330
1F
100
AcDbEntity
  8
Ilustrace
 62
   250
370
    30
100
AcDbSpline
210
0.0
220
0.0
230
1.0
 70
    24
 71
     3
 72
     8
 73
     4
 74
     0
 42
0.0000000001
 43
0.0000000001
 40
0.0
 40
0.0
 40
0.0
 40
0.0
 40
1.0
 40
1.0
 40
1.0
 40
1.0
 10
-7.6818
 20
-8.1533
 30
0.0
 10
-7.6818
 20
-8.1533
 30
0.0
 10
-7.5126
 20
-8.1996
 30
0.0
 10
-7.5126
 20
-8.1996
 30
0.0
  0
SPLINE
  5
10F
330
1F
100
AcDbEntity
  8
Ilustrace
 62
   250
370
    30
100
AcDbSpline
210
0.0
220
0.0
230
1.0
 70
    24
 71
     3
 72
     8
 73
     4
 74
     0
 42
0.0000000001
 43
0.0000000001
 40
0.0
 40
0.0
 40
0.0
 40
0.0
 40
1.0
 40
1.0
 40
1.0
 40
1.0
 10
-7.1794
 20
-8.1533
 30
0.0
 10
-7.1794
 20
-8.1533
 30
0.0
 10
-7.0556
 20
-8.1996
 30
0.0
 10
-7.0556
 20
-8.1996
 30
0.0
  0
SPLINE
  5
110
330
1F
100
AcDbEntity
  8
Ilustrace
 62
   250
370
    30
100
AcDbSpline
210
0.0
220
0.0
230
1.0
 70
    24
 71
     3
 72
     8
 73
     4
 74
     0
 42
0.0000000001
 43
0.0000000001
 40
0.0
 40
0.0
 40
0.0
 40
0.0
 40
1.0
 40
1.0
 40
1.0
 40
1.0
 10
-6.8116
 20
-8.1533
 30
0.0
 10
-6.8116
 20
-8.1533
 30
0.0
 10
-6.7543
 20
-8.1996
 30
0.0
 10
-6.7543
 20
-8.1996
 30
0.0
  0
SPLINE
  5
111
330
1F
100
AcDbEntity
  8
Ilustrace
 62
   250
370
    30
100
AcDbSpline
210
0.0
220
0.0
230
1.0
 70
    24
 71
     3
 72
     8
 73
     4
 74
     0
 42
0.0000000001
 43
0.0000000001
 40
0.0
 40
0.0
 40
0.0
 40
0.0
 40
1.0
 40
1.0
 40
1.0
 40
1.0
 10
-6.8116
 20
-8.4327
 30
0.0
 10
-6.8116
 20
-8.4327
 30
0.0
 10
-7.0122
 20
-8.5666
 30
0.0
 10
-7.0122
 20
-8.5666
 30
0.0
  0
SPLINE
  5
112
330
1F
100
AcDbEntity
  8
Ilustrace
 62
   250
370
    30
100
AcDbSpline
210
0.0
220
0.0
230
1.0
 70
    24
 71
     3
 72
     8
 73
     4
 74
     0
 42
0.0000000001
 43
0.0000000001
 40
0.0
 40
0.0
 40
0.0
 40
0.0
 40
1.0
 40
1.0
 40
1.0
 40
1.0
 10
-7.4189
 20
-8.1533
 30
0.0
 10
-7.4189
 20
-8.1533
 30
0.0
 10
-7.2691
 20
-8.1996
 30
0.0
 10
-7.2691
 20
-8.1996
 30
0.0
  0
SPLINE
  5
113
330
1F
100
AcDbEntity
  8
Ilustrace
 62
   250
370
    30
100
AcDbSpline
210
0.0
220
0.0
230
1.0
 70
    24
 71
     3
 72
     8
 73
     4
 74
     0
 42
0.0000000001
 43
0.0000000001
 40
0.0
 40
0.0
 40
0.0
 40
0.0
 40
1.0
 40
1.0
 40
1.0
 40
1.0
 10
-6.8814
 20
-8.1996
 30
0.0
 10
-6.8814
 20
-8.1996
 30
0.0
 10
-6.974
 20
-8.1533
 30
0.0
 10
-6.974
 20
-8.1533
 30
0.0
  0
SPLINE
  5
114
330
1F
100
AcDbEntity
  8
Ilustrace
 62
   250
370
    30
100
AcDbSpline
210
0.0
220
0.0
230
1.0
 70
    24
 71
     3
 72
     8
 73
     4
 74
     0
 42
0.0000000001
 43
0.0000000001
 40
0.0
 40
0.0
 40
0.0
 40
0.0
 40
1.0
 40
1.0
 40
1.0
 40
1.0
 10
-6.8116
 20
-8.2222
 30
0.0
 10
-6.8116
 20
-8.2222
 30
0.0
 10
-6.8116
 20
-8.4327
 30
0.0
 10
-6.8116
 20
-8.4327
 30
0.0
  0
SPLINE
  5
115
330
1F
100
AcDbEntity
  8
Ilustrace
 62
   250
370
    30
100
AcDbSpline
210
0.0
220
0.0
230
1.0
 70
    24
 71
     3
 72
     8
 73
     4
 74
     0
 42
0.0000000001
 43
0.0000000001
 40
0.0
 40
0.0
 40
0.0
 40
0.0
 40
1.0
 40
1.0
 40
1.0
 40
1.0
 10
-9.2789
 20
-8.4327
 30
0.0
 10
-9.2789
 20
-8.4327
 30
0.0
 10
-6.6344
 20
-8.4327
 30
0.0
 10
-6.6344
 20
-8.4327
 30
0.0
  0
SPLINE
  5
116
330
1F
100
AcDbEntity
  8
Ilustrace
 62
   250
370
    30
100
AcDbSpline
210
0.0
220
0.0
230
1.0
 70
    24
 71
     3
 72
     8
 73
     4
 74
     0
 42
0.0000000001
 43
0.0000000001
 40
0.0
 40
0.0
 40
0.0
 40
0.0
 40
1.0
 40
1.0
 40
1.0
 40
1.0
 10
-6.974
 20
-8.2222
 30
0.0
 10
-6.974
 20
-8.2222
 30
0.0
 10
-6.974
 20
-8.1533
 30
0.0
 10
-6.974
 20
-8.1533
 30
0.0
  0
SPLINE
  5
117
330
1F
100
AcDbEntity
  8
Ilustrace
 62
   250
370
    30
100
AcDbSpline
210
0.0
220
0.0
230
1.0
 70
    24
 71
     3
 72
     8
 73
     4
 74
     0
 42
0.0000000001
 43
0.0000000001
 40
0.0
 40
0.0
 40
0.0
 40
0.0
 40
1.0
 40
1.0
 40
1.0
 40
1.0
 10
-6.699
 20
-8.1533
 30
0.0
 10
-6.699
 20
-8.1533
 30
0.0
 10
-6.699
 20
-8.2222
 30
0.0
 10
-6.699
 20
-8.2222
 30
0.0
  0
SPLINE
  5
118
330
1F
100
AcDbEntity
  8
Ilustrace
 62
   250
370
    30
100
AcDbSpline
210
0.0
220
0.0
230
1.0
 70
    24
 71
     3
 72
     8
 73
     4
 74
     0
 42
0.0000000001
 43
0.0000000001
 40
0.0
 40
0.0
 40
0.0
 40
0.0
 40
1.0
 40
1.0
 40
1.0
 40
1.0
 10
-6.8116
 20
-8.2222
 30
0.0
 10
-6.8116
 20
-8.2222
 30
0.0
 10
-6.8116
 20
-8.1533
 30
0.0
 10
-6.8116
 20
-8.1533
 30
0.0
  0
SPLINE
  5
119
330
1F
100
AcDbEntity
  8
Ilustrace
 62
   250
370
    30
100
AcDbSpline
210
0.0
220
0.0
230
1.0
 70
    24
 71
     3
 72
     8
 73
     4
 74
     0
 42
0.0000000001
 43
0.0000000001
 40
0.0
 40
0.0
 40
0.0
 40
0.0
 40
1.0
 40
1.0
 40
1.0
 40
1.0
 10
-7.1794
 20
-8.2222
 30
0.0
 10
-7.1794
 20
-8.2222
 30
0.0
 10
-7.1794
 20
-8.1533
 30
0.0
 10
-7.1794
 20
-8.1533
 30
0.0
  0
SPLINE
  5
11A
330
1F
100
AcDbEntity
  8
Ilustrace
 62
   250
370
    30
100
AcDbSpline
210
0.0
220
0.0
230
1.0
 70
    24
 71
     3
 72
     8
 73
     4
 74
     0
 42
0.0000000001
 43
0.0000000001
 40
0.0
 40
0.0
 40
0.0
 40
0.0
 40
1.0
 40
1.0
 40
1.0
 40
1.0
 10
-7.4189
 20
-8.2222
 30
0.0
 10
-7.4189
 20
-8.2222
 30
0.0
 10
-7.4189
 20
-8.1533
 30
0.0
 10
-7.4189
 20
-8.1533
 30
0.0
  0
SPLINE
  5
11B
330
1F
100
AcDbEntity
  8
Ilustrace
 62
   250
370
    30
100
AcDbSpline
210
0.0
220
0.0
230
1.0
 70
    24
 71
     3
 72
     8
 73
     4
 74
     0
 42
0.0000000001
 43
0.0000000001
 40
0.0
 40
0.0
 40
0.0
 40
0.0
 40
1.0
 40
1.0
 40
1.0
 40
1.0
 10
-7.6818
 20
-8.2222
 30
0.0
 10
-7.6818
 20
-8.2222
 30
0.0
 10
-7.6818
 20
-8.1533
 30
0.0
 10
-7.6818
 20
-8.1533
 30
0.0
  0
SPLINE
  5
11C
330
1F
100
AcDbEntity
  8
Ilustrace
 62
   250
370
    30
100
AcDbSpline
210
0.0
220
0.0
230
1.0
 70
    24
 71
     3
 72
     8
 73
     4
 74
     0
 42
0.0000000001
 43
0.0000000001
 40
0.0
 40
0.0
 40
0.0
 40
0.0
 40
1.0
 40
1.0
 40
1.0
 40
1.0
 10
-7.9566
 20
-8.5666
 30
0.0
 10
-7.9566
 20
-8.5666
 30
0.0
 10
-7.9566
 20
-9.0842
 30
0.0
 10
-7.9566
 20
-9.0842
 30
0.0
  0
SPLINE
  5
11D
330
1F
100
AcDbEntity
  8
Ilustrace
 62
   250
370
    30
100
AcDbSpline
210
0.0
220
0.0
230
1.0
 70
    24
 71
     3
 72
     8
 73
     4
 74
     0
 42
0.0000000001
 43
0.0000000001
 40
0.0
 40
0.0
 40
0.0
 40
0.0
 40
1.0
 40
1.0
 40
1.0
 40
1.0
 10
-8.2261
 20
-8.2222
 30
0.0
 10
-8.2261
 20
-8.2222
 30
0.0
 10
-8.2295
 20
-8.2222
 30
0.0
 10
-8.2295
 20
-8.2222
 30
0.0
  0
SPLINE
  5
11E
330
1F
100
AcDbEntity
  8
Ilustrace
 62
   250
370
    30
100
AcDbSpline
210
0.0
220
0.0
230
1.0
 70
    24
 71
     3
 72
     8
 73
     4
 74
     0
 42
0.0000000001
 43
0.0000000001
 40
0.0
 40
0.0
 40
0.0
 40
0.0
 40
1.0
 40
1.0
 40
1.0
 40
1.0
 10
-6.6344
 20
-8.4327
 30
0.0
 10
-6.6344
 20
-8.4327
 30
0.0
 10
-7.0102
 20
-8.6499
 30
0.0
 10
-7.0102
 20
-8.6499
 30
0.0
  0
SPLINE
  5
11F
330
1F
100
AcDbEntity
  8
Ilustrace
 62
   250
370
    30
100
AcDbSpline
210
0.0
220
0.0
230
1.0
 70
    24
 71
     3
 72
     8
 73
     4
 74
     0
 42
0.0000000001
 43
0.0000000001
 40
0.0
 40
0.0
 40
0.0
 40
0.0
 40
1.0
 40
1.0
 40
1.0
 40
1.0
 10
-6.6344
 20
-8.4327
 30
0.0
 10
-6.6344
 20
-8.4327
 30
0.0
 10
-6.6344
 20
-8.1881
 30
0.0
 10
-6.6344
 20
-8.1881
 30
0.0
  0
SPLINE
  5
120
330
1F
100
AcDbEntity
  8
Ilustrace
 62
   250
370
    30
100
AcDbSpline
210
0.0
220
0.0
230
1.0
 70
    24
 71
     3
 72
     8
 73
     4
 74
     0
 42
0.0000000001
 43
0.0000000001
 40
0.0
 40
0.0
 40
0.0
 40
0.0
 40
1.0
 40
1.0
 40
1.0
 40
1.0
 10
-8.9012
 20
-9.1686
 30
0.0
 10
-8.9012
 20
-9.1686
 30
0.0
 10
-7.0122
 20
-9.1686
 30
0.0
 10
-7.0122
 20
-9.1686
 30
0.0
  0
SPLINE
  5
121
330
1F
100
AcDbEntity
  8
Ilustrace
 62
   250
370
    30
100
AcDbSpline
210
0.0
220
0.0
230
1.0
 70
    24
 71
     3
 72
     8
 73
     4
 74
     0
 42
0.0000000001
 43
0.0000000001
 40
0.0
 40
0.0
 40
0.0
 40
0.0
 40
1.0
 40
1.0
 40
1.0
 40
1.0
 10
-9.2718
 20
-8.2222
 30
0.0
 10
-9.2718
 20
-8.2222
 30
0.0
 10
-9.2454
 20
-8.2222
 30
0.0
 10
-9.2454
 20
-8.2222
 30
0.0
  0
SPLINE
  5
122
330
1F
100
AcDbEntity
  8
Ilustrace
 62
   250
370
    30
100
AcDbSpline
210
0.0
220
0.0
230
1.0
 70
    24
 71
     3
 72
     8
 73
     4
 74
     0
 42
0.0000000001
 43
0.0000000001
 40
0.0
 40
0.0
 40
0.0
 40
0.0
 40
1.0
 40
1.0
 40
1.0
 40
1.0
 10
-8.9196
 20
-8.2222
 30
0.0
 10
-8.9196
 20
-8.2222
 30
0.0
 10
-8.9376
 20
-8.2222
 30
0.0
 10
-8.9376
 20
-8.2222
 30
0.0
  0
SPLINE
  5
123
330
1F
100
AcDbEntity
  8
Ilustrace
 62
   250
370
    30
100
AcDbSpline
210
0.0
220
0.0
230
1.0
 70
    24
 71
     3
 72
     8
 73
     4
 74
     0
 42
0.0000000001
 43
0.0000000001
 40
0.0
 40
0.0
 40
0.0
 40
0.0
 40
1.0
 40
1.0
 40
1.0
 40
1.0
 10
-9.0789
 20
-8.2222
 30
0.0
 10
-9.0789
 20
-8.2222
 30
0.0
 10
-9.0997
 20
-8.2222
 30
0.0
 10
-9.0997
 20
-8.2222
 30
0.0
  0
SPLINE
  5
124
330
1F
100
AcDbEntity
  8
Ilustrace
 62
   250
370
    30
100
AcDbSpline
210
0.0
220
0.0
230
1.0
 70
    24
 71
     3
 72
     8
 73
     4
 74
     0
 42
0.0000000001
 43
0.0000000001
 40
0.0
 40
0.0
 40
0.0
 40
0.0
 40
1.0
 40
1.0
 40
1.0
 40
1.0
 10
-9.189
 20
-8.2222
 30
0.0
 10
-9.189
 20
-8.2222
 30
0.0
 10
-9.212
 20
-8.2222
 30
0.0
 10
-9.212
 20
-8.2222
 30
0.0
  0
SPLINE
  5
125
330
1F
100
AcDbEntity
  8
Ilustrace
 62
   250
370
    30
100
AcDbSpline
210
0.0
220
0.0
230
1.0
 70
    24
 71
     3
 72
     8
 73
     4
 74
     0
 42
0.0000000001
 43
0.0000000001
 40
0.0
 40
0.0
 40
0.0
 40
0.0
 40
1.0
 40
1.0
 40
1.0
 40
1.0
 10
-8.9012
 20
-8.6499
 30
0.0
 10
-8.9012
 20
-8.6499
 30
0.0
 10
-9.2789
 20
-8.4327
 30
0.0
 10
-9.2789
 20
-8.4327
 30
0.0
  0
SPLINE
  5
126
330
1F
100
AcDbEntity
  8
Ilustrace
 62
   250
370
    30
100
AcDbSpline
210
0.0
220
0.0
230
1.0
 70
    24
 71
     3
 72
     8
 73
     4
 74
     0
 42
0.0000000001
 43
0.0000000001
 40
0.0
 40
0.0
 40
0.0
 40
0.0
 40
1.0
 40
1.0
 40
1.0
 40
1.0
 10
-8.9497
 20
-8.1533
 30
0.0
 10
-8.9497
 20
-8.1533
 30
0.0
 10
-8.9394
 20
-8.1533
 30
0.0
 10
-8.9394
 20
-8.1533
 30
0.0
  0
SPLINE
  5
127
330
1F
100
AcDbEntity
  8
Ilustrace
 62
   250
370
    30
100
AcDbSpline
210
0.0
220
0.0
230
1.0
 70
    24
 71
     3
 72
     8
 73
     4
 74
     0
 42
0.0000000001
 43
0.0000000001
 40
0.0
 40
0.0
 40
0.0
 40
0.0
 40
1.0
 40
1.0
 40
1.0
 40
1.0
 10
-8.6306
 20
-8.1533
 30
0.0
 10
-8.6306
 20
-8.1533
 30
0.0
 10
-8.4946
 20
-8.1533
 30
0.0
 10
-8.4946
 20
-8.1533
 30
0.0
  0
SPLINE
  5
128
330
1F
100
AcDbEntity
  8
Ilustrace
 62
   250
370
    30
100
AcDbSpline
210
0.0
220
0.0
230
1.0
 70
    24
 71
     3
 72
     8
 73
     4
 74
     0
 42
0.0000000001
 43
0.0000000001
 40
0.0
 40
0.0
 40
0.0
 40
0.0
 40
1.0
 40
1.0
 40
1.0
 40
1.0
 10
-8.195
 20
-8.1533
 30
0.0
 10
-8.195
 20
-8.1533
 30
0.0
 10
-8.116
 20
-8.1533
 30
0.0
 10
-8.116
 20
-8.1533
 30
0.0
  0
SPLINE
  5
129
330
1F
100
AcDbEntity
  8
Ilustrace
 62
   250
370
    30
100
AcDbSpline
210
0.0
220
0.0
230
1.0
 70
    24
 71
     3
 72
     8
 73
     4
 74
     0
 42
0.0000000001
 43
0.0000000001
 40
0.0
 40
0.0
 40
0.0
 40
0.0
 40
1.0
 40
1.0
 40
1.0
 40
1.0
 10
-7.7973
 20
-8.1533
 30
0.0
 10
-7.7973
 20
-8.1533
 30
0.0
 10
-7.7183
 20
-8.1533
 30
0.0
 10
-7.7183
 20
-8.1533
 30
0.0
  0
SPLINE
  5
12A
330
1F
100
AcDbEntity
  8
Ilustrace
 62
   250
370
    30
100
AcDbSpline
210
0.0
220
0.0
230
1.0
 70
    24
 71
     3
 72
     8
 73
     4
 74
     0
 42
0.0000000001
 43
0.0000000001
 40
0.0
 40
0.0
 40
0.0
 40
0.0
 40
1.0
 40
1.0
 40
1.0
 40
1.0
 10
-7.2827
 20
-8.1533
 30
0.0
 10
-7.2827
 20
-8.1533
 30
0.0
 10
-7.4189
 20
-8.1533
 30
0.0
 10
-7.4189
 20
-8.1533
 30
0.0
  0
SPLINE
  5
12B
330
1F
100
AcDbEntity
  8
Ilustrace
 62
   250
370
    30
100
AcDbSpline
210
0.0
220
0.0
230
1.0
 70
    24
 71
     3
 72
     8
 73
     4
 74
     0
 42
0.0000000001
 43
0.0000000001
 40
0.0
 40
0.0
 40
0.0
 40
0.0
 40
1.0
 40
1.0
 40
1.0
 40
1.0
 10
-7.4904
 20
-8.1533
 30
0.0
 10
-7.4904
 20
-8.1533
 30
0.0
 10
-7.6452
 20
-8.1533
 30
0.0
 10
-7.6452
 20
-8.1533
 30
0.0
  0
SPLINE
  5
12C
330
1F
100
AcDbEntity
  8
Ilustrace
 62
   250
370
    30
100
AcDbSpline
210
0.0
220
0.0
230
1.0
 70
    24
 71
     3
 72
     8
 73
     4
 74
     0
 42
0.0000000001
 43
0.0000000001
 40
0.0
 40
0.0
 40
0.0
 40
0.0
 40
1.0
 40
1.0
 40
1.0
 40
1.0
 10
-7.9566
 20
-8.2222
 30
0.0
 10
-7.9566
 20
-8.2222
 30
0.0
 10
-8.0472
 20
-8.1996
 30
0.0
 10
-8.0472
 20
-8.1996
 30
0.0
  0
SPLINE
  5
12D
330
1F
100
AcDbEntity
  8
Ilustrace
 62
   250
370
    30
100
AcDbSpline
210
0.0
220
0.0
230
1.0
 70
    24
 71
     3
 72
     8
 73
     4
 74
     0
 42
0.0000000001
 43
0.0000000001
 40
0.0
 40
0.0
 40
0.0
 40
0.0
 40
1.0
 40
1.0
 40
1.0
 40
1.0
 10
-7.9566
 20
-8.2222
 30
0.0
 10
-7.9566
 20
-8.2222
 30
0.0
 10
-8.0251
 20
-8.2054
 30
0.0
 10
-8.0251
 20
-8.2054
 30
0.0
  0
SPLINE
  5
12E
330
1F
100
AcDbEntity
  8
Ilustrace
 62
   250
370
    30
100
AcDbSpline
210
0.0
220
0.0
230
1.0
 70
    24
 71
     3
 72
     8
 73
     4
 74
     0
 42
0.0000000001
 43
0.0000000001
 40
0.0
 40
0.0
 40
0.0
 40
0.0
 40
1.0
 40
1.0
 40
1.0
 40
1.0
 10
-7.9566
 20
-8.2222
 30
0.0
 10
-7.9566
 20
-8.2222
 30
0.0
 10
-8.0329
 20
-8.2001
 30
0.0
 10
-8.0329
 20
-8.2001
 30
0.0
  0
SPLINE
  5
12F
330
1F
100
AcDbEntity
  8
Ilustrace
 62
   250
370
    30
100
AcDbSpline
210
0.0
220
0.0
230
1.0
 70
    24
 71
     3
 72
     8
 73
     4
 74
     0
 42
0.0000000001
 43
0.0000000001
 40
0.0
 40
0.0
 40
0.0
 40
0.0
 40
1.0
 40
1.0
 40
1.0
 40
1.0
 10
-7.9566
 20
-8.2222
 30
0.0
 10
-7.9566
 20
-8.2222
 30
0.0
 10
-8.0202
 20
-8.2001
 30
0.0
 10
-8.0202
 20
-8.2001
 30
0.0
  0
SPLINE
  5
130
330
1F
100
AcDbEntity
  8
Ilustrace
 62
   250
370
    30
100
AcDbSpline
210
0.0
220
0.0
230
1.0
 70
    24
 71
     3
 72
     8
 73
     4
 74
     0
 42
0.0000000001
 43
0.0000000001
 40
0.0
 40
0.0
 40
0.0
 40
0.0
 40
1.0
 40
1.0
 40
1.0
 40
1.0
 10
-7.9566
 20
-8.2222
 30
0.0
 10
-7.9566
 20
-8.2222
 30
0.0
 10
-8.0076
 20
-8.2001
 30
0.0
 10
-8.0076
 20
-8.2001
 30
0.0
  0
SPLINE
  5
131
330
1F
100
AcDbEntity
  8
Ilustrace
 62
   250
370
    30
100
AcDbSpline
210
0.0
220
0.0
230
1.0
 70
    24
 71
     3
 72
     8
 73
     4
 74
     0
 42
0.0000000001
 43
0.0000000001
 40
0.0
 40
0.0
 40
0.0
 40
0.0
 40
1.0
 40
1.0
 40
1.0
 40
1.0
 10
-7.9566
 20
-8.2222
 30
0.0
 10
-7.9566
 20
-8.2222
 30
0.0
 10
-7.9566
 20
-8.1533
 30
0.0
 10
-7.9566
 20
-8.1533
 30
0.0
  0
SPLINE
  5
132
330
1F
100
AcDbEntity
  8
Ilustrace
 62
   250
370
    30
100
AcDbSpline
210
0.0
220
0.0
230
1.0
 70
    24
 71
     3
 72
     8
 73
     4
 74
     0
 42
0.0000000001
 43
0.0000000001
 40
0.0
 40
0.0
 40
0.0
 40
0.0
 40
1.0
 40
1.0
 40
1.0
 40
1.0
 10
-8.2681
 20
-8.1533
 30
0.0
 10
-8.2681
 20
-8.1533
 30
0.0
 10
-8.4231
 20
-8.1533
 30
0.0
 10
-8.4231
 20
-8.1533
 30
0.0
  0
SPLINE
  5
133
330
1F
100
AcDbEntity
  8
Ilustrace
 62
   250
370
    30
100
AcDbSpline
210
0.0
220
0.0
230
1.0
 70
    24
 71
     3
 72
     8
 73
     4
 74
     0
 42
0.0000000001
 43
0.0000000001
 40
0.0
 40
0.0
 40
0.0
 40
0.0
 40
1.0
 40
1.0
 40
1.0
 40
1.0
 10
-8.7183
 20
-8.2222
 30
0.0
 10
-8.7183
 20
-8.2222
 30
0.0
 10
-8.7325
 20
-8.2222
 30
0.0
 10
-8.7325
 20
-8.2222
 30
0.0
  0
SPLINE
  5
134
330
1F
100
AcDbEntity
  8
Ilustrace
 62
   250
370
    30
100
AcDbSpline
210
0.0
220
0.0
230
1.0
 70
    24
 71
     3
 72
     8
 73
     4
 74
     0
 42
0.0000000001
 43
0.0000000001
 40
0.0
 40
0.0
 40
0.0
 40
0.0
 40
1.0
 40
1.0
 40
1.0
 40
1.0
 10
-8.7339
 20
-8.1533
 30
0.0
 10
-8.7339
 20
-8.1533
 30
0.0
 10
-8.7339
 20
-8.2222
 30
0.0
 10
-8.7339
 20
-8.2222
 30
0.0
  0
SPLINE
  5
135
330
1F
100
AcDbEntity
  8
Ilustrace
 62
   250
370
    30
100
AcDbSpline
210
0.0
220
0.0
230
1.0
 70
    24
 71
     3
 72
     8
 73
     4
 74
     0
 42
0.0000000001
 43
0.0000000001
 40
0.0
 40
0.0
 40
0.0
 40
0.0
 40
1.0
 40
1.0
 40
1.0
 40
1.0
 10
-9.2143
 20
-8.1533
 30
0.0
 10
-9.2143
 20
-8.1533
 30
0.0
 10
-9.2143
 20
-8.2222
 30
0.0
 10
-9.2143
 20
-8.2222
 30
0.0
  0
SPLINE
  5
136
330
1F
100
AcDbEntity
  8
Ilustrace
 62
   250
370
    30
100
AcDbSpline
210
0.0
220
0.0
230
1.0
 70
    24
 71
     3
 72
     8
 73
     4
 74
     0
 42
0.0000000001
 43
0.0000000001
 40
0.0
 40
0.0
 40
0.0
 40
0.0
 40
1.0
 40
1.0
 40
1.0
 40
1.0
 10
-9.1019
 20
-8.1533
 30
0.0
 10
-9.1019
 20
-8.1533
 30
0.0
 10
-9.1019
 20
-8.2222
 30
0.0
 10
-9.1019
 20
-8.2222
 30
0.0
  0
SPLINE
  5
137
330
1F
100
AcDbEntity
  8
Ilustrace
 62
   250
370
    30
100
AcDbSpline
210
0.0
220
0.0
230
1.0
 70
    24
 71
     3
 72
     8
 73
     4
 74
     0
 42
0.0000000001
 43
0.0000000001
 40
0.0
 40
0.0
 40
0.0
 40
0.0
 40
1.0
 40
1.0
 40
1.0
 40
1.0
 10
-8.9394
 20
-8.1533
 30
0.0
 10
-8.9394
 20
-8.1533
 30
0.0
 10
-8.9394
 20
-8.2222
 30
0.0
 10
-8.9394
 20
-8.2222
 30
0.0
  0
SPLINE
  5
138
330
1F
100
AcDbEntity
  8
Ilustrace
 62
   250
370
    30
100
AcDbSpline
210
0.0
220
0.0
230
1.0
 70
    24
 71
     3
 72
     8
 73
     4
 74
     0
 42
0.0000000001
 43
0.0000000001
 40
0.0
 40
0.0
 40
0.0
 40
0.0
 40
1.0
 40
1.0
 40
1.0
 40
1.0
 10
-8.7339
 20
-8.1533
 30
0.0
 10
-8.7339
 20
-8.1533
 30
0.0
 10
-8.8088
 20
-8.1533
 30
0.0
 10
-8.8088
 20
-8.1533
 30
0.0
  0
SPLINE
  5
139
330
1F
100
AcDbEntity
  8
Ilustrace
 62
   250
370
    30
100
AcDbSpline
210
0.0
220
0.0
230
1.0
 70
    24
 71
     3
 72
     8
 73
     4
 74
     0
 42
0.0000000001
 43
0.0000000001
 40
0.0
 40
0.0
 40
0.0
 40
0.0
 40
1.0
 40
1.0
 40
1.0
 40
1.0
 10
-8.4837
 20
-8.2222
 30
0.0
 10
-8.4837
 20
-8.2222
 30
0.0
 10
-8.4936
 20
-8.2222
 30
0.0
 10
-8.4936
 20
-8.2222
 30
0.0
  0
SPLINE
  5
13A
330
1F
100
AcDbEntity
  8
Ilustrace
 62
   250
370
    30
100
AcDbSpline
210
0.0
220
0.0
230
1.0
 70
    24
 71
     3
 72
     8
 73
     4
 74
     0
 42
0.0000000001
 43
0.0000000001
 40
0.0
 40
0.0
 40
0.0
 40
0.0
 40
1.0
 40
1.0
 40
1.0
 40
1.0
 10
-8.4946
 20
-8.1533
 30
0.0
 10
-8.4946
 20
-8.1533
 30
0.0
 10
-8.4946
 20
-8.2222
 30
0.0
 10
-8.4946
 20
-8.2222
 30
0.0
  0
SPLINE
  5
13B
330
1F
100
AcDbEntity
  8
Ilustrace
 62
   250
370
    30
100
AcDbSpline
210
0.0
220
0.0
230
1.0
 70
    24
 71
     3
 72
     8
 73
     4
 74
     0
 42
0.0000000001
 43
0.0000000001
 40
0.0
 40
0.0
 40
0.0
 40
0.0
 40
1.0
 40
1.0
 40
1.0
 40
1.0
 10
-8.2317
 20
-8.2222
 30
0.0
 10
-8.2317
 20
-8.2222
 30
0.0
 10
-8.2317
 20
-8.1533
 30
0.0
 10
-8.2317
 20
-8.1533
 30
0.0
  0
SPLINE
  5
13C
330
1F
100
AcDbEntity
  8
Ilustrace
 62
   250
370
    30
100
AcDbSpline
210
0.0
220
0.0
230
1.0
 70
     8
 71
     3
 72
     8
 73
     4
 74
     0
 42
0.0000000001
 43
0.0000000001
 40
0.0
 40
0.0
 40
0.0
 40
0.0
 40
1.0
 40
1.0
 40
1.0
 40
1.0
 10
-8.2317
 20
-8.2222
 30
0.0
 10
-8.3194
 20
-8.2001
 30
0.0
 10
-8.4073
 20
-8.1776
 30
0.0
 10
-8.4946
 20
-8.1533
 30
0.0
  0
SPLINE
  5
13D
330
1F
100
AcDbEntity
  8
Ilustrace
 62
   250
370
    30
100
AcDbSpline
210
0.0
220
0.0
230
1.0
 70
     8
 71
     3
 72
     8
 73
     4
 74
     0
 42
0.0000000001
 43
0.0000000001
 40
0.0
 40
0.0
 40
0.0
 40
0.0
 40
1.0
 40
1.0
 40
1.0
 40
1.0
 10
-8.9394
 20
-8.1533
 30
0.0
 10
-8.8717
 20
-8.1787
 30
0.0
 10
-8.803
 20
-8.2009
 30
0.0
 10
-8.7339
 20
-8.2222
 30
0.0
  0
SPLINE
  5
13E
330
1F
100
AcDbEntity
  8
Ilustrace
 62
   250
370
    30
100
AcDbSpline
210
0.0
220
0.0
230
1.0
 70
     8
 71
     3
 72
    20
 73
    16
 74
     0
 42
0.0000000001
 43
0.0000000001
 40
0.0
 40
0.0
 40
0.0
 40
0.0
 40
0.2
 40
0.2
 40
0.2
 40
0.2
 40
0.4
 40
0.4
 40
0.4
 40
0.4
 40
0.6
 40
0.6
 40
0.6
 40
0.6
 40
1.0
 40
1.0
 40
1.0
 40
1.0
 10
-7.0122
 20
-8.5666
 30
0.0
 10
-7.1526
 20
-8.609
 30
0.0
 10
-7.2867
 20
-8.6377
 30
0.0
 10
-7.4329
 20
-8.6499
 30
0.0
 10
-7.4329
 20
-8.6499
 30
0.0
 10
-7.6163
 20
-8.6499
 30
0.0
 10
-7.7815
 20
-8.6196
 30
0.0
 10
-7.9566
 20
-8.5666
 30
0.0
 10
-7.9566
 20
-8.5666
 30
0.0
 10
-8.097
 20
-8.609
 30
0.0
 10
-8.2313
 20
-8.6377
 30
0.0
 10
-8.3774
 20
-8.6499
 30
0.0
 10
-8.3774
 20
-8.6499
 30
0.0
 10
-8.5607
 20
-8.6499
 30
0.0
 10
-8.7259
 20
-8.6196
 30
0.0
 10
-8.9012
 20
-8.5666
 30
0.0
  0
SPLINE
  5
13F
330
1F
100
AcDbEntity
  8
Ilustrace
 62
   250
370
    30
100
AcDbSpline
210
0.0
220
0.0
230
1.0
 70
    24
 71
     3
 72
     8
 73
     4
 74
     0
 42
0.0000000001
 43
0.0000000001
 40
0.0
 40
0.0
 40
0.0
 40
0.0
 40
1.0
 40
1.0
 40
1.0
 40
1.0
 10
-9.2718
 20
-8.2222
 30
0.0
 10
-9.2718
 20
-8.2222
 30
0.0
 10
-9.2789
 20
-8.1881
 30
0.0
 10
-9.2789
 20
-8.1881
 30
0.0
  0
SPLINE
  5
140
330
1F
100
AcDbEntity
  8
Ilustrace
 62
   250
370
    30
100
AcDbSpline
210
0.0
220
0.0
230
1.0
 70
     8
 71
     3
 72
     8
 73
     4
 74
     0
 42
0.0000000001
 43
0.0000000001
 40
0.0
 40
0.0
 40
0.0
 40
0.0
 40
1.0
 40
1.0
 40
1.0
 40
1.0
 10
-9.2143
 20
-8.2222
 30
0.0
 10
-9.2381
 20
-8.2021
 30
0.0
 10
-9.2581
 20
-8.1817
 30
0.0
 10
-9.2718
 20
-8.1533
 30
0.0
  0
SPLINE
  5
141
330
1F
100
AcDbEntity
  8
Ilustrace
 62
   250
370
    30
100
AcDbSpline
210
0.0
220
0.0
230
1.0
 70
     8
 71
     3
 72
     8
 73
     4
 74
     0
 42
0.0000000001
 43
0.0000000001
 40
0.0
 40
0.0
 40
0.0
 40
0.0
 40
1.0
 40
1.0
 40
1.0
 40
1.0
 10
-9.1019
 20
-8.2222
 30
0.0
 10
-9.1417
 20
-8.2014
 30
0.0
 10
-9.1785
 20
-8.1802
 30
0.0
 10
-9.2143
 20
-8.1533
 30
0.0
  0
SPLINE
  5
142
330
1F
100
AcDbEntity
  8
Ilustrace
 62
   250
370
    30
100
AcDbSpline
210
0.0
220
0.0
230
1.0
 70
     8
 71
     3
 72
     8
 73
     4
 74
     0
 42
0.0000000001
 43
0.0000000001
 40
0.0
 40
0.0
 40
0.0
 40
0.0
 40
1.0
 40
1.0
 40
1.0
 40
1.0
 10
-8.0251
 20
-8.2054
 30
0.0
 10
-8.0941
 20
-8.1885
 30
0.0
 10
-8.1628
 20
-8.1712
 30
0.0
 10
-8.2317
 20
-8.1533
 30
0.0
  0
SPLINE
  5
143
330
1F
100
AcDbEntity
  8
Ilustrace
 62
   250
370
    30
100
AcDbSpline
210
0.0
220
0.0
230
1.0
 70
     8
 71
     3
 72
     8
 73
     4
 74
     0
 42
0.0000000001
 43
0.0000000001
 40
0.0
 40
0.0
 40
0.0
 40
0.0
 40
1.0
 40
1.0
 40
1.0
 40
1.0
 10
-8.4946
 20
-8.2222
 30
0.0
 10
-8.5747
 20
-8.2002
 30
0.0
 10
-8.6546
 20
-8.1778
 30
0.0
 10
-8.7339
 20
-8.1533
 30
0.0
  0
SPLINE
  5
144
330
1F
100
AcDbEntity
  8
Ilustrace
 62
   250
370
    30
100
AcDbSpline
210
0.0
220
0.0
230
1.0
 70
     8
 71
     3
 72
     8
 73
     4
 74
     0
 42
0.0000000001
 43
0.0000000001
 40
0.0
 40
0.0
 40
0.0
 40
0.0
 40
1.0
 40
1.0
 40
1.0
 40
1.0
 10
-8.9394
 20
-8.2222
 30
0.0
 10
-8.9946
 20
-8.201
 30
0.0
 10
-9.0487
 20
-8.1791
 30
0.0
 10
-9.1019
 20
-8.1533
 30
0.0
  0
SPLINE
  5
145
330
1F
100
AcDbEntity
  8
Ilustrace
 62
   250
370
    30
100
AcDbSpline
210
0.0
220
0.0
230
1.0
 70
     8
 71
     3
 72
    12
 73
     8
 74
     0
 42
0.0000000001
 43
0.0000000001
 40
0.0
 40
0.0
 40
0.0
 40
0.0
 40
0.3333333333333333
 40
0.3333333333333333
 40
0.3333333333333333
 40
0.3333333333333333
 40
1.0
 40
1.0
 40
1.0
 40
1.0
 10
-8.9012
 20
-9.0842
 30
0.0
 10
-8.6827
 20
-9.1512
 30
0.0
 10
-8.4717
 20
-9.1848
 30
0.0
 10
-8.2435
 20
-9.1549
 30
0.0
 10
-8.2435
 20
-9.1549
 30
0.0
 10
-8.1804
 20
-9.1465
 30
0.0
 10
-8.1161
 20
-9.1314
 30
0.0
 10
-8.0552
 20
-9.1145
 30
0.0
  0
SPLINE
  5
146
330
1F
100
AcDbEntity
  8
Ilustrace
 62
   250
370
    30
100
AcDbSpline
210
0.0
220
0.0
230
1.0
 70
     8
 71
     3
 72
    12
 73
     8
 74
     0
 42
0.0000000001
 43
0.0000000001
 40
0.0
 40
0.0
 40
0.0
 40
0.0
 40
0.3333333333333333
 40
0.3333333333333333
 40
0.3333333333333333
 40
0.3333333333333333
 40
1.0
 40
1.0
 40
1.0
 40
1.0
 10
-8.0552
 20
-9.1145
 30
0.0
 10
-8.0552
 20
-9.1145
 30
0.0
 10
-7.9566
 20
-9.0842
 30
0.0
 10
-7.9566
 20
-9.0842
 30
0.0
 10
-7.9566
 20
-9.0842
 30
0.0
 10
-7.9566
 20
-9.0842
 30
0.0
 10
-7.8582
 20
-9.1145
 30
0.0
 10
-7.8582
 20
-9.1145
 30
0.0
  0
SPLINE
  5
147
330
1F
100
AcDbEntity
  8
Ilustrace
 62
   250
370
    30
100
AcDbSpline
210
0.0
220
0.0
230
1.0
 70
     8
 71
     3
 72
    12
 73
     8
 74
     0
 42
0.0000000001
 43
0.0000000001
 40
0.0
 40
0.0
 40
0.0
 40
0.0
 40
0.3333333333333333
 40
0.3333333333333333
 40
0.3333333333333333
 40
0.3333333333333333
 40
1.0
 40
1.0
 40
1.0
 40
1.0
 10
-7.8582
 20
-9.1145
 30
0.0
 10
-7.7972
 20
-9.1314
 30
0.0
 10
-7.7329
 20
-9.1465
 30
0.0
 10
-7.6698
 20
-9.1549
 30
0.0
 10
-7.6698
 20
-9.1549
 30
0.0
 10
-7.4417
 20
-9.1848
 30
0.0
 10
-7.2307
 20
-9.1512
 30
0.0
 10
-7.0122
 20
-9.0842
 30
0.0
  0
SPLINE
  5
148
330
1F
100
AcDbEntity
  8
Ilustrace
 62
   250
370
    30
100
AcDbSpline
210
0.0
220
0.0
230
1.0
 70
     8
 71
     3
 72
     8
 73
     4
 74
     0
 42
0.0000000001
 43
0.0000000001
 40
0.0
 40
0.0
 40
0.0
 40
0.0
 40
1.0
 40
1.0
 40
1.0
 40
1.0
 10
-7.9566
 20
-8.1533
 30
0.0
 10
-7.8651
 20
-8.1766
 30
0.0
 10
-7.7734
 20
-8.1994
 30
0.0
 10
-7.6818
 20
-8.2222
 30
0.0
  0
SPLINE
  5
149
330
1F
100
AcDbEntity
  8
Ilustrace
 62
   250
370
    30
100
AcDbSpline
210
0.0
220
0.0
230
1.0
 70
     8
 71
     3
 72
     8
 73
     4
 74
     0
 42
0.0000000001
 43
0.0000000001
 40
0.0
 40
0.0
 40
0.0
 40
0.0
 40
1.0
 40
1.0
 40
1.0
 40
1.0
 10
-7.4189
 20
-8.1533
 30
0.0
 10
-7.339
 20
-8.1761
 30
0.0
 10
-7.2591
 20
-8.1987
 30
0.0
 10
-7.1794
 20
-8.2222
 30
0.0
  0
SPLINE
  5
14A
330
1F
100
AcDbEntity
  8
Ilustrace
 62
   250
370
    30
100
AcDbSpline
210
0.0
220
0.0
230
1.0
 70
     8
 71
     3
 72
     8
 73
     4
 74
     0
 42
0.0000000001
 43
0.0000000001
 40
0.0
 40
0.0
 40
0.0
 40
0.0
 40
1.0
 40
1.0
 40
1.0
 40
1.0
 10
-6.8116
 20
-8.1533
 30
0.0
 10
-6.7723
 20
-8.1739
 30
0.0
 10
-6.7345
 20
-8.1955
 30
0.0
 10
-6.699
 20
-8.2222
 30
0.0
  0
SPLINE
  5
14B
330
1F
100
AcDbEntity
  8
Ilustrace
 62
   250
370
    30
100
AcDbSpline
210
0.0
220
0.0
230
1.0
 70
    24
 71
     3
 72
     8
 73
     4
 74
     0
 42
0.0000000001
 43
0.0000000001
 40
0.0
 40
0.0
 40
0.0
 40
0.0
 40
1.0
 40
1.0
 40
1.0
 40
1.0
 10
-7.0122
 20
-8.5666
 30
0.0
 10
-7.0122
 20
-8.7662
 30
0.0
 10
-7.0122
 20
-8.9694
 30
0.0
 10
-7.0122
 20
-9.1686
 30
0.0
  0
SPLINE
  5
14C
330
1F
100
AcDbEntity
  8
Ilustrace
 62
   250
370
    30
100
AcDbSpline
210
0.0
220
0.0
230
1.0
 70
    24
 71
     3
 72
     8
 73
     4
 74
     0
 42
0.0000000001
 43
0.0000000001
 40
0.0
 40
0.0
 40
0.0
 40
0.0
 40
1.0
 40
1.0
 40
1.0
 40
1.0
 10
-8.9012
 20
-9.1686
 30
0.0
 10
-8.9012
 20
-8.9694
 30
0.0
 10
-8.9012
 20
-8.7662
 30
0.0
 10
-8.9012
 20
-8.5666
 30
0.0
  0
SPLINE
  5
14D
330
1F
100
AcDbEntity
  8
Ilustrace
 62
   250
370
    30
100
AcDbSpline
210
0.0
220
0.0
230
1.0
 70
     8
 71
     3
 72
     8
 73
     4
 74
     0
 42
0.0000000001
 43
0.0000000001
 40
0.0
 40
0.0
 40
0.0
 40
0.0
 40
1.0
 40
1.0
 40
1.0
 40
1.0
 10
-9.2718
 20
-8.1533
 30
0.0
 10
-9.2749
 20
-8.1649
 30
0.0
 10
-9.2789
 20
-8.1759
 30
0.0
 10
-9.2789
 20
-8.1881
 30
0.0
  0
SPLINE
  5
14E
330
1F
100
AcDbEntity
  8
Ilustrace
 62
   250
370
    30
100
AcDbSpline
210
0.0
220
0.0
230
1.0
 70
    24
 71
     3
 72
     8
 73
     4
 74
     0
 42
0.0000000001
 43
0.0000000001
 40
0.0
 40
0.0
 40
0.0
 40
0.0
 40
1.0
 40
1.0
 40
1.0
 40
1.0
 10
-9.2789
 20
-8.1881
 30
0.0
 10
-9.2789
 20
-8.1881
 30
0.0
 10
-9.2789
 20
-8.4327
 30
0.0
 10
-9.2789
 20
-8.4327
 30
0.0
  0
SPLINE
  5
14F
330
1F
100
AcDbEntity
  8
Ilustrace
 62
   250
370
    30
100
AcDbSpline
210
0.0
220
0.0
230
1.0
 70
     8
 71
     3
 72
     8
 73
     4
 74
     0
 42
0.0000000001
 43
0.0000000001
 40
0.0
 40
0.0
 40
0.0
 40
0.0
 40
1.0
 40
1.0
 40
1.0
 40
1.0
 10
-7.6818
 20
-8.1533
 30
0.0
 10
-7.5941
 20
-8.1761
 30
0.0
 10
-7.5065
 20
-8.1989
 30
0.0
 10
-7.4189
 20
-8.2222
 30
0.0
  0
SPLINE
  5
150
330
1F
100
AcDbEntity
  8
Ilustrace
 62
   250
370
    30
100
AcDbSpline
210
0.0
220
0.0
230
1.0
 70
     8
 71
     3
 72
     8
 73
     4
 74
     0
 42
0.0000000001
 43
0.0000000001
 40
0.0
 40
0.0
 40
0.0
 40
0.0
 40
1.0
 40
1.0
 40
1.0
 40
1.0
 10
-7.1794
 20
-8.1533
 30
0.0
 10
-7.1107
 20
-8.1753
 30
0.0
 10
-7.0421
 20
-8.1977
 30
0.0
 10
-6.974
 20
-8.2222
 30
0.0
  0
SPLINE
  5
151
330
1F
100
AcDbEntity
  8
Ilustrace
 62
   250
370
    30
100
AcDbSpline
210
0.0
220
0.0
230
1.0
 70
     8
 71
     3
 72
     8
 73
     4
 74
     0
 42
0.0000000001
 43
0.0000000001
 40
0.0
 40
0.0
 40
0.0
 40
0.0
 40
1.0
 40
1.0
 40
1.0
 40
1.0
 10
-6.6351
 20
-8.1996
 30
0.0
 10
-6.6351
 20
-8.1817
 30
0.0
 10
-6.6368
 20
-8.1704
 30
0.0
 10
-6.6415
 20
-8.1533
 30
0.0
  0
SPLINE
  5
152
330
1F
100
AcDbEntity
  8
Ilustrace
 62
   250
370
    30
100
AcDbSpline
210
0.0
220
0.0
230
1.0
 70
     8
 71
     3
 72
     8
 73
     4
 74
     0
 42
0.0000000001
 43
0.0000000001
 40
0.0
 40
0.0
 40
0.0
 40
0.0
 40
1.0
 40
1.0
 40
1.0
 40
1.0
 10
-6.8116
 20
-8.2222
 30
0.0
 10
-6.8648
 20
-8.1969
 30
0.0
 10
-6.9191
 20
-8.1747
 30
0.0
 10
-6.974
 20
-8.1533
 30
0.0
  0
SPLINE
  5
153
330
1F
100
AcDbEntity
  8
Ilustrace
 62
   250
370
    30
100
AcDbSpline
210
0.0
220
0.0
230
1.0
 70
     8
 71
     3
 72
     8
 73
     4
 74
     0
 42
0.0000000001
 43
0.0000000001
 40
0.0
 40
0.0
 40
0.0
 40
0.0
 40
1.0
 40
1.0
 40
1.0
 40
1.0
 10
-6.6415
 20
-8.2222
 30
0.0
 10
-6.6555
 20
-8.1942
 30
0.0
 10
-6.6759
 20
-8.1734
 30
0.0
 10
-6.699
 20
-8.1533
 30
0.0
  0
SPLINE
  5
154
330
1F
100
AcDbEntity
  8
Ilustrace
 62
   250
370
    30
100
AcDbSpline
210
0.0
220
0.0
230
1.0
 70
    24
 71
     3
 72
     8
 73
     4
 74
     0
 42
0.0000000001
 43
0.0000000001
 40
0.0
 40
0.0
 40
0.0
 40
0.0
 40
1.0
 40
1.0
 40
1.0
 40
1.0
 10
-0.7934
 20
-8.2206
 30
0.0
 10
-0.7934
 20
-8.2206
 30
0.0
 10
-1.0564
 20
-8.1533
 30
0.0
 10
-1.0564
 20
-8.1533
 30
0.0
  0
SPLINE
  5
155
330
1F
100
AcDbEntity
  8
Ilustrace
 62
   250
370
    30
100
AcDbSpline
210
0.0
220
0.0
230
1.0
 70
    24
 71
     3
 72
     8
 73
     4
 74
     0
 42
0.0000000001
 43
0.0000000001
 40
0.0
 40
0.0
 40
0.0
 40
0.0
 40
1.0
 40
1.0
 40
1.0
 40
1.0
 10
-1.5013
 20
-8.1533
 30
0.0
 10
-1.5013
 20
-8.1533
 30
0.0
 10
-1.2958
 20
-8.217
 30
0.0
 10
-1.2958
 20
-8.217
 30
0.0
  0
SPLINE
  5
156
330
1F
100
AcDbEntity
  8
Ilustrace
 62
   250
370
    30
100
AcDbSpline
210
0.0
220
0.0
230
1.0
 70
    24
 71
     3
 72
     8
 73
     4
 74
     0
 42
0.0000000001
 43
0.0000000001
 40
0.0
 40
0.0
 40
0.0
 40
0.0
 40
1.0
 40
1.0
 40
1.0
 40
1.0
 10
-1.0564
 20
-8.219
 30
0.0
 10
-1.0564
 20
-8.219
 30
0.0
 10
-1.2958
 20
-8.1533
 30
0.0
 10
-1.2958
 20
-8.1533
 30
0.0
  0
SPLINE
  5
157
330
1F
100
AcDbEntity
  8
Ilustrace
 62
   250
370
    30
100
AcDbSpline
210
0.0
220
0.0
230
1.0
 70
    24
 71
     3
 72
     8
 73
     4
 74
     0
 42
0.0000000001
 43
0.0000000001
 40
0.0
 40
0.0
 40
0.0
 40
0.0
 40
1.0
 40
1.0
 40
1.0
 40
1.0
 10
-1.7762
 20
-8.1533
 30
0.0
 10
-1.7762
 20
-8.1533
 30
0.0
 10
-1.6637
 20
-8.2096
 30
0.0
 10
-1.6637
 20
-8.2096
 30
0.0
  0
SPLINE
  5
158
330
1F
100
AcDbEntity
  8
Ilustrace
 62
   250
370
    30
100
AcDbSpline
210
0.0
220
0.0
230
1.0
 70
    24
 71
     3
 72
     8
 73
     4
 74
     0
 42
0.0000000001
 43
0.0000000001
 40
0.0
 40
0.0
 40
0.0
 40
0.0
 40
1.0
 40
1.0
 40
1.0
 40
1.0
 10
-1.5013
 20
-8.214
 30
0.0
 10
-1.5013
 20
-8.214
 30
0.0
 10
-1.6637
 20
-8.1533
 30
0.0
 10
-1.6637
 20
-8.1533
 30
0.0
  0
SPLINE
  5
159
330
1F
100
AcDbEntity
  8
Ilustrace
 62
   250
370
    30
100
AcDbSpline
210
0.0
220
0.0
230
1.0
 70
    24
 71
     3
 72
     8
 73
     4
 74
     0
 42
0.0000000001
 43
0.0000000001
 40
0.0
 40
0.0
 40
0.0
 40
0.0
 40
1.0
 40
1.0
 40
1.0
 40
1.0
 10
-1.7765
 20
-8.1996
 30
0.0
 10
-1.7765
 20
-8.1996
 30
0.0
 10
-1.8337
 20
-8.1533
 30
0.0
 10
-1.8337
 20
-8.1533
 30
0.0
  0
SPLINE
  5
15A
330
1F
100
AcDbEntity
  8
Ilustrace
 62
   250
370
    30
100
AcDbSpline
210
0.0
220
0.0
230
1.0
 70
    24
 71
     3
 72
     8
 73
     4
 74
     0
 42
0.0000000001
 43
0.0000000001
 40
0.0
 40
0.0
 40
0.0
 40
0.0
 40
1.0
 40
1.0
 40
1.0
 40
1.0
 10
-0.7934
 20
-8.1533
 30
0.0
 10
-0.7934
 20
-8.1533
 30
0.0
 10
-0.5186
 20
-8.2222
 30
0.0
 10
-0.5186
 20
-8.2222
 30
0.0
  0
SPLINE
  5
15B
330
1F
100
AcDbEntity
  8
Ilustrace
 62
   250
370
    30
100
AcDbSpline
210
0.0
220
0.0
230
1.0
 70
    24
 71
     3
 72
     8
 73
     4
 74
     0
 42
0.0000000001
 43
0.0000000001
 40
0.0
 40
0.0
 40
0.0
 40
0.0
 40
1.0
 40
1.0
 40
1.0
 40
1.0
 10
-0.2438
 20
-8.1533
 30
0.0
 10
-0.2438
 20
-8.1533
 30
0.0
 10
-0.0746
 20
-8.1996
 30
0.0
 10
-0.0746
 20
-8.1996
 30
0.0
  0
SPLINE
  5
15C
330
1F
100
AcDbEntity
  8
Ilustrace
 62
   250
370
    30
100
AcDbSpline
210
0.0
220
0.0
230
1.0
 70
    24
 71
     3
 72
     8
 73
     4
 74
     0
 42
0.0000000001
 43
0.0000000001
 40
0.0
 40
0.0
 40
0.0
 40
0.0
 40
1.0
 40
1.0
 40
1.0
 40
1.0
 10
0.2586
 20
-8.1533
 30
0.0
 10
0.2586
 20
-8.1533
 30
0.0
 10
0.3826
 20
-8.1996
 30
0.0
 10
0.3826
 20
-8.1996
 30
0.0
  0
SPLINE
  5
15D
330
1F
100
AcDbEntity
  8
Ilustrace
 62
   250
370
    30
100
AcDbSpline
210
0.0
220
0.0
230
1.0
 70
    24
 71
     3
 72
     8
 73
     4
 74
     0
 42
0.0000000001
 43
0.0000000001
 40
0.0
 40
0.0
 40
0.0
 40
0.0
 40
1.0
 40
1.0
 40
1.0
 40
1.0
 10
0.6265
 20
-8.1533
 30
0.0
 10
0.6265
 20
-8.1533
 30
0.0
 10
0.6837
 20
-8.1996
 30
0.0
 10
0.6837
 20
-8.1996
 30
0.0
  0
SPLINE
  5
15E
330
1F
100
AcDbEntity
  8
Ilustrace
 62
   250
370
    30
100
AcDbSpline
210
0.0
220
0.0
230
1.0
 70
    24
 71
     3
 72
     8
 73
     4
 74
     0
 42
0.0000000001
 43
0.0000000001
 40
0.0
 40
0.0
 40
0.0
 40
0.0
 40
1.0
 40
1.0
 40
1.0
 40
1.0
 10
0.6265
 20
-8.4327
 30
0.0
 10
0.6265
 20
-8.4327
 30
0.0
 10
0.426
 20
-8.5666
 30
0.0
 10
0.426
 20
-8.5666
 30
0.0
  0
SPLINE
  5
15F
330
1F
100
AcDbEntity
  8
Ilustrace
 62
   250
370
    30
100
AcDbSpline
210
0.0
220
0.0
230
1.0
 70
    24
 71
     3
 72
     8
 73
     4
 74
     0
 42
0.0000000001
 43
0.0000000001
 40
0.0
 40
0.0
 40
0.0
 40
0.0
 40
1.0
 40
1.0
 40
1.0
 40
1.0
 10
0.0193
 20
-8.1533
 30
0.0
 10
0.0193
 20
-8.1533
 30
0.0
 10
0.1689
 20
-8.1996
 30
0.0
 10
0.1689
 20
-8.1996
 30
0.0
  0
SPLINE
  5
160
330
1F
100
AcDbEntity
  8
Ilustrace
 62
   250
370
    30
100
AcDbSpline
210
0.0
220
0.0
230
1.0
 70
    24
 71
     3
 72
     8
 73
     4
 74
     0
 42
0.0000000001
 43
0.0000000001
 40
0.0
 40
0.0
 40
0.0
 40
0.0
 40
1.0
 40
1.0
 40
1.0
 40
1.0
 10
0.5566
 20
-8.1996
 30
0.0
 10
0.5566
 20
-8.1996
 30
0.0
 10
0.4641
 20
-8.1533
 30
0.0
 10
0.4641
 20
-8.1533
 30
0.0
  0
SPLINE
  5
161
330
1F
100
AcDbEntity
  8
Ilustrace
 62
   250
370
    30
100
AcDbSpline
210
0.0
220
0.0
230
1.0
 70
    24
 71
     3
 72
     8
 73
     4
 74
     0
 42
0.0000000001
 43
0.0000000001
 40
0.0
 40
0.0
 40
0.0
 40
0.0
 40
1.0
 40
1.0
 40
1.0
 40
1.0
 10
0.6265
 20
-8.2222
 30
0.0
 10
0.6265
 20
-8.2222
 30
0.0
 10
0.6265
 20
-8.4327
 30
0.0
 10
0.6265
 20
-8.4327
 30
0.0
  0
SPLINE
  5
162
330
1F
100
AcDbEntity
  8
Ilustrace
 62
   250
370
    30
100
AcDbSpline
210
0.0
220
0.0
230
1.0
 70
    24
 71
     3
 72
     8
 73
     4
 74
     0
 42
0.0000000001
 43
0.0000000001
 40
0.0
 40
0.0
 40
0.0
 40
0.0
 40
1.0
 40
1.0
 40
1.0
 40
1.0
 10
-1.841
 20
-8.4327
 30
0.0
 10
-1.841
 20
-8.4327
 30
0.0
 10
0.8037
 20
-8.4327
 30
0.0
 10
0.8037
 20
-8.4327
 30
0.0
  0
SPLINE
  5
163
330
1F
100
AcDbEntity
  8
Ilustrace
 62
   250
370
    30
100
AcDbSpline
210
0.0
220
0.0
230
1.0
 70
    24
 71
     3
 72
     8
 73
     4
 74
     0
 42
0.0000000001
 43
0.0000000001
 40
0.0
 40
0.0
 40
0.0
 40
0.0
 40
1.0
 40
1.0
 40
1.0
 40
1.0
 10
0.4641
 20
-8.2222
 30
0.0
 10
0.4641
 20
-8.2222
 30
0.0
 10
0.4641
 20
-8.1533
 30
0.0
 10
0.4641
 20
-8.1533
 30
0.0
  0
SPLINE
  5
164
330
1F
100
AcDbEntity
  8
Ilustrace
 62
   250
370
    30
100
AcDbSpline
210
0.0
220
0.0
230
1.0
 70
    24
 71
     3
 72
     8
 73
     4
 74
     0
 42
0.0000000001
 43
0.0000000001
 40
0.0
 40
0.0
 40
0.0
 40
0.0
 40
1.0
 40
1.0
 40
1.0
 40
1.0
 10
0.739
 20
-8.2222
 30
0.0
 10
0.739
 20
-8.2222
 30
0.0
 10
0.739
 20
-8.1533
 30
0.0
 10
0.739
 20
-8.1533
 30
0.0
  0
SPLINE
  5
165
330
1F
100
AcDbEntity
  8
Ilustrace
 62
   250
370
    30
100
AcDbSpline
210
0.0
220
0.0
230
1.0
 70
    24
 71
     3
 72
     8
 73
     4
 74
     0
 42
0.0000000001
 43
0.0000000001
 40
0.0
 40
0.0
 40
0.0
 40
0.0
 40
1.0
 40
1.0
 40
1.0
 40
1.0
 10
0.6265
 20
-8.2222
 30
0.0
 10
0.6265
 20
-8.2222
 30
0.0
 10
0.6265
 20
-8.1533
 30
0.0
 10
0.6265
 20
-8.1533
 30
0.0
  0
SPLINE
  5
166
330
1F
100
AcDbEntity
  8
Ilustrace
 62
   250
370
    30
100
AcDbSpline
210
0.0
220
0.0
230
1.0
 70
    24
 71
     3
 72
     8
 73
     4
 74
     0
 42
0.0000000001
 43
0.0000000001
 40
0.0
 40
0.0
 40
0.0
 40
0.0
 40
1.0
 40
1.0
 40
1.0
 40
1.0
 10
0.2586
 20
-8.2222
 30
0.0
 10
0.2586
 20
-8.2222
 30
0.0
 10
0.2586
 20
-8.1533
 30
0.0
 10
0.2586
 20
-8.1533
 30
0.0
  0
SPLINE
  5
167
330
1F
100
AcDbEntity
  8
Ilustrace
 62
   250
370
    30
100
AcDbSpline
210
0.0
220
0.0
230
1.0
 70
    24
 71
     3
 72
     8
 73
     4
 74
     0
 42
0.0000000001
 43
0.0000000001
 40
0.0
 40
0.0
 40
0.0
 40
0.0
 40
1.0
 40
1.0
 40
1.0
 40
1.0
 10
0.0193
 20
-8.2222
 30
0.0
 10
0.0193
 20
-8.2222
 30
0.0
 10
0.0193
 20
-8.1533
 30
0.0
 10
0.0193
 20
-8.1533
 30
0.0
  0
SPLINE
  5
168
330
1F
100
AcDbEntity
  8
Ilustrace
 62
   250
370
    30
100
AcDbSpline
210
0.0
220
0.0
230
1.0
 70
    24
 71
     3
 72
     8
 73
     4
 74
     0
 42
0.0000000001
 43
0.0000000001
 40
0.0
 40
0.0
 40
0.0
 40
0.0
 40
1.0
 40
1.0
 40
1.0
 40
1.0
 10
-0.2438
 20
-8.2222
 30
0.0
 10
-0.2438
 20
-8.2222
 30
0.0
 10
-0.2438
 20
-8.1533
 30
0.0
 10
-0.2438
 20
-8.1533
 30
0.0
  0
SPLINE
  5
169
330
1F
100
AcDbEntity
  8
Ilustrace
 62
   250
370
    30
100
AcDbSpline
210
0.0
220
0.0
230
1.0
 70
    24
 71
     3
 72
     8
 73
     4
 74
     0
 42
0.0000000001
 43
0.0000000001
 40
0.0
 40
0.0
 40
0.0
 40
0.0
 40
1.0
 40
1.0
 40
1.0
 40
1.0
 10
-0.5186
 20
-8.5666
 30
0.0
 10
-0.5186
 20
-8.5666
 30
0.0
 10
-0.5186
 20
-9.0842
 30
0.0
 10
-0.5186
 20
-9.0842
 30
0.0
  0
SPLINE
  5
16A
330
1F
100
AcDbEntity
  8
Ilustrace
 62
   250
370
    30
100
AcDbSpline
210
0.0
220
0.0
230
1.0
 70
    24
 71
     3
 72
     8
 73
     4
 74
     0
 42
0.0000000001
 43
0.0000000001
 40
0.0
 40
0.0
 40
0.0
 40
0.0
 40
1.0
 40
1.0
 40
1.0
 40
1.0
 10
-0.788
 20
-8.2222
 30
0.0
 10
-0.788
 20
-8.2222
 30
0.0
 10
-0.7913
 20
-8.2222
 30
0.0
 10
-0.7913
 20
-8.2222
 30
0.0
  0
SPLINE
  5
16B
330
1F
100
AcDbEntity
  8
Ilustrace
 62
   250
370
    30
100
AcDbSpline
210
0.0
220
0.0
230
1.0
 70
    24
 71
     3
 72
     8
 73
     4
 74
     0
 42
0.0000000001
 43
0.0000000001
 40
0.0
 40
0.0
 40
0.0
 40
0.0
 40
1.0
 40
1.0
 40
1.0
 40
1.0
 10
-1.1925
 20
-8.1533
 30
0.0
 10
-1.1925
 20
-8.1533
 30
0.0
 10
-1.0564
 20
-8.1533
 30
0.0
 10
-1.0564
 20
-8.1533
 30
0.0
  0
SPLINE
  5
16C
330
1F
100
AcDbEntity
  8
Ilustrace
 62
   250
370
    30
100
AcDbSpline
210
0.0
220
0.0
230
1.0
 70
    24
 71
     3
 72
     8
 73
     4
 74
     0
 42
0.0000000001
 43
0.0000000001
 40
0.0
 40
0.0
 40
0.0
 40
0.0
 40
1.0
 40
1.0
 40
1.0
 40
1.0
 10
-0.7571
 20
-8.1533
 30
0.0
 10
-0.7571
 20
-8.1533
 30
0.0
 10
-0.6779
 20
-8.1533
 30
0.0
 10
-0.6779
 20
-8.1533
 30
0.0
  0
SPLINE
  5
16D
330
1F
100
AcDbEntity
  8
Ilustrace
 62
   250
370
    30
100
AcDbSpline
210
0.0
220
0.0
230
1.0
 70
    24
 71
     3
 72
     8
 73
     4
 74
     0
 42
0.0000000001
 43
0.0000000001
 40
0.0
 40
0.0
 40
0.0
 40
0.0
 40
1.0
 40
1.0
 40
1.0
 40
1.0
 10
-0.8301
 20
-8.1533
 30
0.0
 10
-0.8301
 20
-8.1533
 30
0.0
 10
-0.985
 20
-8.1533
 30
0.0
 10
-0.985
 20
-8.1533
 30
0.0
  0
SPLINE
  5
16E
330
1F
100
AcDbEntity
  8
Ilustrace
 62
   250
370
    30
100
AcDbSpline
210
0.0
220
0.0
230
1.0
 70
    24
 71
     3
 72
     8
 73
     4
 74
     0
 42
0.0000000001
 43
0.0000000001
 40
0.0
 40
0.0
 40
0.0
 40
0.0
 40
1.0
 40
1.0
 40
1.0
 40
1.0
 10
-1.0456
 20
-8.2222
 30
0.0
 10
-1.0456
 20
-8.2222
 30
0.0
 10
-1.0554
 20
-8.2222
 30
0.0
 10
-1.0554
 20
-8.2222
 30
0.0
  0
SPLINE
  5
16F
330
1F
100
AcDbEntity
  8
Ilustrace
 62
   250
370
    30
100
AcDbSpline
210
0.0
220
0.0
230
1.0
 70
    24
 71
     3
 72
     8
 73
     4
 74
     0
 42
0.0000000001
 43
0.0000000001
 40
0.0
 40
0.0
 40
0.0
 40
0.0
 40
1.0
 40
1.0
 40
1.0
 40
1.0
 10
-1.0564
 20
-8.1533
 30
0.0
 10
-1.0564
 20
-8.1533
 30
0.0
 10
-1.0564
 20
-8.2222
 30
0.0
 10
-1.0564
 20
-8.2222
 30
0.0
  0
SPLINE
  5
170
330
1F
100
AcDbEntity
  8
Ilustrace
 62
   250
370
    30
100
AcDbSpline
210
0.0
220
0.0
230
1.0
 70
    24
 71
     3
 72
     8
 73
     4
 74
     0
 42
0.0000000001
 43
0.0000000001
 40
0.0
 40
0.0
 40
0.0
 40
0.0
 40
1.0
 40
1.0
 40
1.0
 40
1.0
 10
-1.465
 20
-8.6499
 30
0.0
 10
-1.465
 20
-8.6499
 30
0.0
 10
-1.841
 20
-8.4327
 30
0.0
 10
-1.841
 20
-8.4327
 30
0.0
  0
SPLINE
  5
171
330
1F
100
AcDbEntity
  8
Ilustrace
 62
   250
370
    30
100
AcDbSpline
210
0.0
220
0.0
230
1.0
 70
    24
 71
     3
 72
     8
 73
     4
 74
     0
 42
0.0000000001
 43
0.0000000001
 40
0.0
 40
0.0
 40
0.0
 40
0.0
 40
1.0
 40
1.0
 40
1.0
 40
1.0
 10
-1.5117
 20
-8.1533
 30
0.0
 10
-1.5117
 20
-8.1533
 30
0.0
 10
-1.5013
 20
-8.1533
 30
0.0
 10
-1.5013
 20
-8.1533
 30
0.0
  0
SPLINE
  5
172
330
1F
100
AcDbEntity
  8
Ilustrace
 62
   250
370
    30
100
AcDbSpline
210
0.0
220
0.0
230
1.0
 70
    24
 71
     3
 72
     8
 73
     4
 74
     0
 42
0.0000000001
 43
0.0000000001
 40
0.0
 40
0.0
 40
0.0
 40
0.0
 40
1.0
 40
1.0
 40
1.0
 40
1.0
 10
-1.8337
 20
-8.2222
 30
0.0
 10
-1.8337
 20
-8.2222
 30
0.0
 10
-1.8073
 20
-8.2222
 30
0.0
 10
-1.8073
 20
-8.2222
 30
0.0
  0
SPLINE
  5
173
330
1F
100
AcDbEntity
  8
Ilustrace
 62
   250
370
    30
100
AcDbSpline
210
0.0
220
0.0
230
1.0
 70
    24
 71
     3
 72
     8
 73
     4
 74
     0
 42
0.0000000001
 43
0.0000000001
 40
0.0
 40
0.0
 40
0.0
 40
0.0
 40
1.0
 40
1.0
 40
1.0
 40
1.0
 10
-1.4631
 20
-9.1686
 30
0.0
 10
-1.4631
 20
-9.1686
 30
0.0
 10
0.426
 20
-9.1686
 30
0.0
 10
0.426
 20
-9.1686
 30
0.0
  0
SPLINE
  5
174
330
1F
100
AcDbEntity
  8
Ilustrace
 62
   250
370
    30
100
AcDbSpline
210
0.0
220
0.0
230
1.0
 70
    24
 71
     3
 72
     8
 73
     4
 74
     0
 42
0.0000000001
 43
0.0000000001
 40
0.0
 40
0.0
 40
0.0
 40
0.0
 40
1.0
 40
1.0
 40
1.0
 40
1.0
 10
0.426
 20
-8.6499
 30
0.0
 10
0.426
 20
-8.6499
 30
0.0
 10
0.8037
 20
-8.4327
 30
0.0
 10
0.8037
 20
-8.4327
 30
0.0
  0
SPLINE
  5
175
330
1F
100
AcDbEntity
  8
Ilustrace
 62
   250
370
    30
100
AcDbSpline
210
0.0
220
0.0
230
1.0
 70
    24
 71
     3
 72
     8
 73
     4
 74
     0
 42
0.0000000001
 43
0.0000000001
 40
0.0
 40
0.0
 40
0.0
 40
0.0
 40
1.0
 40
1.0
 40
1.0
 40
1.0
 10
0.8037
 20
-8.4327
 30
0.0
 10
0.8037
 20
-8.4327
 30
0.0
 10
0.8037
 20
-8.1881
 30
0.0
 10
0.8037
 20
-8.1881
 30
0.0
  0
SPLINE
  5
176
330
1F
100
AcDbEntity
  8
Ilustrace
 62
   250
370
    30
100
AcDbSpline
210
0.0
220
0.0
230
1.0
 70
    24
 71
     3
 72
     8
 73
     4
 74
     0
 42
0.0000000001
 43
0.0000000001
 40
0.0
 40
0.0
 40
0.0
 40
0.0
 40
1.0
 40
1.0
 40
1.0
 40
1.0
 10
0.0193
 20
-8.1533
 30
0.0
 10
0.0193
 20
-8.1533
 30
0.0
 10
0.1554
 20
-8.1533
 30
0.0
 10
0.1554
 20
-8.1533
 30
0.0
  0
SPLINE
  5
177
330
1F
100
AcDbEntity
  8
Ilustrace
 62
   250
370
    30
100
AcDbSpline
210
0.0
220
0.0
230
1.0
 70
    24
 71
     3
 72
     8
 73
     4
 74
     0
 42
0.0000000001
 43
0.0000000001
 40
0.0
 40
0.0
 40
0.0
 40
0.0
 40
1.0
 40
1.0
 40
1.0
 40
1.0
 10
-0.2071
 20
-8.1533
 30
0.0
 10
-0.2071
 20
-8.1533
 30
0.0
 10
-0.0522
 20
-8.1533
 30
0.0
 10
-0.0522
 20
-8.1533
 30
0.0
  0
SPLINE
  5
178
330
1F
100
AcDbEntity
  8
Ilustrace
 62
   250
370
    30
100
AcDbSpline
210
0.0
220
0.0
230
1.0
 70
    24
 71
     3
 72
     8
 73
     4
 74
     0
 42
0.0000000001
 43
0.0000000001
 40
0.0
 40
0.0
 40
0.0
 40
0.0
 40
1.0
 40
1.0
 40
1.0
 40
1.0
 10
-0.2802
 20
-8.1533
 30
0.0
 10
-0.2802
 20
-8.1533
 30
0.0
 10
-0.3594
 20
-8.1533
 30
0.0
 10
-0.3594
 20
-8.1533
 30
0.0
  0
SPLINE
  5
179
330
1F
100
AcDbEntity
  8
Ilustrace
 62
   250
370
    30
100
AcDbSpline
210
0.0
220
0.0
230
1.0
 70
    24
 71
     3
 72
     8
 73
     4
 74
     0
 42
0.0000000001
 43
0.0000000001
 40
0.0
 40
0.0
 40
0.0
 40
0.0
 40
1.0
 40
1.0
 40
1.0
 40
1.0
 10
-0.5186
 20
-8.1533
 30
0.0
 10
-0.5186
 20
-8.1533
 30
0.0
 10
-0.5186
 20
-8.2222
 30
0.0
 10
-0.5186
 20
-8.2222
 30
0.0
  0
SPLINE
  5
17A
330
1F
100
AcDbEntity
  8
Ilustrace
 62
   250
370
    30
100
AcDbSpline
210
0.0
220
0.0
230
1.0
 70
    24
 71
     3
 72
     8
 73
     4
 74
     0
 42
0.0000000001
 43
0.0000000001
 40
0.0
 40
0.0
 40
0.0
 40
0.0
 40
1.0
 40
1.0
 40
1.0
 40
1.0
 10
-0.5696
 20
-8.2001
 30
0.0
 10
-0.5696
 20
-8.2001
 30
0.0
 10
-0.5186
 20
-8.2222
 30
0.0
 10
-0.5186
 20
-8.2222
 30
0.0
  0
SPLINE
  5
17B
330
1F
100
AcDbEntity
  8
Ilustrace
 62
   250
370
    30
100
AcDbSpline
210
0.0
220
0.0
230
1.0
 70
    24
 71
     3
 72
     8
 73
     4
 74
     0
 42
0.0000000001
 43
0.0000000001
 40
0.0
 40
0.0
 40
0.0
 40
0.0
 40
1.0
 40
1.0
 40
1.0
 40
1.0
 10
-0.5822
 20
-8.2001
 30
0.0
 10
-0.5822
 20
-8.2001
 30
0.0
 10
-0.5186
 20
-8.2222
 30
0.0
 10
-0.5186
 20
-8.2222
 30
0.0
  0
SPLINE
  5
17C
330
1F
100
AcDbEntity
  8
Ilustrace
 62
   250
370
    30
100
AcDbSpline
210
0.0
220
0.0
230
1.0
 70
    24
 71
     3
 72
     8
 73
     4
 74
     0
 42
0.0000000001
 43
0.0000000001
 40
0.0
 40
0.0
 40
0.0
 40
0.0
 40
1.0
 40
1.0
 40
1.0
 40
1.0
 10
-0.5949
 20
-8.2001
 30
0.0
 10
-0.5949
 20
-8.2001
 30
0.0
 10
-0.5186
 20
-8.2222
 30
0.0
 10
-0.5186
 20
-8.2222
 30
0.0
  0
SPLINE
  5
17D
330
1F
100
AcDbEntity
  8
Ilustrace
 62
   250
370
    30
100
AcDbSpline
210
0.0
220
0.0
230
1.0
 70
    24
 71
     3
 72
     8
 73
     4
 74
     0
 42
0.0000000001
 43
0.0000000001
 40
0.0
 40
0.0
 40
0.0
 40
0.0
 40
1.0
 40
1.0
 40
1.0
 40
1.0
 10
-0.587
 20
-8.2054
 30
0.0
 10
-0.587
 20
-8.2054
 30
0.0
 10
-0.5186
 20
-8.2222
 30
0.0
 10
-0.5186
 20
-8.2222
 30
0.0
  0
SPLINE
  5
17E
330
1F
100
AcDbEntity
  8
Ilustrace
 62
   250
370
    30
100
AcDbSpline
210
0.0
220
0.0
230
1.0
 70
    24
 71
     3
 72
     8
 73
     4
 74
     0
 42
0.0000000001
 43
0.0000000001
 40
0.0
 40
0.0
 40
0.0
 40
0.0
 40
1.0
 40
1.0
 40
1.0
 40
1.0
 10
-0.6092
 20
-8.1996
 30
0.0
 10
-0.6092
 20
-8.1996
 30
0.0
 10
-0.5186
 20
-8.2222
 30
0.0
 10
-0.5186
 20
-8.2222
 30
0.0
  0
SPLINE
  5
17F
330
1F
100
AcDbEntity
  8
Ilustrace
 62
   250
370
    30
100
AcDbSpline
210
0.0
220
0.0
230
1.0
 70
    24
 71
     3
 72
     8
 73
     4
 74
     0
 42
0.0000000001
 43
0.0000000001
 40
0.0
 40
0.0
 40
0.0
 40
0.0
 40
1.0
 40
1.0
 40
1.0
 40
1.0
 10
-0.7934
 20
-8.2222
 30
0.0
 10
-0.7934
 20
-8.2222
 30
0.0
 10
-0.7934
 20
-8.1533
 30
0.0
 10
-0.7934
 20
-8.1533
 30
0.0
  0
SPLINE
  5
180
330
1F
100
AcDbEntity
  8
Ilustrace
 62
   250
370
    30
100
AcDbSpline
210
0.0
220
0.0
230
1.0
 70
    24
 71
     3
 72
     8
 73
     4
 74
     0
 42
0.0000000001
 43
0.0000000001
 40
0.0
 40
0.0
 40
0.0
 40
0.0
 40
1.0
 40
1.0
 40
1.0
 40
1.0
 10
-1.2958
 20
-8.1533
 30
0.0
 10
-1.2958
 20
-8.1533
 30
0.0
 10
-1.3707
 20
-8.1533
 30
0.0
 10
-1.3707
 20
-8.1533
 30
0.0
  0
SPLINE
  5
181
330
1F
100
AcDbEntity
  8
Ilustrace
 62
   250
370
    30
100
AcDbSpline
210
0.0
220
0.0
230
1.0
 70
    24
 71
     3
 72
     8
 73
     4
 74
     0
 42
0.0000000001
 43
0.0000000001
 40
0.0
 40
0.0
 40
0.0
 40
0.0
 40
1.0
 40
1.0
 40
1.0
 40
1.0
 10
-1.751
 20
-8.2222
 30
0.0
 10
-1.751
 20
-8.2222
 30
0.0
 10
-1.7739
 20
-8.2222
 30
0.0
 10
-1.7739
 20
-8.2222
 30
0.0
  0
SPLINE
  5
182
330
1F
100
AcDbEntity
  8
Ilustrace
 62
   250
370
    30
100
AcDbSpline
210
0.0
220
0.0
230
1.0
 70
    24
 71
     3
 72
     8
 73
     4
 74
     0
 42
0.0000000001
 43
0.0000000001
 40
0.0
 40
0.0
 40
0.0
 40
0.0
 40
1.0
 40
1.0
 40
1.0
 40
1.0
 10
-1.7762
 20
-8.1533
 30
0.0
 10
-1.7762
 20
-8.1533
 30
0.0
 10
-1.7762
 20
-8.2222
 30
0.0
 10
-1.7762
 20
-8.2222
 30
0.0
  0
SPLINE
  5
183
330
1F
100
AcDbEntity
  8
Ilustrace
 62
   250
370
    30
100
AcDbSpline
210
0.0
220
0.0
230
1.0
 70
    24
 71
     3
 72
     8
 73
     4
 74
     0
 42
0.0000000001
 43
0.0000000001
 40
0.0
 40
0.0
 40
0.0
 40
0.0
 40
1.0
 40
1.0
 40
1.0
 40
1.0
 10
-1.6637
 20
-8.2222
 30
0.0
 10
-1.6637
 20
-8.2222
 30
0.0
 10
-1.6637
 20
-8.1533
 30
0.0
 10
-1.6637
 20
-8.1533
 30
0.0
  0
SPLINE
  5
184
330
1F
100
AcDbEntity
  8
Ilustrace
 62
   250
370
    30
100
AcDbSpline
210
0.0
220
0.0
230
1.0
 70
    24
 71
     3
 72
     8
 73
     4
 74
     0
 42
0.0000000001
 43
0.0000000001
 40
0.0
 40
0.0
 40
0.0
 40
0.0
 40
1.0
 40
1.0
 40
1.0
 40
1.0
 10
-1.6617
 20
-8.2222
 30
0.0
 10
-1.6617
 20
-8.2222
 30
0.0
 10
-1.6409
 20
-8.2222
 30
0.0
 10
-1.6409
 20
-8.2222
 30
0.0
  0
SPLINE
  5
185
330
1F
100
AcDbEntity
  8
Ilustrace
 62
   250
370
    30
100
AcDbSpline
210
0.0
220
0.0
230
1.0
 70
    24
 71
     3
 72
     8
 73
     4
 74
     0
 42
0.0000000001
 43
0.0000000001
 40
0.0
 40
0.0
 40
0.0
 40
0.0
 40
1.0
 40
1.0
 40
1.0
 40
1.0
 10
-1.5013
 20
-8.2222
 30
0.0
 10
-1.5013
 20
-8.2222
 30
0.0
 10
-1.5013
 20
-8.1533
 30
0.0
 10
-1.5013
 20
-8.1533
 30
0.0
  0
SPLINE
  5
186
330
1F
100
AcDbEntity
  8
Ilustrace
 62
   250
370
    30
100
AcDbSpline
210
0.0
220
0.0
230
1.0
 70
    24
 71
     3
 72
     8
 73
     4
 74
     0
 42
0.0000000001
 43
0.0000000001
 40
0.0
 40
0.0
 40
0.0
 40
0.0
 40
1.0
 40
1.0
 40
1.0
 40
1.0
 10
-1.4995
 20
-8.2222
 30
0.0
 10
-1.4995
 20
-8.2222
 30
0.0
 10
-1.4815
 20
-8.2222
 30
0.0
 10
-1.4815
 20
-8.2222
 30
0.0
  0
SPLINE
  5
187
330
1F
100
AcDbEntity
  8
Ilustrace
 62
   250
370
    30
100
AcDbSpline
210
0.0
220
0.0
230
1.0
 70
    24
 71
     3
 72
     8
 73
     4
 74
     0
 42
0.0000000001
 43
0.0000000001
 40
0.0
 40
0.0
 40
0.0
 40
0.0
 40
1.0
 40
1.0
 40
1.0
 40
1.0
 10
-1.2803
 20
-8.2222
 30
0.0
 10
-1.2803
 20
-8.2222
 30
0.0
 10
-1.2944
 20
-8.2222
 30
0.0
 10
-1.2944
 20
-8.2222
 30
0.0
  0
SPLINE
  5
188
330
1F
100
AcDbEntity
  8
Ilustrace
 62
   250
370
    30
100
AcDbSpline
210
0.0
220
0.0
230
1.0
 70
    24
 71
     3
 72
     8
 73
     4
 74
     0
 42
0.0000000001
 43
0.0000000001
 40
0.0
 40
0.0
 40
0.0
 40
0.0
 40
1.0
 40
1.0
 40
1.0
 40
1.0
 10
-1.2958
 20
-8.1533
 30
0.0
 10
-1.2958
 20
-8.1533
 30
0.0
 10
-1.2958
 20
-8.2222
 30
0.0
 10
-1.2958
 20
-8.2222
 30
0.0
  0
SPLINE
  5
189
330
1F
100
AcDbEntity
  8
Ilustrace
 62
   250
370
    30
100
AcDbSpline
210
0.0
220
0.0
230
1.0
 70
     8
 71
     3
 72
     8
 73
     4
 74
     0
 42
0.0000000001
 43
0.0000000001
 40
0.0
 40
0.0
 40
0.0
 40
0.0
 40
1.0
 40
1.0
 40
1.0
 40
1.0
 10
-0.7934
 20
-8.2222
 30
0.0
 10
-0.8813
 20
-8.2001
 30
0.0
 10
-0.9692
 20
-8.1776
 30
0.0
 10
-1.0564
 20
-8.1533
 30
0.0
  0
SPLINE
  5
18A
330
1F
100
AcDbEntity
  8
Ilustrace
 62
   250
370
    30
100
AcDbSpline
210
0.0
220
0.0
230
1.0
 70
     8
 71
     3
 72
     8
 73
     4
 74
     0
 42
0.0000000001
 43
0.0000000001
 40
0.0
 40
0.0
 40
0.0
 40
0.0
 40
1.0
 40
1.0
 40
1.0
 40
1.0
 10
-1.5013
 20
-8.1533
 30
0.0
 10
-1.4336
 20
-8.1787
 30
0.0
 10
-1.365
 20
-8.2009
 30
0.0
 10
-1.2958
 20
-8.2222
 30
0.0
  0
SPLINE
  5
18B
330
1F
100
AcDbEntity
  8
Ilustrace
 62
   250
370
    30
100
AcDbSpline
210
0.0
220
0.0
230
1.0
 70
     8
 71
     3
 72
    20
 73
    16
 74
     0
 42
0.0000000001
 43
0.0000000001
 40
0.0
 40
0.0
 40
0.0
 40
0.0
 40
0.2
 40
0.2
 40
0.2
 40
0.2
 40
0.4
 40
0.4
 40
0.4
 40
0.4
 40
0.6
 40
0.6
 40
0.6
 40
0.6
 40
1.0
 40
1.0
 40
1.0
 40
1.0
 10
0.426
 20
-8.5666
 30
0.0
 10
0.2856
 20
-8.609
 30
0.0
 10
0.1514
 20
-8.6377
 30
0.0
 10
0.0051
 20
-8.6499
 30
0.0
 10
0.0051
 20
-8.6499
 30
0.0
 10
-0.1781
 20
-8.6499
 30
0.0
 10
-0.3434
 20
-8.6196
 30
0.0
 10
-0.5186
 20
-8.5666
 30
0.0
 10
-0.5186
 20
-8.5666
 30
0.0
 10
-0.6589
 20
-8.609
 30
0.0
 10
-0.7932
 20
-8.6377
 30
0.0
 10
-0.9394
 20
-8.6499
 30
0.0
 10
-0.9394
 20
-8.6499
 30
0.0
 10
-1.1227
 20
-8.6499
 30
0.0
 10
-1.2879
 20
-8.6196
 30
0.0
 10
-1.4631
 20
-8.5666
 30
0.0
  0
SPLINE
  5
18C
330
1F
100
AcDbEntity
  8
Ilustrace
 62
   250
370
    30
100
AcDbSpline
210
0.0
220
0.0
230
1.0
 70
    24
 71
     3
 72
     8
 73
     4
 74
     0
 42
0.0000000001
 43
0.0000000001
 40
0.0
 40
0.0
 40
0.0
 40
0.0
 40
1.0
 40
1.0
 40
1.0
 40
1.0
 10
-1.8337
 20
-8.2222
 30
0.0
 10
-1.8337
 20
-8.2222
 30
0.0
 10
-1.841
 20
-8.1881
 30
0.0
 10
-1.841
 20
-8.1881
 30
0.0
  0
SPLINE
  5
18D
330
1F
100
AcDbEntity
  8
Ilustrace
 62
   250
370
    30
100
AcDbSpline
210
0.0
220
0.0
230
1.0
 70
     8
 71
     3
 72
     8
 73
     4
 74
     0
 42
0.0000000001
 43
0.0000000001
 40
0.0
 40
0.0
 40
0.0
 40
0.0
 40
1.0
 40
1.0
 40
1.0
 40
1.0
 10
-1.7762
 20
-8.2222
 30
0.0
 10
-1.8001
 20
-8.2021
 30
0.0
 10
-1.8201
 20
-8.1817
 30
0.0
 10
-1.8337
 20
-8.1533
 30
0.0
  0
SPLINE
  5
18E
330
1F
100
AcDbEntity
  8
Ilustrace
 62
   250
370
    30
100
AcDbSpline
210
0.0
220
0.0
230
1.0
 70
     8
 71
     3
 72
     8
 73
     4
 74
     0
 42
0.0000000001
 43
0.0000000001
 40
0.0
 40
0.0
 40
0.0
 40
0.0
 40
1.0
 40
1.0
 40
1.0
 40
1.0
 10
-1.6637
 20
-8.2222
 30
0.0
 10
-1.7036
 20
-8.2014
 30
0.0
 10
-1.7404
 20
-8.1802
 30
0.0
 10
-1.7762
 20
-8.1533
 30
0.0
  0
SPLINE
  5
18F
330
1F
100
AcDbEntity
  8
Ilustrace
 62
   250
370
    30
100
AcDbSpline
210
0.0
220
0.0
230
1.0
 70
     8
 71
     3
 72
     8
 73
     4
 74
     0
 42
0.0000000001
 43
0.0000000001
 40
0.0
 40
0.0
 40
0.0
 40
0.0
 40
1.0
 40
1.0
 40
1.0
 40
1.0
 10
-0.587
 20
-8.2054
 30
0.0
 10
-0.6559
 20
-8.1885
 30
0.0
 10
-0.7248
 20
-8.1712
 30
0.0
 10
-0.7934
 20
-8.1533
 30
0.0
  0
SPLINE
  5
190
330
1F
100
AcDbEntity
  8
Ilustrace
 62
   250
370
    30
100
AcDbSpline
210
0.0
220
0.0
230
1.0
 70
     8
 71
     3
 72
     8
 73
     4
 74
     0
 42
0.0000000001
 43
0.0000000001
 40
0.0
 40
0.0
 40
0.0
 40
0.0
 40
1.0
 40
1.0
 40
1.0
 40
1.0
 10
-1.0564
 20
-8.2222
 30
0.0
 10
-1.1367
 20
-8.2002
 30
0.0
 10
-1.2164
 20
-8.1778
 30
0.0
 10
-1.2958
 20
-8.1533
 30
0.0
  0
SPLINE
  5
191
330
1F
100
AcDbEntity
  8
Ilustrace
 62
   250
370
    30
100
AcDbSpline
210
0.0
220
0.0
230
1.0
 70
     8
 71
     3
 72
     8
 73
     4
 74
     0
 42
0.0000000001
 43
0.0000000001
 40
0.0
 40
0.0
 40
0.0
 40
0.0
 40
1.0
 40
1.0
 40
1.0
 40
1.0
 10
-1.5013
 20
-8.2222
 30
0.0
 10
-1.5566
 20
-8.201
 30
0.0
 10
-1.6105
 20
-8.1791
 30
0.0
 10
-1.6637
 20
-8.1533
 30
0.0
  0
SPLINE
  5
192
330
1F
100
AcDbEntity
  8
Ilustrace
 62
   250
370
    30
100
AcDbSpline
210
0.0
220
0.0
230
1.0
 70
     8
 71
     3
 72
    12
 73
     8
 74
     0
 42
0.0000000001
 43
0.0000000001
 40
0.0
 40
0.0
 40
0.0
 40
0.0
 40
0.3333333333333333
 40
0.3333333333333333
 40
0.3333333333333333
 40
0.3333333333333333
 40
1.0
 40
1.0
 40
1.0
 40
1.0
 10
-1.4631
 20
-9.0842
 30
0.0
 10
-1.2446
 20
-9.1512
 30
0.0
 10
-1.0335
 20
-9.1848
 30
0.0
 10
-0.8054
 20
-9.1549
 30
0.0
 10
-0.8054
 20
-9.1549
 30
0.0
 10
-0.7424
 20
-9.1465
 30
0.0
 10
-0.6781
 20
-9.1314
 30
0.0
 10
-0.617
 20
-9.1145
 30
0.0
  0
SPLINE
  5
193
330
1F
100
AcDbEntity
  8
Ilustrace
 62
   250
370
    30
100
AcDbSpline
210
0.0
220
0.0
230
1.0
 70
     8
 71
     3
 72
    12
 73
     8
 74
     0
 42
0.0000000001
 43
0.0000000001
 40
0.0
 40
0.0
 40
0.0
 40
0.0
 40
0.3333333333333333
 40
0.3333333333333333
 40
0.3333333333333333
 40
0.3333333333333333
 40
1.0
 40
1.0
 40
1.0
 40
1.0
 10
-0.617
 20
-9.1145
 30
0.0
 10
-0.617
 20
-9.1145
 30
0.0
 10
-0.5186
 20
-9.0842
 30
0.0
 10
-0.5186
 20
-9.0842
 30
0.0
 10
-0.5186
 20
-9.0842
 30
0.0
 10
-0.5186
 20
-9.0842
 30
0.0
 10
-0.4202
 20
-9.1145
 30
0.0
 10
-0.4202
 20
-9.1145
 30
0.0
  0
SPLINE
  5
194
330
1F
100
AcDbEntity
  8
Ilustrace
 62
   250
370
    30
100
AcDbSpline
210
0.0
220
0.0
230
1.0
 70
     8
 71
     3
 72
    12
 73
     8
 74
     0
 42
0.0000000001
 43
0.0000000001
 40
0.0
 40
0.0
 40
0.0
 40
0.0
 40
0.3333333333333333
 40
0.3333333333333333
 40
0.3333333333333333
 40
0.3333333333333333
 40
1.0
 40
1.0
 40
1.0
 40
1.0
 10
-0.4202
 20
-9.1145
 30
0.0
 10
-0.3591
 20
-9.1314
 30
0.0
 10
-0.2948
 20
-9.1465
 30
0.0
 10
-0.2318
 20
-9.1549
 30
0.0
 10
-0.2318
 20
-9.1549
 30
0.0
 10
-0.0035
 20
-9.1849
 30
0.0
 10
0.2074
 20
-9.1512
 30
0.0
 10
0.426
 20
-9.0842
 30
0.0
  0
SPLINE
  5
195
330
1F
100
AcDbEntity
  8
Ilustrace
 62
   250
370
    30
100
AcDbSpline
210
0.0
220
0.0
230
1.0
 70
     8
 71
     3
 72
    12
 73
     8
 74
     0
 42
0.0000000001
 43
0.0000000001
 40
0.0
 40
0.0
 40
0.0
 40
0.0
 40
0.3333333333333333
 40
0.3333333333333333
 40
0.3333333333333333
 40
0.3333333333333333
 40
1.0
 40
1.0
 40
1.0
 40
1.0
 10
-0.2438
 20
-8.2222
 30
0.0
 10
-0.2438
 20
-8.2222
 30
0.0
 10
-0.4588
 20
-8.1685
 30
0.0
 10
-0.4588
 20
-8.1685
 30
0.0
 10
-0.4588
 20
-8.1685
 30
0.0
 10
-0.4588
 20
-8.1685
 30
0.0
 10
-0.5186
 20
-8.1533
 30
0.0
 10
-0.5186
 20
-8.1533
 30
0.0
  0
SPLINE
  5
196
330
1F
100
AcDbEntity
  8
Ilustrace
 62
   250
370
    30
100
AcDbSpline
210
0.0
220
0.0
230
1.0
 70
     8
 71
     3
 72
    12
 73
     8
 74
     0
 42
0.0000000001
 43
0.0000000001
 40
0.0
 40
0.0
 40
0.0
 40
0.0
 40
0.3333333333333333
 40
0.3333333333333333
 40
0.3333333333333333
 40
0.3333333333333333
 40
1.0
 40
1.0
 40
1.0
 40
1.0
 10
-1.841
 20
-8.4327
 30
0.0
 10
-1.841
 20
-8.4327
 30
0.0
 10
-1.841
 20
-8.1881
 30
0.0
 10
-1.841
 20
-8.1881
 30
0.0
 10
-1.841
 20
-8.1881
 30
0.0
 10
-1.841
 20
-8.1881
 30
0.0
 10
-1.8337
 20
-8.1533
 30
0.0
 10
-1.8337
 20
-8.1533
 30
0.0
  0
SPLINE
  5
197
330
1F
100
AcDbEntity
  8
Ilustrace
 62
   250
370
    30
100
AcDbSpline
210
0.0
220
0.0
230
1.0
 70
    24
 71
     3
 72
     8
 73
     4
 74
     0
 42
0.0000000001
 43
0.0000000001
 40
0.0
 40
0.0
 40
0.0
 40
0.0
 40
1.0
 40
1.0
 40
1.0
 40
1.0
 10
-1.4631
 20
-8.5666
 30
0.0
 10
-1.4631
 20
-8.7662
 30
0.0
 10
-1.4631
 20
-8.9694
 30
0.0
 10
-1.4631
 20
-9.1686
 30
0.0
  0
SPLINE
  5
198
330
1F
100
AcDbEntity
  8
Ilustrace
 62
   250
370
    30
100
AcDbSpline
210
0.0
220
0.0
230
1.0
 70
    24
 71
     3
 72
     8
 73
     4
 74
     0
 42
0.0000000001
 43
0.0000000001
 40
0.0
 40
0.0
 40
0.0
 40
0.0
 40
1.0
 40
1.0
 40
1.0
 40
1.0
 10
0.426
 20
-8.5666
 30
0.0
 10
0.426
 20
-8.7662
 30
0.0
 10
0.426
 20
-8.9694
 30
0.0
 10
0.426
 20
-9.1686
 30
0.0
  0
SPLINE
  5
199
330
1F
100
AcDbEntity
  8
Ilustrace
 62
   250
370
    30
100
AcDbSpline
210
0.0
220
0.0
230
1.0
 70
     8
 71
     3
 72
     8
 73
     4
 74
     0
 42
0.0000000001
 43
0.0000000001
 40
0.0
 40
0.0
 40
0.0
 40
0.0
 40
1.0
 40
1.0
 40
1.0
 40
1.0
 10
0.7964
 20
-8.2222
 30
0.0
 10
0.7826
 20
-8.1941
 30
0.0
 10
0.7622
 20
-8.1736
 30
0.0
 10
0.739
 20
-8.1533
 30
0.0
  0
SPLINE
  5
19A
330
1F
100
AcDbEntity
  8
Ilustrace
 62
   250
370
    30
100
AcDbSpline
210
0.0
220
0.0
230
1.0
 70
     8
 71
     3
 72
     8
 73
     4
 74
     0
 42
0.0000000001
 43
0.0000000001
 40
0.0
 40
0.0
 40
0.0
 40
0.0
 40
1.0
 40
1.0
 40
1.0
 40
1.0
 10
0.4641
 20
-8.2222
 30
0.0
 10
0.396
 20
-8.1977
 30
0.0
 10
0.3275
 20
-8.1752
 30
0.0
 10
0.2586
 20
-8.1533
 30
0.0
  0
SPLINE
  5
19B
330
1F
100
AcDbEntity
  8
Ilustrace
 62
   250
370
    30
100
AcDbSpline
210
0.0
220
0.0
230
1.0
 70
     8
 71
     3
 72
     8
 73
     4
 74
     0
 42
0.0000000001
 43
0.0000000001
 40
0.0
 40
0.0
 40
0.0
 40
0.0
 40
1.0
 40
1.0
 40
1.0
 40
1.0
 10
-0.2438
 20
-8.1533
 30
0.0
 10
-0.156
 20
-8.1761
 30
0.0
 10
-0.0682
 20
-8.1989
 30
0.0
 10
0.0193
 20
-8.2222
 30
0.0
  0
SPLINE
  5
19C
330
1F
100
AcDbEntity
  8
Ilustrace
 62
   250
370
    30
100
AcDbSpline
210
0.0
220
0.0
230
1.0
 70
     8
 71
     3
 72
     8
 73
     4
 74
     0
 42
0.0000000001
 43
0.0000000001
 40
0.0
 40
0.0
 40
0.0
 40
0.0
 40
1.0
 40
1.0
 40
1.0
 40
1.0
 10
0.7964
 20
-8.1533
 30
0.0
 10
0.8013
 20
-8.1704
 30
0.0
 10
0.8029
 20
-8.1818
 30
0.0
 10
0.8028
 20
-8.1996
 30
0.0
  0
SPLINE
  5
19D
330
1F
100
AcDbEntity
  8
Ilustrace
 62
   250
370
    30
100
AcDbSpline
210
0.0
220
0.0
230
1.0
 70
     8
 71
     3
 72
     8
 73
     4
 74
     0
 42
0.0000000001
 43
0.0000000001
 40
0.0
 40
0.0
 40
0.0
 40
0.0
 40
1.0
 40
1.0
 40
1.0
 40
1.0
 10
0.0193
 20
-8.1533
 30
0.0
 10
0.0992
 20
-8.1761
 30
0.0
 10
0.1789
 20
-8.1987
 30
0.0
 10
0.2586
 20
-8.2222
 30
0.0
  0
SPLINE
  5
19E
330
1F
100
AcDbEntity
  8
Ilustrace
 62
   250
370
    30
100
AcDbSpline
210
0.0
220
0.0
230
1.0
 70
     8
 71
     3
 72
     8
 73
     4
 74
     0
 42
0.0000000001
 43
0.0000000001
 40
0.0
 40
0.0
 40
0.0
 40
0.0
 40
1.0
 40
1.0
 40
1.0
 40
1.0
 10
0.6265
 20
-8.1533
 30
0.0
 10
0.6657
 20
-8.1739
 30
0.0
 10
0.7036
 20
-8.1955
 30
0.0
 10
0.739
 20
-8.2222
 30
0.0
  0
SPLINE
  5
19F
330
1F
100
AcDbEntity
  8
Ilustrace
 62
   250
370
    30
100
AcDbSpline
210
0.0
220
0.0
230
1.0
 70
     8
 71
     3
 72
     8
 73
     4
 74
     0
 42
0.0000000001
 43
0.0000000001
 40
0.0
 40
0.0
 40
0.0
 40
0.0
 40
1.0
 40
1.0
 40
1.0
 40
1.0
 10
0.4641
 20
-8.1533
 30
0.0
 10
0.519
 20
-8.1747
 30
0.0
 10
0.5734
 20
-8.1969
 30
0.0
 10
0.6265
 20
-8.2222
 30
0.0
  0
SPLINE
  5
1A0
330
1F
100
AcDbEntity
  8
Ilustrace
 62
   250
370
    30
100
AcDbSpline
210
0.0
220
0.0
230
1.0
 70
    24
 71
     3
 72
     8
 73
     4
 74
     0
 42
0.0000000001
 43
0.0000000001
 40
0.0
 40
0.0
 40
0.0
 40
0.0
 40
1.0
 40
1.0
 40
1.0
 40
1.0
 10
5.7979
 20
-7.7991
 30
0.0
 10
5.7979
 20
-7.7991
 30
0.0
 10
5.7979
 20
-16.2998
 30
0.0
 10
5.7979
 20
-16.2998
 30
0.0
  0
SPLINE
  5
1A1
330
1F
100
AcDbEntity
  8
Ilustrace
 62
   250
370
    30
100
AcDbSpline
210
0.0
220
0.0
230
1.0
 70
    24
 71
     3
 72
     8
 73
     4
 74
     0
 42
0.0000000001
 43
0.0000000001
 40
0.0
 40
0.0
 40
0.0
 40
0.0
 40
1.0
 40
1.0
 40
1.0
 40
1.0
 10
-14.6273
 20
-16.2998
 30
0.0
 10
-14.6273
 20
-16.2998
 30
0.0
 10
6.1521
 20
-16.2998
 30
0.0
 10
6.1521
 20
-16.2998
 30
0.0
  0
SPLINE
  5
1A2
330
1F
100
AcDbEntity
  8
Ilustrace
 62
   250
370
    30
100
AcDbSpline
210
0.0
220
0.0
230
1.0
 70
    24
 71
     3
 72
     8
 73
     4
 74
     0
 42
0.0000000001
 43
0.0000000001
 40
0.0
 40
0.0
 40
0.0
 40
0.0
 40
1.0
 40
1.0
 40
1.0
 40
1.0
 10
6.1521
 20
-7.4449
 30
0.0
 10
6.1521
 20
-7.4449
 30
0.0
 10
6.1521
 20
-16.2998
 30
0.0
 10
6.1521
 20
-16.2998
 30
0.0
  0
SPLINE
  5
1A3
330
1F
100
AcDbEntity
  8
Ilustrace
 62
   250
370
    30
100
AcDbSpline
210
0.0
220
0.0
230
1.0
 70
    24
 71
     3
 72
     8
 73
     4
 74
     0
 42
0.0000000001
 43
0.0000000001
 40
0.0
 40
0.0
 40
0.0
 40
0.0
 40
1.0
 40
1.0
 40
1.0
 40
1.0
 10
-14.6273
 20
-7.4449
 30
0.0
 10
-14.6273
 20
-7.4449
 30
0.0
 10
6.1521
 20
-7.4449
 30
0.0
 10
6.1521
 20
-7.4449
 30
0.0
  0
SPLINE
  5
1A4
330
1F
100
AcDbEntity
  8
Ilustrace
 62
   250
370
    30
100
AcDbSpline
210
0.0
220
0.0
230
1.0
 70
    24
 71
     3
 72
     8
 73
     4
 74
     0
 42
0.0000000001
 43
0.0000000001
 40
0.0
 40
0.0
 40
0.0
 40
0.0
 40
1.0
 40
1.0
 40
1.0
 40
1.0
 10
5.7979
 20
-7.7991
 30
0.0
 10
5.7979
 20
-7.7991
 30
0.0
 10
5.6799
 20
-7.7991
 30
0.0
 10
5.6799
 20
-7.7991
 30
0.0
  0
SPLINE
  5
1A5
330
1F
100
AcDbEntity
  8
Ilustrace
 62
   250
370
    30
100
AcDbSpline
210
0.0
220
0.0
230
1.0
 70
    24
 71
     3
 72
     8
 73
     4
 74
     0
 42
0.0000000001
 43
0.0000000001
 40
0.0
 40
0.0
 40
0.0
 40
0.0
 40
1.0
 40
1.0
 40
1.0
 40
1.0
 10
-14.2731
 20
-16.2998
 30
0.0
 10
-14.2731
 20
-16.2998
 30
0.0
 10
-14.2731
 20
-7.7991
 30
0.0
 10
-14.2731
 20
-7.7991
 30
0.0
  0
SPLINE
  5
1A6
330
1F
100
AcDbEntity
  8
Ilustrace
 62
   250
370
    30
100
AcDbSpline
210
0.0
220
0.0
230
1.0
 70
    24
 71
     3
 72
     8
 73
     4
 74
     0
 42
0.0000000001
 43
0.0000000001
 40
0.0
 40
0.0
 40
0.0
 40
0.0
 40
1.0
 40
1.0
 40
1.0
 40
1.0
 10
-14.1551
 20
-7.7991
 30
0.0
 10
-14.1551
 20
-7.7991
 30
0.0
 10
-14.2731
 20
-7.7991
 30
0.0
 10
-14.2731
 20
-7.7991
 30
0.0
  0
SPLINE
  5
1A7
330
1F
100
AcDbEntity
  8
Ilustrace
 62
   250
370
    30
100
AcDbSpline
210
0.0
220
0.0
230
1.0
 70
    24
 71
     3
 72
     8
 73
     4
 74
     0
 42
0.0000000001
 43
0.0000000001
 40
0.0
 40
0.0
 40
0.0
 40
0.0
 40
1.0
 40
1.0
 40
1.0
 40
1.0
 10
-14.6273
 20
-16.2998
 30
0.0
 10
-14.6273
 20
-16.2998
 30
0.0
 10
-14.6273
 20
-7.4449
 30
0.0
 10
-14.6273
 20
-7.4449
 30
0.0
  0
SPLINE
  5
1A8
330
1F
100
AcDbEntity
  8
Ilustrace
 62
   250
370
    30
100
AcDbSpline
210
0.0
220
0.0
230
1.0
 70
    24
 71
     3
 72
     8
 73
     4
 74
     0
 42
0.0000000001
 43
0.0000000001
 40
0.0
 40
0.0
 40
0.0
 40
0.0
 40
1.0
 40
1.0
 40
1.0
 40
1.0
 10
-14.2731
 20
-7.7991
 30
0.0
 10
-14.2731
 20
-7.7991
 30
0.0
 10
-14.2731
 20
-7.4449
 30
0.0
 10
-14.2731
 20
-7.4449
 30
0.0
  0
SPLINE
  5
1A9
330
1F
100
AcDbEntity
  8
Ilustrace
 62
   250
370
    30
100
AcDbSpline
210
0.0
220
0.0
230
1.0
 70
    24
 71
     3
 72
     8
 73
     4
 74
     0
 42
0.0000000001
 43
0.0000000001
 40
0.0
 40
0.0
 40
0.0
 40
0.0
 40
1.0
 40
1.0
 40
1.0
 40
1.0
 10
-13.919
 20
-8.5075
 30
0.0
 10
-13.919
 20
-8.5075
 30
0.0
 10
-13.919
 20
-16.2998
 30
0.0
 10
-13.919
 20
-16.2998
 30
0.0
  0
SPLINE
  5
1AA
330
1F
100
AcDbEntity
  8
Ilustrace
 62
   250
370
    30
100
AcDbSpline
210
0.0
220
0.0
230
1.0
 70
    24
 71
     3
 72
     8
 73
     4
 74
     0
 42
0.0000000001
 43
0.0000000001
 40
0.0
 40
0.0
 40
0.0
 40
0.0
 40
1.0
 40
1.0
 40
1.0
 40
1.0
 10
-9.1496
 20
-8.5075
 30
0.0
 10
-9.1496
 20
-8.5075
 30
0.0
 10
-13.919
 20
-8.5075
 30
0.0
 10
-13.919
 20
-8.5075
 30
0.0
  0
SPLINE
  5
1AB
330
1F
100
AcDbEntity
  8
Ilustrace
 62
   250
370
    30
100
AcDbSpline
210
0.0
220
0.0
230
1.0
 70
    24
 71
     3
 72
     8
 73
     4
 74
     0
 42
0.0000000001
 43
0.0000000001
 40
0.0
 40
0.0
 40
0.0
 40
0.0
 40
1.0
 40
1.0
 40
1.0
 40
1.0
 10
5.4437
 20
-16.2998
 30
0.0
 10
5.4437
 20
-16.2998
 30
0.0
 10
5.4437
 20
-8.5075
 30
0.0
 10
5.4437
 20
-8.5075
 30
0.0
  0
SPLINE
  5
1AC
330
1F
100
AcDbEntity
  8
Ilustrace
 62
   250
370
    30
100
AcDbSpline
210
0.0
220
0.0
230
1.0
 70
    24
 71
     3
 72
     8
 73
     4
 74
     0
 42
0.0000000001
 43
0.0000000001
 40
0.0
 40
0.0
 40
0.0
 40
0.0
 40
1.0
 40
1.0
 40
1.0
 40
1.0
 10
0.6743
 20
-8.5075
 30
0.0
 10
0.6743
 20
-8.5075
 30
0.0
 10
5.4437
 20
-8.5075
 30
0.0
 10
5.4437
 20
-8.5075
 30
0.0
  0
SPLINE
  5
1AD
330
1F
100
AcDbEntity
  8
Ilustrace
 62
   250
370
    30
100
AcDbSpline
210
0.0
220
0.0
230
1.0
 70
    24
 71
     3
 72
     8
 73
     4
 74
     0
 42
0.0000000001
 43
0.0000000001
 40
0.0
 40
0.0
 40
0.0
 40
0.0
 40
1.0
 40
1.0
 40
1.0
 40
1.0
 10
-1.7114
 20
-8.5075
 30
0.0
 10
-1.7114
 20
-8.5075
 30
0.0
 10
-6.7638
 20
-8.5075
 30
0.0
 10
-6.7638
 20
-8.5075
 30
0.0
  0
SPLINE
  5
1AE
330
1F
100
AcDbEntity
  8
Ilustrace
 62
   250
370
    30
100
AcDbSpline
210
0.0
220
0.0
230
1.0
 70
    24
 71
     3
 72
     8
 73
     4
 74
     0
 42
0.0000000001
 43
0.0000000001
 40
0.0
 40
0.0
 40
0.0
 40
0.0
 40
1.0
 40
1.0
 40
1.0
 40
1.0
 10
5.7979
 20
-7.4449
 30
0.0
 10
5.7979
 20
-7.4449
 30
0.0
 10
5.7979
 20
-7.7991
 30
0.0
 10
5.7979
 20
-7.7991
 30
0.0
  0
SPLINE
  5
1AF
330
1F
100
AcDbEntity
  8
Ilustrace
 62
   250
370
    30
100
AcDbSpline
210
0.0
220
0.0
230
1.0
 70
     8
 71
     3
 72
    12
 73
     8
 74
     0
 42
0.0000000001
 43
0.0000000001
 40
0.0
 40
0.0
 40
0.0
 40
0.0
 40
0.3333333333333333
 40
0.3333333333333333
 40
0.3333333333333333
 40
0.3333333333333333
 40
1.0
 40
1.0
 40
1.0
 40
1.0
 10
5.7433
 20
-7.8215
 30
0.0
 10
5.7433
 20
-7.8215
 30
0.0
 10
5.6941
 20
-7.9761
 30
0.0
 10
5.6941
 20
-7.9761
 30
0.0
 10
5.6941
 20
-7.9761
 30
0.0
 10
5.6941
 20
-7.9761
 30
0.0
 10
5.6799
 20
-8.0108
 30
0.0
 10
5.6799
 20
-8.0108
 30
0.0
  0
SPLINE
  5
1B0
330
1F
100
AcDbEntity
  8
Ilustrace
 62
   250
370
    30
100
AcDbSpline
210
0.0
220
0.0
230
1.0
 70
    24
 71
     3
 72
     8
 73
     4
 74
     0
 42
0.0000000001
 43
0.0000000001
 40
0.0
 40
0.0
 40
0.0
 40
0.0
 40
1.0
 40
1.0
 40
1.0
 40
1.0
 10
5.5618
 20
-8.1533
 30
0.0
 10
5.5618
 20
-8.1533
 30
0.0
 10
5.4437
 20
-8.5075
 30
0.0
 10
5.4437
 20
-8.5075
 30
0.0
  0
SPLINE
  5
1B1
330
1F
100
AcDbEntity
  8
Ilustrace
 62
   250
370
    30
100
AcDbSpline
210
0.0
220
0.0
230
1.0
 70
     8
 71
     3
 72
     8
 73
     4
 74
     0
 42
0.0000000001
 43
0.0000000001
 40
0.0
 40
0.0
 40
0.0
 40
0.0
 40
1.0
 40
1.0
 40
1.0
 40
1.0
 10
5.7979
 20
-7.7991
 30
0.0
 10
5.7105
 20
-7.8349
 30
0.0
 10
5.7525
 20
-7.807
 30
0.0
 10
5.6799
 20
-7.894
 30
0.0
  0
SPLINE
  5
1B2
330
1F
100
AcDbEntity
  8
Ilustrace
 62
   250
370
    30
100
AcDbSpline
210
0.0
220
0.0
230
1.0
 70
    24
 71
     3
 72
     8
 73
     4
 74
     0
 42
0.0000000001
 43
0.0000000001
 40
0.0
 40
0.0
 40
0.0
 40
0.0
 40
1.0
 40
1.0
 40
1.0
 40
1.0
 10
-14.0369
 20
-8.1533
 30
0.0
 10
-14.0369
 20
-8.1533
 30
0.0
 10
-13.919
 20
-8.5075
 30
0.0
 10
-13.919
 20
-8.5075
 30
0.0
  0
SPLINE
  5
1B3
330
1F
100
AcDbEntity
  8
Ilustrace
 62
   250
370
    30
100
AcDbSpline
210
0.0
220
0.0
230
1.0
 70
     8
 71
     3
 72
    12
 73
     8
 74
     0
 42
0.0000000001
 43
0.0000000001
 40
0.0
 40
0.0
 40
0.0
 40
0.0
 40
0.3333333333333333
 40
0.3333333333333333
 40
0.3333333333333333
 40
0.3333333333333333
 40
1.0
 40
1.0
 40
1.0
 40
1.0
 10
-14.2186
 20
-7.8215
 30
0.0
 10
-14.2186
 20
-7.8215
 30
0.0
 10
-14.1695
 20
-7.9761
 30
0.0
 10
-14.1695
 20
-7.9761
 30
0.0
 10
-14.1695
 20
-7.9761
 30
0.0
 10
-14.1695
 20
-7.9761
 30
0.0
 10
-14.1551
 20
-8.0108
 30
0.0
 10
-14.1551
 20
-8.0108
 30
0.0
  0
SPLINE
  5
1B4
330
1F
100
AcDbEntity
  8
Ilustrace
 62
   250
370
    30
100
AcDbSpline
210
0.0
220
0.0
230
1.0
 70
     8
 71
     3
 72
     8
 73
     4
 74
     0
 42
0.0000000001
 43
0.0000000001
 40
0.0
 40
0.0
 40
0.0
 40
0.0
 40
1.0
 40
1.0
 40
1.0
 40
1.0
 10
-14.2731
 20
-7.7991
 30
0.0
 10
-14.1857
 20
-7.8349
 30
0.0
 10
-14.2278
 20
-7.807
 30
0.0
 10
-14.1551
 20
-7.894
 30
0.0
  0
SPLINE
  5
1B5
330
1F
100
AcDbEntity
  8
Ilustrace
 62
   250
370
    30
100
AcDbSpline
210
0.0
220
0.0
230
1.0
 70
    24
 71
     3
 72
     8
 73
     4
 74
     0
 42
0.0000000001
 43
0.0000000001
 40
0.0
 40
0.0
 40
0.0
 40
0.0
 40
1.0
 40
1.0
 40
1.0
 40
1.0
 10
5.6799
 20
-7.7991
 30
0.0
 10
5.6799
 20
-7.7991
 30
0.0
 10
-14.1551
 20
-7.7991
 30
0.0
 10
-14.1551
 20
-7.7991
 30
0.0
  0
SPLINE
  5
1B6
330
1F
100
AcDbEntity
  8
Ilustrace
 62
   250
370
    30
100
AcDbSpline
210
0.0
220
0.0
230
1.0
 70
    24
 71
     3
 72
     8
 73
     4
 74
     0
 42
0.0000000001
 43
0.0000000001
 40
0.0
 40
0.0
 40
0.0
 40
0.0
 40
1.0
 40
1.0
 40
1.0
 40
1.0
 10
-14.1551
 20
-8.1533
 30
0.0
 10
-14.1551
 20
-8.1533
 30
0.0
 10
-14.1551
 20
-7.7991
 30
0.0
 10
-14.1551
 20
-7.7991
 30
0.0
  0
SPLINE
  5
1B7
330
1F
100
AcDbEntity
  8
Ilustrace
 62
   250
370
    30
100
AcDbSpline
210
0.0
220
0.0
230
1.0
 70
    24
 71
     3
 72
     8
 73
     4
 74
     0
 42
0.0000000001
 43
0.0000000001
 40
0.0
 40
0.0
 40
0.0
 40
0.0
 40
1.0
 40
1.0
 40
1.0
 40
1.0
 10
-14.1551
 20
-8.1533
 30
0.0
 10
-14.1551
 20
-8.1533
 30
0.0
 10
5.6799
 20
-8.1533
 30
0.0
 10
5.6799
 20
-8.1533
 30
0.0
  0
SPLINE
  5
1B8
330
1F
100
AcDbEntity
  8
Ilustrace
 62
   250
370
    30
100
AcDbSpline
210
0.0
220
0.0
230
1.0
 70
    24
 71
     3
 72
     8
 73
     4
 74
     0
 42
0.0000000001
 43
0.0000000001
 40
0.0
 40
0.0
 40
0.0
 40
0.0
 40
1.0
 40
1.0
 40
1.0
 40
1.0
 10
5.6799
 20
-7.7991
 30
0.0
 10
5.6799
 20
-7.7991
 30
0.0
 10
5.6799
 20
-8.1533
 30
0.0
 10
5.6799
 20
-8.1533
 30
0.0
  0
SPLINE
  5
1B9
330
1F
100
AcDbEntity
  8
Ilustrace
 62
   250
370
    30
100
AcDbSpline
210
0.0
220
0.0
230
1.0
 70
    24
 71
     3
 72
     8
 73
     4
 74
     0
 42
0.0000000001
 43
0.0000000001
 40
0.0
 40
0.0
 40
0.0
 40
0.0
 40
1.0
 40
1.0
 40
1.0
 40
1.0
 10
-13.6827
 20
-7.7991
 30
0.0
 10
-13.6827
 20
-7.7991
 30
0.0
 10
-13.6827
 20
-8.1533
 30
0.0
 10
-13.6827
 20
-8.1533
 30
0.0
  0
SPLINE
  5
1BA
330
1F
100
AcDbEntity
  8
Ilustrace
 62
   250
370
    30
100
AcDbSpline
210
0.0
220
0.0
230
1.0
 70
    24
 71
     3
 72
     8
 73
     4
 74
     0
 42
0.0000000001
 43
0.0000000001
 40
0.0
 40
0.0
 40
0.0
 40
0.0
 40
1.0
 40
1.0
 40
1.0
 40
1.0
 10
5.2075
 20
-8.1533
 30
0.0
 10
5.2075
 20
-8.1533
 30
0.0
 10
5.2075
 20
-7.7991
 30
0.0
 10
5.2075
 20
-7.7991
 30
0.0
  0
SPLINE
  5
1BB
330
1F
100
AcDbEntity
  8
Ilustrace
 62
   250
370
    15
100
AcDbSpline
210
0.0
220
0.0
230
1.0
 70
    24
 71
     3
 72
     8
 73
     4
 74
     0
 42
0.0000000001
 43
0.0000000001
 40
0.0
 40
0.0
 40
0.0
 40
0.0
 40
1.0
 40
1.0
 40
1.0
 40
1.0
 10
6.1845
 20
5.2585
 30
0.0
 10
6.1845
 20
5.2585
 30
0.0
 10
6.1845
 20
13.8068
 30
0.0
 10
6.1845
 20
13.8068
 30
0.0
  0
SPLINE
  5
1BC
330
1F
100
AcDbEntity
  8
Ilustrace
 62
   250
370
    15
100
AcDbSpline
210
0.0
220
0.0
230
1.0
 70
    24
 71
     3
 72
     8
 73
     4
 74
     0
 42
0.0000000001
 43
0.0000000001
 40
0.0
 40
0.0
 40
0.0
 40
0.0
 40
1.0
 40
1.0
 40
1.0
 40
1.0
 10
-14.6301
 20
5.6211
 30
0.0
 10
-14.6301
 20
5.6211
 30
0.0
 10
-14.6301
 20
13.8855
 30
0.0
 10
-14.6301
 20
13.8855
 30
0.0
  0
SPLINE
  5
1BD
330
1F
100
AcDbEntity
  8
Ilustrace
 62
   250
370
    15
100
AcDbSpline
210
0.0
220
0.0
230
1.0
 70
    24
 71
     3
 72
     8
 73
     4
 74
     0
 42
0.0000000001
 43
0.0000000001
 40
0.0
 40
0.0
 40
0.0
 40
0.0
 40
1.0
 40
1.0
 40
1.0
 40
1.0
 10
14.2686
 20
-4.317
 30
0.0
 10
14.2686
 20
-4.317
 30
0.0
 10
5.8961
 20
-4.317
 30
0.0
 10
5.8961
 20
-4.317
 30
0.0
  0
SPLINE
  5
1BE
330
1F
100
AcDbEntity
  8
Ilustrace
 62
   250
100
AcDbSpline
210
0.0
220
0.0
230
1.0
 70
    11
 71
     3
 72
   124
 73
   120
 74
     0
 42
0.0000000001
 43
0.0000000001
 40
0.0
 40
0.0
 40
0.0
 40
0.0
 40
0.032258064516129
 40
0.032258064516129
 40
0.032258064516129
 40
0.032258064516129
 40
0.0645161290322581
 40
0.0645161290322581
 40
0.0645161290322581
 40
0.0645161290322581
 40
0.0967741935483871
 40
0.0967741935483871
 40
0.0967741935483871
 40
0.0967741935483871
 40
0.1290322580645161
 40
0.1290322580645161
 40
0.1290322580645161
 40
0.1290322580645161
 40
0.1612903225806452
 40
0.1612903225806452
 40
0.1612903225806452
 40
0.1612903225806452
 40
0.1935483870967742
 40
0.1935483870967742
 40
0.1935483870967742
 40
0.1935483870967742
 40
0.2258064516129032
 40
0.2258064516129032
 40
0.2258064516129032
 40
0.2258064516129032
 40
0.2580645161290323
 40
0.2580645161290323
 40
0.2580645161290323
 40
0.2580645161290323
 40
0.2903225806451613
 40
0.2903225806451613
 40
0.2903225806451613
 40
0.2903225806451613
 40
0.3225806451612903
 40
0.3225806451612903
 40
0.3225806451612903
 40
0.3225806451612903
 40
0.3548387096774194
 40
0.3548387096774194
 40
0.3548387096774194
 40
0.3548387096774194
 40
0.3870967741935484
 40
0.3870967741935484
 40
0.3870967741935484
 40
0.3870967741935484
 40
0.4193548387096774
 40
0.4193548387096774
 40
0.4193548387096774
 40
0.4193548387096774
 40
0.4516129032258064
 40
0.4516129032258064
 40
0.4516129032258064
 40
0.4516129032258064
 40
0.4838709677419355
 40
0.4838709677419355
 40
0.4838709677419355
 40
0.4838709677419355
 40
0.5161290322580645
 40
0.5161290322580645
 40
0.5161290322580645
 40
0.5161290322580645
 40
0.5483870967741935
 40
0.5483870967741935
 40
0.5483870967741935
 40
0.5483870967741935
 40
0.5806451612903226
 40
0.5806451612903226
 40
0.5806451612903226
 40
0.5806451612903226
 40
0.6129032258064516
 40
0.6129032258064516
 40
0.6129032258064516
 40
0.6129032258064516
 40
0.6451612903225806
 40
0.6451612903225806
 40
0.6451612903225806
 40
0.6451612903225806
 40
0.6774193548387096
 40
0.6774193548387096
 40
0.6774193548387096
 40
0.6774193548387096
 40
0.7096774193548387
 40
0.7096774193548387
 40
0.7096774193548387
 40
0.7096774193548387
 40
0.7419354838709677
 40
0.7419354838709677
 40
0.7419354838709677
 40
0.7419354838709677
 40
0.7741935483870968
 40
0.7741935483870968
 40
0.7741935483870968
 40
0.7741935483870968
 40
0.8064516129032258
 40
0.8064516129032258
 40
0.8064516129032258
 40
0.8064516129032258
 40
0.8387096774193549
 40
0.8387096774193549
 40
0.8387096774193549
 40
0.8387096774193549
 40
0.8709677419354839
 40
0.8709677419354839
 40
0.8709677419354839
 40
0.8709677419354839
 40
0.9032258064516129
 40
0.9032258064516129
 40
0.9032258064516129
 40
0.9032258064516129
 40
0.9354838709677419
 40
0.9354838709677419
 40
0.9354838709677419
 40
0.9354838709677419
 40
1.0
 40
1.0
 40
1.0
 40
1.0
 10
-4.9916
 20
15.1011
 30
0.0
 10
-5.075
 20
15.057
 30
0.0
 10
-5.1464
 20
15.0021
 30
0.0
 10
-5.2058
 20
14.9373
 30
0.0
 10
-5.2058
 20
14.9373
 30
0.0
 10
-5.2654
 20
14.8721
 30
0.0
 10
-5.3114
 20
14.7964
 30
0.0
 10
-5.3436
 20
14.7105
 30
0.0
 10
-5.3436
 20
14.7105
 30
0.0
 10
-5.3756
 20
14.6244
 30
0.0
 10
-5.3916
 20
14.5281
 30
0.0
 10
-5.3921
 20
14.4219
 30
0.0
 10
-5.3921
 20
14.4219
 30
0.0
 10
-5.3916
 20
14.3288
 30
0.0
 10
-5.3766
 20
14.2422
 30
0.0
 10
-5.3456
 20
14.1601
 30
0.0
 10
-5.3456
 20
14.1601
 30
0.0
 10
-5.315
 20
14.0786
 30
0.0
 10
-5.2706
 20
14.0067
 30
0.0
 10
-5.2122
 20
13.944
 30
0.0
 10
-5.2122
 20
13.944
 30
0.0
 10
-5.1536
 20
13.8819
 30
0.0
 10
-5.0827
 20
13.8328
 30
0.0
 10
-4.9995
 20
13.7973
 30
0.0
 10
-4.9995
 20
13.7973
 30
0.0
 10
-4.9156
 20
13.7617
 30
0.0
 10
-4.8209
 20
13.7436
 30
0.0
 10
-4.7155
 20
13.7429
 30
0.0
 10
-4.7155
 20
13.7429
 30
0.0
 10
-4.6186
 20
13.7436
 30
0.0
 10
-4.5287
 20
13.761
 30
0.0
 10
-4.4459
 20
13.7953
 30
0.0
 10
-4.4459
 20
13.7953
 30
0.0
 10
-4.3631
 20
13.8295
 30
0.0
 10
-4.2902
 20
13.8794
 30
0.0
 10
-4.2281
 20
13.944
 30
0.0
 10
-4.2281
 20
13.944
 30
0.0
 10
-4.1659
 20
14.008
 30
0.0
 10
-4.1173
 20
14.0851
 30
0.0
 10
-4.0827
 20
14.175
 30
0.0
 10
-4.0827
 20
14.175
 30
0.0
 10
-4.0474
 20
14.2648
 30
0.0
 10
-4.0299
 20
14.3651
 30
0.0
 10
-4.0294
 20
14.4762
 30
0.0
 10
-4.0294
 20
14.4762
 30
0.0
 10
-4.0299
 20
14.5772
 30
0.0
 10
-4.0464
 20
14.669
 30
0.0
 10
-4.079
 20
14.7524
 30
0.0
 10
-4.079
 20
14.7524
 30
0.0
 10
-4.1117
 20
14.8353
 30
0.0
 10
-4.1582
 20
14.9083
 30
0.0
 10
-4.2187
 20
14.9711
 30
0.0
 10
-4.2187
 20
14.9711
 30
0.0
 10
-4.2793
 20
15.0344
 30
0.0
 10
-4.3517
 20
15.0867
 30
0.0
 10
-4.4361
 20
15.1282
 30
0.0
 10
-4.4361
 20
15.1282
 30
0.0
 10
-4.4361
 20
15.1282
 30
0.0
 10
-4.4361
 20
15.1398
 30
0.0
 10
-4.4361
 20
15.1398
 30
0.0
 10
-4.4361
 20
15.1398
 30
0.0
 10
-4.3538
 20
15.1882
 30
0.0
 10
-4.288
 20
15.2446
 30
0.0
 10
-4.239
 20
15.3093
 30
0.0
 10
-4.239
 20
15.3093
 30
0.0
 10
-4.1898
 20
15.3733
 30
0.0
 10
-4.154
 20
15.4418
 30
0.0
 10
-4.1324
 20
15.5136
 30
0.0
 10
-4.1324
 20
15.5136
 30
0.0
 10
-4.1111
 20
15.586
 30
0.0
 10
-4.1002
 20
15.6578
 30
0.0
 10
-4.1008
 20
15.7297
 30
0.0
 10
-4.1008
 20
15.7297
 30
0.0
 10
-4.1008
 20
15.8098
 30
0.0
 10
-4.1132
 20
15.8873
 30
0.0
 10
-4.1381
 20
15.9612
 30
0.0
 10
-4.1381
 20
15.9612
 30
0.0
 10
-4.1629
 20
16.0349
 30
0.0
 10
-4.1997
 20
16.1007
 30
0.0
 10
-4.2487
 20
16.1597
 30
0.0
 10
-4.2487
 20
16.1597
 30
0.0
 10
-4.2984
 20
16.2178
 30
0.0
 10
-4.3599
 20
16.2645
 30
0.0
 10
-4.4335
 20
16.298
 30
0.0
 10
-4.4335
 20
16.298
 30
0.0
 10
-4.507
 20
16.3323
 30
0.0
 10
-4.5928
 20
16.3498
 30
0.0
 10
-4.6906
 20
16.3504
 30
0.0
 10
-4.6906
 20
16.3504
 30
0.0
 10
-4.7802
 20
16.3498
 30
0.0
 10
-4.8634
 20
16.3337
 30
0.0
 10
-4.939
 20
16.302
 30
0.0
 10
-4.939
 20
16.302
 30
0.0
 10
-5.015
 20
16.2697
 30
0.0
 10
-5.0812
 20
16.2243
 30
0.0
 10
-5.1381
 20
16.1648
 30
0.0
 10
-5.1381
 20
16.1648
 30
0.0
 10
-5.1945
 20
16.1054
 30
0.0
 10
-5.2384
 20
16.0349
 30
0.0
 10
-5.27
 20
15.9528
 30
0.0
 10
-5.27
 20
15.9528
 30
0.0
 10
-5.3011
 20
15.8706
 30
0.0
 10
-5.3172
 20
15.7794
 30
0.0
 10
-5.3176
 20
15.6791
 30
0.0
 10
-5.3176
 20
15.6791
 30
0.0
 10
-5.3176
 20
15.6061
 30
0.0
 10
-5.3067
 20
15.5349
 30
0.0
 10
-5.284
 20
15.4651
 30
0.0
 10
-5.284
 20
15.4651
 30
0.0
 10
-5.2618
 20
15.3952
 30
0.0
 10
-5.2267
 20
15.3299
 30
0.0
 10
-5.179
 20
15.2698
 30
0.0
 10
-5.179
 20
15.2698
 30
0.0
 10
-5.1314
 20
15.2096
 30
0.0
 10
-5.0704
 20
15.1572
 30
0.0
 10
-4.9948
 20
15.1127
 30
0.0
 10
-4.9948
 20
15.1127
 30
0.0
 10
-4.9948
 20
15.1127
 30
0.0
 10
-4.9916
 20
15.1011
 30
0.0
 10
-4.9916
 20
15.1011
 30
0.0
  0
SPLINE
  5
1BF
330
1F
100
AcDbEntity
  8
Ilustrace
 62
   250
100
AcDbSpline
210
0.0
220
0.0
230
1.0
 70
    11
 71
     3
 72
    56
 73
    52
 74
     0
 42
0.0000000001
 43
0.0000000001
 40
0.0
 40
0.0
 40
0.0
 40
0.0
 40
0.0714285714285714
 40
0.0714285714285714
 40
0.0714285714285714
 40
0.0714285714285714
 40
0.1428571428571428
 40
0.1428571428571428
 40
0.1428571428571428
 40
0.1428571428571428
 40
0.2142857142857143
 40
0.2142857142857143
 40
0.2142857142857143
 40
0.2142857142857143
 40
0.2857142857142857
 40
0.2857142857142857
 40
0.2857142857142857
 40
0.2857142857142857
 40
0.3571428571428572
 40
0.3571428571428572
 40
0.3571428571428572
 40
0.3571428571428572
 40
0.4285714285714285
 40
0.4285714285714285
 40
0.4285714285714285
 40
0.4285714285714285
 40
0.5
 40
0.5
 40
0.5
 40
0.5
 40
0.5714285714285714
 40
0.5714285714285714
 40
0.5714285714285714
 40
0.5714285714285714
 40
0.6428571428571429
 40
0.6428571428571429
 40
0.6428571428571429
 40
0.6428571428571429
 40
0.7142857142857143
 40
0.7142857142857143
 40
0.7142857142857143
 40
0.7142857142857143
 40
0.7857142857142857
 40
0.7857142857142857
 40
0.7857142857142857
 40
0.7857142857142857
 40
0.8571428571428571
 40
0.8571428571428571
 40
0.8571428571428571
 40
0.8571428571428571
 40
1.0
 40
1.0
 40
1.0
 40
1.0
 10
-4.7093
 20
13.9913
 30
0.0
 10
-4.7738
 20
13.9918
 30
0.0
 10
-4.8314
 20
14.0048
 30
0.0
 10
-4.882
 20
14.03
 30
0.0
 10
-4.882
 20
14.03
 30
0.0
 10
-4.9332
 20
14.0559
 30
0.0
 10
-4.9761
 20
14.0908
 30
0.0
 10
-5.0113
 20
14.1355
 30
0.0
 10
-5.0113
 20
14.1355
 30
0.0
 10
-5.046
 20
14.1794
 30
0.0
 10
-5.0724
 20
14.2305
 30
0.0
 10
-5.0901
 20
14.2874
 30
0.0
 10
-5.0901
 20
14.2874
 30
0.0
 10
-5.1071
 20
14.3444
 30
0.0
 10
-5.1149
 20
14.4052
 30
0.0
 10
-5.1127
 20
14.4685
 30
0.0
 10
-5.1127
 20
14.4685
 30
0.0
 10
-5.1127
 20
14.5494
 30
0.0
 10
-5.0988
 20
14.6237
 30
0.0
 10
-5.0708
 20
14.6924
 30
0.0
 10
-5.0708
 20
14.6924
 30
0.0
 10
-5.0434
 20
14.7609
 30
0.0
 10
-5.0025
 20
14.8209
 30
0.0
 10
-4.9487
 20
14.8721
 30
0.0
 10
-4.9487
 20
14.8721
 30
0.0
 10
-4.8944
 20
14.9232
 30
0.0
 10
-4.8282
 20
14.9633
 30
0.0
 10
-4.7496
 20
14.9924
 30
0.0
 10
-4.7496
 20
14.9924
 30
0.0
 10
-4.6581
 20
14.9607
 30
0.0
 10
-4.5793
 20
14.9212
 30
0.0
 10
-4.5132
 20
14.8733
 30
0.0
 10
-4.5132
 20
14.8733
 30
0.0
 10
-4.4469
 20
14.8261
 30
0.0
 10
-4.3957
 20
14.7673
 30
0.0
 10
-4.3599
 20
14.6974
 30
0.0
 10
-4.3599
 20
14.6974
 30
0.0
 10
-4.3243
 20
14.6269
 30
0.0
 10
-4.3061
 20
14.5415
 30
0.0
 10
-4.3057
 20
14.4413
 30
0.0
 10
-4.3057
 20
14.4413
 30
0.0
 10
-4.3061
 20
14.3541
 30
0.0
 10
-4.3228
 20
14.2765
 30
0.0
 10
-4.3559
 20
14.2092
 30
0.0
 10
-4.3559
 20
14.2092
 30
0.0
 10
-4.3889
 20
14.142
 30
0.0
 10
-4.4355
 20
14.0889
 30
0.0
 10
-4.4955
 20
14.0501
 30
0.0
 10
-4.4955
 20
14.0501
 30
0.0
 10
-4.5556
 20
14.0112
 30
0.0
 10
-4.6269
 20
13.9918
 30
0.0
 10
-4.7093
 20
13.9913
 30
0.0
  0
SPLINE
  5
1C0
330
1F
100
AcDbEntity
  8
Ilustrace
 62
   250
100
AcDbSpline
210
0.0
220
0.0
230
1.0
 70
    11
 71
     3
 72
    56
 73
    52
 74
     0
 42
0.0000000001
 43
0.0000000001
 40
0.0
 40
0.0
 40
0.0
 40
0.0
 40
0.0714285714285714
 40
0.0714285714285714
 40
0.0714285714285714
 40
0.0714285714285714
 40
0.1428571428571428
 40
0.1428571428571428
 40
0.1428571428571428
 40
0.1428571428571428
 40
0.2142857142857143
 40
0.2142857142857143
 40
0.2142857142857143
 40
0.2142857142857143
 40
0.2857142857142857
 40
0.2857142857142857
 40
0.2857142857142857
 40
0.2857142857142857
 40
0.3571428571428572
 40
0.3571428571428572
 40
0.3571428571428572
 40
0.3571428571428572
 40
0.4285714285714285
 40
0.4285714285714285
 40
0.4285714285714285
 40
0.4285714285714285
 40
0.5
 40
0.5
 40
0.5
 40
0.5
 40
0.5714285714285714
 40
0.5714285714285714
 40
0.5714285714285714
 40
0.5714285714285714
 40
0.6428571428571429
 40
0.6428571428571429
 40
0.6428571428571429
 40
0.6428571428571429
 40
0.7142857142857143
 40
0.7142857142857143
 40
0.7142857142857143
 40
0.7142857142857143
 40
0.7857142857142857
 40
0.7857142857142857
 40
0.7857142857142857
 40
0.7857142857142857
 40
0.8571428571428571
 40
0.8571428571428571
 40
0.8571428571428571
 40
0.8571428571428571
 40
1.0
 40
1.0
 40
1.0
 40
1.0
 10
-4.7061
 20
16.1059
 30
0.0
 10
-4.645
 20
16.1054
 30
0.0
 10
-4.5928
 20
16.0937
 30
0.0
 10
-4.5493
 20
16.0704
 30
0.0
 10
-4.5493
 20
16.0704
 30
0.0
 10
-4.5058
 20
16.0471
 30
0.0
 10
-4.4707
 20
16.0154
 30
0.0
 10
-4.4433
 20
15.9761
 30
0.0
 10
-4.4433
 20
15.9761
 30
0.0
 10
-4.4165
 20
15.9366
 30
0.0
 10
-4.3962
 20
15.8925
 30
0.0
 10
-4.3833
 20
15.8441
 30
0.0
 10
-4.3833
 20
15.8441
 30
0.0
 10
-4.3708
 20
15.7955
 30
0.0
 10
-4.3647
 20
15.7458
 30
0.0
 10
-4.3647
 20
15.6947
 30
0.0
 10
-4.3647
 20
15.6947
 30
0.0
 10
-4.3652
 20
15.6183
 30
0.0
 10
-4.3786
 20
15.5505
 30
0.0
 10
-4.4056
 20
15.491
 30
0.0
 10
-4.4056
 20
15.491
 30
0.0
 10
-4.4324
 20
15.4309
 30
0.0
 10
-4.4687
 20
15.3798
 30
0.0
 10
-4.5152
 20
15.3376
 30
0.0
 10
-4.5152
 20
15.3376
 30
0.0
 10
-4.5612
 20
15.2949
 30
0.0
 10
-4.6134
 20
15.2614
 30
0.0
 10
-4.672
 20
15.2368
 30
0.0
 10
-4.672
 20
15.2368
 30
0.0
 10
-4.75
 20
15.2627
 30
0.0
 10
-4.8179
 20
15.2957
 30
0.0
 10
-4.8759
 20
15.3358
 30
0.0
 10
-4.8759
 20
15.3358
 30
0.0
 10
-4.9338
 20
15.3765
 30
0.0
 10
-4.9787
 20
15.4269
 30
0.0
 10
-5.0103
 20
15.487
 30
0.0
 10
-5.0103
 20
15.487
 30
0.0
 10
-5.0419
 20
15.5473
 30
0.0
 10
-5.0574
 20
15.619
 30
0.0
 10
-5.0569
 20
15.7024
 30
0.0
 10
-5.0569
 20
15.7024
 30
0.0
 10
-5.0569
 20
15.7761
 30
0.0
 10
-5.0434
 20
15.8428
 30
0.0
 10
-5.0166
 20
15.9036
 30
0.0
 10
-5.0166
 20
15.9036
 30
0.0
 10
-4.9896
 20
15.9644
 30
0.0
 10
-4.9497
 20
16.0129
 30
0.0
 10
-4.8975
 20
16.0498
 30
0.0
 10
-4.8975
 20
16.0498
 30
0.0
 10
-4.8459
 20
16.0866
 30
0.0
 10
-4.7816
 20
16.1054
 30
0.0
 10
-4.7061
 20
16.1059
 30
0.0
  0
SPLINE
  5
1C1
330
1F
100
AcDbEntity
  8
Ilustrace
 62
   250
100
AcDbSpline
210
0.0
220
0.0
230
1.0
 70
    11
 71
     3
 72
   124
 73
   120
 74
     0
 42
0.0000000001
 43
0.0000000001
 40
0.0
 40
0.0
 40
0.0
 40
0.0
 40
0.032258064516129
 40
0.032258064516129
 40
0.032258064516129
 40
0.032258064516129
 40
0.0645161290322581
 40
0.0645161290322581
 40
0.0645161290322581
 40
0.0645161290322581
 40
0.0967741935483871
 40
0.0967741935483871
 40
0.0967741935483871
 40
0.0967741935483871
 40
0.1290322580645161
 40
0.1290322580645161
 40
0.1290322580645161
 40
0.1290322580645161
 40
0.1612903225806452
 40
0.1612903225806452
 40
0.1612903225806452
 40
0.1612903225806452
 40
0.1935483870967742
 40
0.1935483870967742
 40
0.1935483870967742
 40
0.1935483870967742
 40
0.2258064516129032
 40
0.2258064516129032
 40
0.2258064516129032
 40
0.2258064516129032
 40
0.2580645161290323
 40
0.2580645161290323
 40
0.2580645161290323
 40
0.2580645161290323
 40
0.2903225806451613
 40
0.2903225806451613
 40
0.2903225806451613
 40
0.2903225806451613
 40
0.3225806451612903
 40
0.3225806451612903
 40
0.3225806451612903
 40
0.3225806451612903
 40
0.3548387096774194
 40
0.3548387096774194
 40
0.3548387096774194
 40
0.3548387096774194
 40
0.3870967741935484
 40
0.3870967741935484
 40
0.3870967741935484
 40
0.3870967741935484
 40
0.4193548387096774
 40
0.4193548387096774
 40
0.4193548387096774
 40
0.4193548387096774
 40
0.4516129032258064
 40
0.4516129032258064
 40
0.4516129032258064
 40
0.4516129032258064
 40
0.4838709677419355
 40
0.4838709677419355
 40
0.4838709677419355
 40
0.4838709677419355
 40
0.5161290322580645
 40
0.5161290322580645
 40
0.5161290322580645
 40
0.5161290322580645
 40
0.5483870967741935
 40
0.5483870967741935
 40
0.5483870967741935
 40
0.5483870967741935
 40
0.5806451612903226
 40
0.5806451612903226
 40
0.5806451612903226
 40
0.5806451612903226
 40
0.6129032258064516
 40
0.6129032258064516
 40
0.6129032258064516
 40
0.6129032258064516
 40
0.6451612903225806
 40
0.6451612903225806
 40
0.6451612903225806
 40
0.6451612903225806
 40
0.6774193548387096
 40
0.6774193548387096
 40
0.6774193548387096
 40
0.6774193548387096
 40
0.7096774193548387
 40
0.7096774193548387
 40
0.7096774193548387
 40
0.7096774193548387
 40
0.7419354838709677
 40
0.7419354838709677
 40
0.7419354838709677
 40
0.7419354838709677
 40
0.7741935483870968
 40
0.7741935483870968
 40
0.7741935483870968
 40
0.7741935483870968
 40
0.8064516129032258
 40
0.8064516129032258
 40
0.8064516129032258
 40
0.8064516129032258
 40
0.8387096774193549
 40
0.8387096774193549
 40
0.8387096774193549
 40
0.8387096774193549
 40
0.8709677419354839
 40
0.8709677419354839
 40
0.8709677419354839
 40
0.8709677419354839
 40
0.9032258064516129
 40
0.9032258064516129
 40
0.9032258064516129
 40
0.9032258064516129
 40
0.9354838709677419
 40
0.9354838709677419
 40
0.9354838709677419
 40
0.9354838709677419
 40
1.0
 40
1.0
 40
1.0
 40
1.0
 10
-3.3992
 20
15.1011
 30
0.0
 10
-3.4826
 20
15.057
 30
0.0
 10
-3.554
 20
15.0021
 30
0.0
 10
-3.6134
 20
14.9373
 30
0.0
 10
-3.6134
 20
14.9373
 30
0.0
 10
-3.673
 20
14.8721
 30
0.0
 10
-3.719
 20
14.7964
 30
0.0
 10
-3.7512
 20
14.7105
 30
0.0
 10
-3.7512
 20
14.7105
 30
0.0
 10
-3.7832
 20
14.6244
 30
0.0
 10
-3.7992
 20
14.5281
 30
0.0
 10
-3.7997
 20
14.4219
 30
0.0
 10
-3.7997
 20
14.4219
 30
0.0
 10
-3.7992
 20
14.3288
 30
0.0
 10
-3.7842
 20
14.2422
 30
0.0
 10
-3.7532
 20
14.1601
 30
0.0
 10
-3.7532
 20
14.1601
 30
0.0
 10
-3.7226
 20
14.0786
 30
0.0
 10
-3.6781
 20
14.0067
 30
0.0
 10
-3.6197
 20
13.944
 30
0.0
 10
-3.6197
 20
13.944
 30
0.0
 10
-3.5612
 20
13.8819
 30
0.0
 10
-3.4903
 20
13.8328
 30
0.0
 10
-3.4071
 20
13.7973
 30
0.0
 10
-3.4071
 20
13.7973
 30
0.0
 10
-3.3232
 20
13.7617
 30
0.0
 10
-3.2285
 20
13.7436
 30
0.0
 10
-3.123
 20
13.7429
 30
0.0
 10
-3.123
 20
13.7429
 30
0.0
 10
-3.0262
 20
13.7436
 30
0.0
 10
-2.9362
 20
13.761
 30
0.0
 10
-2.8534
 20
13.7953
 30
0.0
 10
-2.8534
 20
13.7953
 30
0.0
 10
-2.7707
 20
13.8295
 30
0.0
 10
-2.6978
 20
13.8794
 30
0.0
 10
-2.6357
 20
13.944
 30
0.0
 10
-2.6357
 20
13.944
 30
0.0
 10
-2.5735
 20
14.008
 30
0.0
 10
-2.5249
 20
14.0851
 30
0.0
 10
-2.4903
 20
14.175
 30
0.0
 10
-2.4903
 20
14.175
 30
0.0
 10
-2.455
 20
14.2648
 30
0.0
 10
-2.4375
 20
14.3651
 30
0.0
 10
-2.4369
 20
14.4762
 30
0.0
 10
-2.4369
 20
14.4762
 30
0.0
 10
-2.4375
 20
14.5772
 30
0.0
 10
-2.454
 20
14.669
 30
0.0
 10
-2.4866
 20
14.7524
 30
0.0
 10
-2.4866
 20
14.7524
 30
0.0
 10
-2.5193
 20
14.8353
 30
0.0
 10
-2.5658
 20
14.9083
 30
0.0
 10
-2.6263
 20
14.9711
 30
0.0
 10
-2.6263
 20
14.9711
 30
0.0
 10
-2.6869
 20
15.0344
 30
0.0
 10
-2.7593
 20
15.0867
 30
0.0
 10
-2.8437
 20
15.1282
 30
0.0
 10
-2.8437
 20
15.1282
 30
0.0
 10
-2.8437
 20
15.1282
 30
0.0
 10
-2.8437
 20
15.1398
 30
0.0
 10
-2.8437
 20
15.1398
 30
0.0
 10
-2.8437
 20
15.1398
 30
0.0
 10
-2.7613
 20
15.1882
 30
0.0
 10
-2.6956
 20
15.2446
 30
0.0
 10
-2.6466
 20
15.3093
 30
0.0
 10
-2.6466
 20
15.3093
 30
0.0
 10
-2.5973
 20
15.3733
 30
0.0
 10
-2.5616
 20
15.4418
 30
0.0
 10
-2.54
 20
15.5136
 30
0.0
 10
-2.54
 20
15.5136
 30
0.0
 10
-2.5187
 20
15.586
 30
0.0
 10
-2.5078
 20
15.6578
 30
0.0
 10
-2.5084
 20
15.7297
 30
0.0
 10
-2.5084
 20
15.7297
 30
0.0
 10
-2.5084
 20
15.8098
 30
0.0
 10
-2.5207
 20
15.8873
 30
0.0
 10
-2.5457
 20
15.9612
 30
0.0
 10
-2.5457
 20
15.9612
 30
0.0
 10
-2.5705
 20
16.0349
 30
0.0
 10
-2.6072
 20
16.1007
 30
0.0
 10
-2.6563
 20
16.1597
 30
0.0
 10
-2.6563
 20
16.1597
 30
0.0
 10
-2.706
 20
16.2178
 30
0.0
 10
-2.7675
 20
16.2645
 30
0.0
 10
-2.8411
 20
16.298
 30
0.0
 10
-2.8411
 20
16.298
 30
0.0
 10
-2.9146
 20
16.3323
 30
0.0
 10
-3.0004
 20
16.3498
 30
0.0
 10
-3.0982
 20
16.3504
 30
0.0
 10
-3.0982
 20
16.3504
 30
0.0
 10
-3.1877
 20
16.3498
 30
0.0
 10
-3.271
 20
16.3337
 30
0.0
 10
-3.3466
 20
16.302
 30
0.0
 10
-3.3466
 20
16.302
 30
0.0
 10
-3.4226
 20
16.2697
 30
0.0
 10
-3.4888
 20
16.2243
 30
0.0
 10
-3.5457
 20
16.1648
 30
0.0
 10
-3.5457
 20
16.1648
 30
0.0
 10
-3.6021
 20
16.1054
 30
0.0
 10
-3.646
 20
16.0349
 30
0.0
 10
-3.6776
 20
15.9528
 30
0.0
 10
-3.6776
 20
15.9528
 30
0.0
 10
-3.7087
 20
15.8706
 30
0.0
 10
-3.7248
 20
15.7794
 30
0.0
 10
-3.7252
 20
15.6791
 30
0.0
 10
-3.7252
 20
15.6791
 30
0.0
 10
-3.7252
 20
15.6061
 30
0.0
 10
-3.7143
 20
15.5349
 30
0.0
 10
-3.6916
 20
15.4651
 30
0.0
 10
-3.6916
 20
15.4651
 30
0.0
 10
-3.6694
 20
15.3952
 30
0.0
 10
-3.6342
 20
15.3299
 30
0.0
 10
-3.5866
 20
15.2698
 30
0.0
 10
-3.5866
 20
15.2698
 30
0.0
 10
-3.539
 20
15.2096
 30
0.0
 10
-3.478
 20
15.1572
 30
0.0
 10
-3.4024
 20
15.1127
 30
0.0
 10
-3.4024
 20
15.1127
 30
0.0
 10
-3.4024
 20
15.1127
 30
0.0
 10
-3.3992
 20
15.1011
 30
0.0
 10
-3.3992
 20
15.1011
 30
0.0
  0
SPLINE
  5
1C2
330
1F
100
AcDbEntity
  8
Ilustrace
 62
   250
100
AcDbSpline
210
0.0
220
0.0
230
1.0
 70
    11
 71
     3
 72
    56
 73
    52
 74
     0
 42
0.0000000001
 43
0.0000000001
 40
0.0
 40
0.0
 40
0.0
 40
0.0
 40
0.0714285714285714
 40
0.0714285714285714
 40
0.0714285714285714
 40
0.0714285714285714
 40
0.1428571428571428
 40
0.1428571428571428
 40
0.1428571428571428
 40
0.1428571428571428
 40
0.2142857142857143
 40
0.2142857142857143
 40
0.2142857142857143
 40
0.2142857142857143
 40
0.2857142857142857
 40
0.2857142857142857
 40
0.2857142857142857
 40
0.2857142857142857
 40
0.3571428571428572
 40
0.3571428571428572
 40
0.3571428571428572
 40
0.3571428571428572
 40
0.4285714285714285
 40
0.4285714285714285
 40
0.4285714285714285
 40
0.4285714285714285
 40
0.5
 40
0.5
 40
0.5
 40
0.5
 40
0.5714285714285714
 40
0.5714285714285714
 40
0.5714285714285714
 40
0.5714285714285714
 40
0.6428571428571429
 40
0.6428571428571429
 40
0.6428571428571429
 40
0.6428571428571429
 40
0.7142857142857143
 40
0.7142857142857143
 40
0.7142857142857143
 40
0.7142857142857143
 40
0.7857142857142857
 40
0.7857142857142857
 40
0.7857142857142857
 40
0.7857142857142857
 40
0.8571428571428571
 40
0.8571428571428571
 40
0.8571428571428571
 40
0.8571428571428571
 40
1.0
 40
1.0
 40
1.0
 40
1.0
 10
-3.1169
 20
13.9913
 30
0.0
 10
-3.1814
 20
13.9918
 30
0.0
 10
-3.239
 20
14.0048
 30
0.0
 10
-3.2896
 20
14.03
 30
0.0
 10
-3.2896
 20
14.03
 30
0.0
 10
-3.3408
 20
14.0559
 30
0.0
 10
-3.3837
 20
14.0908
 30
0.0
 10
-3.4189
 20
14.1355
 30
0.0
 10
-3.4189
 20
14.1355
 30
0.0
 10
-3.4536
 20
14.1794
 30
0.0
 10
-3.48
 20
14.2305
 30
0.0
 10
-3.4976
 20
14.2874
 30
0.0
 10
-3.4976
 20
14.2874
 30
0.0
 10
-3.5147
 20
14.3444
 30
0.0
 10
-3.5225
 20
14.4052
 30
0.0
 10
-3.5203
 20
14.4685
 30
0.0
 10
-3.5203
 20
14.4685
 30
0.0
 10
-3.5203
 20
14.5494
 30
0.0
 10
-3.5064
 20
14.6237
 30
0.0
 10
-3.4784
 20
14.6924
 30
0.0
 10
-3.4784
 20
14.6924
 30
0.0
 10
-3.451
 20
14.7609
 30
0.0
 10
-3.4101
 20
14.8209
 30
0.0
 10
-3.3563
 20
14.8721
 30
0.0
 10
-3.3563
 20
14.8721
 30
0.0
 10
-3.3019
 20
14.9232
 30
0.0
 10
-3.2358
 20
14.9633
 30
0.0
 10
-3.1572
 20
14.9924
 30
0.0
 10
-3.1572
 20
14.9924
 30
0.0
 10
-3.0656
 20
14.9607
 30
0.0
 10
-2.9869
 20
14.9212
 30
0.0
 10
-2.9207
 20
14.8733
 30
0.0
 10
-2.9207
 20
14.8733
 30
0.0
 10
-2.8545
 20
14.8261
 30
0.0
 10
-2.8032
 20
14.7673
 30
0.0
 10
-2.7675
 20
14.6974
 30
0.0
 10
-2.7675
 20
14.6974
 30
0.0
 10
-2.7319
 20
14.6269
 30
0.0
 10
-2.7137
 20
14.5415
 30
0.0
 10
-2.7133
 20
14.4413
 30
0.0
 10
-2.7133
 20
14.4413
 30
0.0
 10
-2.7137
 20
14.3541
 30
0.0
 10
-2.7303
 20
14.2765
 30
0.0
 10
-2.7635
 20
14.2092
 30
0.0
 10
-2.7635
 20
14.2092
 30
0.0
 10
-2.7965
 20
14.142
 30
0.0
 10
-2.8431
 20
14.0889
 30
0.0
 10
-2.9031
 20
14.0501
 30
0.0
 10
-2.9031
 20
14.0501
 30
0.0
 10
-2.9632
 20
14.0112
 30
0.0
 10
-3.0345
 20
13.9918
 30
0.0
 10
-3.1169
 20
13.9913
 30
0.0
  0
SPLINE
  5
1C3
330
1F
100
AcDbEntity
  8
Ilustrace
 62
   250
100
AcDbSpline
210
0.0
220
0.0
230
1.0
 70
    11
 71
     3
 72
    56
 73
    52
 74
     0
 42
0.0000000001
 43
0.0000000001
 40
0.0
 40
0.0
 40
0.0
 40
0.0
 40
0.0714285714285714
 40
0.0714285714285714
 40
0.0714285714285714
 40
0.0714285714285714
 40
0.1428571428571428
 40
0.1428571428571428
 40
0.1428571428571428
 40
0.1428571428571428
 40
0.2142857142857143
 40
0.2142857142857143
 40
0.2142857142857143
 40
0.2142857142857143
 40
0.2857142857142857
 40
0.2857142857142857
 40
0.2857142857142857
 40
0.2857142857142857
 40
0.3571428571428572
 40
0.3571428571428572
 40
0.3571428571428572
 40
0.3571428571428572
 40
0.4285714285714285
 40
0.4285714285714285
 40
0.4285714285714285
 40
0.4285714285714285
 40
0.5
 40
0.5
 40
0.5
 40
0.5
 40
0.5714285714285714
 40
0.5714285714285714
 40
0.5714285714285714
 40
0.5714285714285714
 40
0.6428571428571429
 40
0.6428571428571429
 40
0.6428571428571429
 40
0.6428571428571429
 40
0.7142857142857143
 40
0.7142857142857143
 40
0.7142857142857143
 40
0.7142857142857143
 40
0.7857142857142857
 40
0.7857142857142857
 40
0.7857142857142857
 40
0.7857142857142857
 40
0.8571428571428571
 40
0.8571428571428571
 40
0.8571428571428571
 40
0.8571428571428571
 40
1.0
 40
1.0
 40
1.0
 40
1.0
 10
-3.1137
 20
16.1059
 30
0.0
 10
-3.0526
 20
16.1054
 30
0.0
 10
-3.0004
 20
16.0937
 30
0.0
 10
-2.9569
 20
16.0704
 30
0.0
 10
-2.9569
 20
16.0704
 30
0.0
 10
-2.9134
 20
16.0471
 30
0.0
 10
-2.8783
 20
16.0154
 30
0.0
 10
-2.8509
 20
15.9761
 30
0.0
 10
-2.8509
 20
15.9761
 30
0.0
 10
-2.824
 20
15.9366
 30
0.0
 10
-2.8038
 20
15.8925
 30
0.0
 10
-2.7909
 20
15.8441
 30
0.0
 10
-2.7909
 20
15.8441
 30
0.0
 10
-2.7784
 20
15.7955
 30
0.0
 10
-2.7722
 20
15.7458
 30
0.0
 10
-2.7722
 20
15.6947
 30
0.0
 10
-2.7722
 20
15.6947
 30
0.0
 10
-2.7728
 20
15.6183
 30
0.0
 10
-2.7862
 20
15.5505
 30
0.0
 10
-2.8131
 20
15.491
 30
0.0
 10
-2.8131
 20
15.491
 30
0.0
 10
-2.84
 20
15.4309
 30
0.0
 10
-2.8763
 20
15.3798
 30
0.0
 10
-2.9227
 20
15.3376
 30
0.0
 10
-2.9227
 20
15.3376
 30
0.0
 10
-2.9688
 20
15.2949
 30
0.0
 10
-3.021
 20
15.2614
 30
0.0
 10
-3.0796
 20
15.2368
 30
0.0
 10
-3.0796
 20
15.2368
 30
0.0
 10
-3.1576
 20
15.2627
 30
0.0
 10
-3.2255
 20
15.2957
 30
0.0
 10
-3.2834
 20
15.3358
 30
0.0
 10
-3.2834
 20
15.3358
 30
0.0
 10
-3.3414
 20
15.3765
 30
0.0
 10
-3.3863
 20
15.4269
 30
0.0
 10
-3.4179
 20
15.487
 30
0.0
 10
-3.4179
 20
15.487
 30
0.0
 10
-3.4494
 20
15.5473
 30
0.0
 10
-3.4649
 20
15.619
 30
0.0
 10
-3.4645
 20
15.7024
 30
0.0
 10
-3.4645
 20
15.7024
 30
0.0
 10
-3.4645
 20
15.7761
 30
0.0
 10
-3.451
 20
15.8428
 30
0.0
 10
-3.4242
 20
15.9036
 30
0.0
 10
-3.4242
 20
15.9036
 30
0.0
 10
-3.3972
 20
15.9644
 30
0.0
 10
-3.3573
 20
16.0129
 30
0.0
 10
-3.3051
 20
16.0498
 30
0.0
 10
-3.3051
 20
16.0498
 30
0.0
 10
-3.2535
 20
16.0866
 30
0.0
 10
-3.1892
 20
16.1054
 30
0.0
 10
-3.1137
 20
16.1059
 30
0.0
  0
SPLINE
  5
1C4
330
1F
100
AcDbEntity
  8
Ilustrace
 62
   250
370
    15
100
AcDbSpline
210
0.0
220
0.0
230
1.0
 70
    24
 71
     3
 72
     8
 73
     4
 74
     0
 42
0.0000000001
 43
0.0000000001
 40
0.0
 40
0.0
 40
0.0
 40
0.0
 40
1.0
 40
1.0
 40
1.0
 40
1.0
 10
5.8798
 20
13.3736
 30
0.0
 10
5.8798
 20
13.3736
 30
0.0
 10
-13.7919
 20
13.3736
 30
0.0
 10
-13.7919
 20
13.3736
 30
0.0
  0
SPLINE
  5
1C5
330
1F
100
AcDbEntity
  8
Ilustrace
 62
   250
370
    15
100
AcDbSpline
210
0.0
220
0.0
230
1.0
 70
    24
 71
     3
 72
     8
 73
     4
 74
     0
 42
0.0000000001
 43
0.0000000001
 40
0.0
 40
0.0
 40
0.0
 40
0.0
 40
1.0
 40
1.0
 40
1.0
 40
1.0
 10
14.0249
 20
9.2923
 30
0.0
 10
14.0249
 20
9.2923
 30
0.0
 10
14.0249
 20
-4.0904
 30
0.0
 10
14.0249
 20
-4.0904
 30
0.0
  0
SPLINE
  5
1C6
330
1F
100
AcDbEntity
  8
Ilustrace
 62
   250
370
     9
100
AcDbSpline
210
0.0
220
0.0
230
1.0
 70
    11
 71
     3
 72
    32
 73
    28
 74
     0
 42
0.0000000001
 43
0.0000000001
 40
0.0
 40
0.0
 40
0.0
 40
0.0
 40
0.125
 40
0.125
 40
0.125
 40
0.125
 40
0.25
 40
0.25
 40
0.25
 40
0.25
 40
0.375
 40
0.375
 40
0.375
 40
0.375
 40
0.5
 40
0.5
 40
0.5
 40
0.5
 40
0.625
 40
0.625
 40
0.625
 40
0.625
 40
0.75
 40
0.75
 40
0.75
 40
0.75
 40
1.0
 40
1.0
 40
1.0
 40
1.0
 10
4.7825
 20
12.9209
 30
0.0
 10
4.7825
 20
12.9209
 30
0.0
 10
4.7825
 20
12.9209
 30
0.0
 10
4.7825
 20
12.9209
 30
0.0
 10
4.7825
 20
12.9209
 30
0.0
 10
4.7825
 20
12.9209
 30
0.0
 10
4.7825
 20
12.9209
 30
0.0
 10
4.7825
 20
12.9209
 30
0.0
 10
4.7825
 20
12.9209
 30
0.0
 10
4.7825
 20
12.9209
 30
0.0
 10
6.0553
 20
13.3643
 30
0.0
 10
6.0553
 20
13.3643
 30
0.0
 10
6.0553
 20
13.3643
 30
0.0
 10
6.0553
 20
13.3643
 30
0.0
 10
4.7825
 20
13.8077
 30
0.0
 10
4.7825
 20
13.8077
 30
0.0
 10
4.7825
 20
13.8077
 30
0.0
 10
4.7825
 20
13.8077
 30
0.0
 10
4.7825
 20
13.8077
 30
0.0
 10
4.7825
 20
13.8077
 30
0.0
 10
4.7825
 20
13.8077
 30
0.0
 10
4.7825
 20
13.8077
 30
0.0
 10
4.7825
 20
13.8077
 30
0.0
 10
4.7825
 20
13.8077
 30
0.0
 10
4.7825
 20
13.8077
 30
0.0
 10
4.7825
 20
13.8077
 30
0.0
 10
4.7825
 20
12.9209
 30
0.0
 10
4.7825
 20
12.9209
 30
0.0
  0
SPLINE
  5
1C7
330
1F
100
AcDbEntity
  8
Ilustrace
 62
   250
370
     9
100
AcDbSpline
210
0.0
220
0.0
230
1.0
 70
    11
 71
     3
 72
    32
 73
    28
 74
     0
 42
0.0000000001
 43
0.0000000001
 40
0.0
 40
0.0
 40
0.0
 40
0.0
 40
0.125
 40
0.125
 40
0.125
 40
0.125
 40
0.25
 40
0.25
 40
0.25
 40
0.25
 40
0.375
 40
0.375
 40
0.375
 40
0.375
 40
0.5
 40
0.5
 40
0.5
 40
0.5
 40
0.625
 40
0.625
 40
0.625
 40
0.625
 40
0.75
 40
0.75
 40
0.75
 40
0.75
 40
1.0
 40
1.0
 40
1.0
 40
1.0
 10
14.4666
 20
8.5085
 30
0.0
 10
14.4666
 20
8.5085
 30
0.0
 10
14.4666
 20
8.5085
 30
0.0
 10
14.4666
 20
8.5085
 30
0.0
 10
14.4666
 20
8.5085
 30
0.0
 10
14.4666
 20
8.5085
 30
0.0
 10
14.4666
 20
8.5085
 30
0.0
 10
14.4666
 20
8.5085
 30
0.0
 10
14.4666
 20
8.5085
 30
0.0
 10
14.4666
 20
8.5085
 30
0.0
 10
14.0232
 20
9.7813
 30
0.0
 10
14.0232
 20
9.7813
 30
0.0
 10
14.0232
 20
9.7813
 30
0.0
 10
14.0232
 20
9.7813
 30
0.0
 10
13.5798
 20
8.5085
 30
0.0
 10
13.5798
 20
8.5085
 30
0.0
 10
13.5798
 20
8.5085
 30
0.0
 10
13.5798
 20
8.5085
 30
0.0
 10
13.5798
 20
8.5085
 30
0.0
 10
13.5798
 20
8.5085
 30
0.0
 10
13.5798
 20
8.5085
 30
0.0
 10
13.5798
 20
8.5085
 30
0.0
 10
13.5798
 20
8.5085
 30
0.0
 10
13.5798
 20
8.5085
 30
0.0
 10
13.5798
 20
8.5085
 30
0.0
 10
13.5798
 20
8.5085
 30
0.0
 10
14.4666
 20
8.5085
 30
0.0
 10
14.4666
 20
8.5085
 30
0.0
  0
SPLINE
  5
1C8
330
1F
100
AcDbEntity
  8
Ilustrace
 62
   250
370
     9
100
AcDbSpline
210
0.0
220
0.0
230
1.0
 70
    11
 71
     3
 72
    32
 73
    28
 74
     0
 42
0.0000000001
 43
0.0000000001
 40
0.0
 40
0.0
 40
0.0
 40
0.0
 40
0.125
 40
0.125
 40
0.125
 40
0.125
 40
0.25
 40
0.25
 40
0.25
 40
0.25
 40
0.375
 40
0.375
 40
0.375
 40
0.375
 40
0.5
 40
0.5
 40
0.5
 40
0.5
 40
0.625
 40
0.625
 40
0.625
 40
0.625
 40
0.75
 40
0.75
 40
0.75
 40
0.75
 40
1.0
 40
1.0
 40
1.0
 40
1.0
 10
-13.1955
 20
12.945
 30
0.0
 10
-13.1955
 20
12.945
 30
0.0
 10
-13.1955
 20
12.945
 30
0.0
 10
-13.1955
 20
12.945
 30
0.0
 10
-13.1955
 20
12.945
 30
0.0
 10
-13.1955
 20
12.945
 30
0.0
 10
-13.1955
 20
12.945
 30
0.0
 10
-13.1955
 20
12.945
 30
0.0
 10
-13.1955
 20
12.945
 30
0.0
 10
-13.1955
 20
12.945
 30
0.0
 10
-14.4683
 20
13.3884
 30
0.0
 10
-14.4683
 20
13.3884
 30
0.0
 10
-14.4683
 20
13.3884
 30
0.0
 10
-14.4683
 20
13.3884
 30
0.0
 10
-13.1955
 20
13.8318
 30
0.0
 10
-13.1955
 20
13.8318
 30
0.0
 10
-13.1955
 20
13.8318
 30
0.0
 10
-13.1955
 20
13.8318
 30
0.0
 10
-13.1955
 20
13.8318
 30
0.0
 10
-13.1955
 20
13.8318
 30
0.0
 10
-13.1955
 20
13.8318
 30
0.0
 10
-13.1955
 20
13.8318
 30
0.0
 10
-13.1955
 20
13.8318
 30
0.0
 10
-13.1955
 20
13.8318
 30
0.0
 10
-13.1955
 20
13.8318
 30
0.0
 10
-13.1955
 20
13.8318
 30
0.0
 10
-13.1955
 20
12.945
 30
0.0
 10
-13.1955
 20
12.945
 30
0.0
  0
SPLINE
  5
1C9
330
1F
100
AcDbEntity
  8
Ilustrace
 62
   250
370
     9
100
AcDbSpline
210
0.0
220
0.0
230
1.0
 70
    11
 71
     3
 72
    32
 73
    28
 74
     0
 42
0.0000000001
 43
0.0000000001
 40
0.0
 40
0.0
 40
0.0
 40
0.0
 40
0.125
 40
0.125
 40
0.125
 40
0.125
 40
0.25
 40
0.25
 40
0.25
 40
0.25
 40
0.375
 40
0.375
 40
0.375
 40
0.375
 40
0.5
 40
0.5
 40
0.5
 40
0.5
 40
0.625
 40
0.625
 40
0.625
 40
0.625
 40
0.75
 40
0.75
 40
0.75
 40
0.75
 40
1.0
 40
1.0
 40
1.0
 40
1.0
 10
14.47
 20
-2.965
 30
0.0
 10
14.47
 20
-2.965
 30
0.0
 10
14.47
 20
-2.965
 30
0.0
 10
14.47
 20
-2.965
 30
0.0
 10
14.47
 20
-2.965
 30
0.0
 10
14.47
 20
-2.965
 30
0.0
 10
14.47
 20
-2.965
 30
0.0
 10
14.47
 20
-2.965
 30
0.0
 10
14.47
 20
-2.965
 30
0.0
 10
14.47
 20
-2.965
 30
0.0
 10
14.0266
 20
-4.2378
 30
0.0
 10
14.0266
 20
-4.2378
 30
0.0
 10
14.0266
 20
-4.2378
 30
0.0
 10
14.0266
 20
-4.2378
 30
0.0
 10
13.5832
 20
-2.965
 30
0.0
 10
13.5832
 20
-2.965
 30
0.0
 10
13.5832
 20
-2.965
 30
0.0
 10
13.5832
 20
-2.965
 30
0.0
 10
13.5832
 20
-2.965
 30
0.0
 10
13.5832
 20
-2.965
 30
0.0
 10
13.5832
 20
-2.965
 30
0.0
 10
13.5832
 20
-2.965
 30
0.0
 10
13.5832
 20
-2.965
 30
0.0
 10
13.5832
 20
-2.965
 30
0.0
 10
13.5832
 20
-2.965
 30
0.0
 10
13.5832
 20
-2.965
 30
0.0
 10
14.47
 20
-2.965
 30
0.0
 10
14.47
 20
-2.965
 30
0.0
  0
SPLINE
  5
1CA
330
1F
100
AcDbEntity
  8
Ilustrace
 62
   250
370
    15
100
AcDbSpline
210
0.0
220
0.0
230
1.0
 70
    24
 71
     3
 72
     8
 73
     4
 74
     0
 42
0.0000000001
 43
0.0000000001
 40
0.0
 40
0.0
 40
0.0
 40
0.0
 40
1.0
 40
1.0
 40
1.0
 40
1.0
 10
6.618
 20
9.7759
 30
0.0
 10
6.618
 20
9.7759
 30
0.0
 10
14.6458
 20
9.7759
 30
0.0
 10
14.6458
 20
9.7759
 30
0.0
  0
SPLINE
  5
1CB
330
1F
100
AcDbEntity
  8
Ilustrace
 62
   250
100
AcDbSpline
210
0.0
220
0.0
230
1.0
 70
    11
 71
     3
 72
   132
 73
   128
 74
     0
 42
0.0000000001
 43
0.0000000001
 40
0.0
 40
0.0
 40
0.0
 40
0.0
 40
0.0303030303030303
 40
0.0303030303030303
 40
0.0303030303030303
 40
0.0303030303030303
 40
0.0606060606060606
 40
0.0606060606060606
 40
0.0606060606060606
 40
0.0606060606060606
 40
0.0909090909090909
 40
0.0909090909090909
 40
0.0909090909090909
 40
0.0909090909090909
 40
0.1212121212121212
 40
0.1212121212121212
 40
0.1212121212121212
 40
0.1212121212121212
 40
0.1515151515151515
 40
0.1515151515151515
 40
0.1515151515151515
 40
0.1515151515151515
 40
0.1818181818181818
 40
0.1818181818181818
 40
0.1818181818181818
 40
0.1818181818181818
 40
0.2121212121212121
 40
0.2121212121212121
 40
0.2121212121212121
 40
0.2121212121212121
 40
0.2424242424242424
 40
0.2424242424242424
 40
0.2424242424242424
 40
0.2424242424242424
 40
0.2727272727272727
 40
0.2727272727272727
 40
0.2727272727272727
 40
0.2727272727272727
 40
0.303030303030303
 40
0.303030303030303
 40
0.303030303030303
 40
0.303030303030303
 40
0.3333333333333333
 40
0.3333333333333333
 40
0.3333333333333333
 40
0.3333333333333333
 40
0.3636363636363636
 40
0.3636363636363636
 40
0.3636363636363636
 40
0.3636363636363636
 40
0.3939393939393939
 40
0.3939393939393939
 40
0.3939393939393939
 40
0.3939393939393939
 40
0.4242424242424243
 40
0.4242424242424243
 40
0.4242424242424243
 40
0.4242424242424243
 40
0.4545454545454545
 40
0.4545454545454545
 40
0.4545454545454545
 40
0.4545454545454545
 40
0.4848484848484849
 40
0.4848484848484849
 40
0.4848484848484849
 40
0.4848484848484849
 40
0.5151515151515151
 40
0.5151515151515151
 40
0.5151515151515151
 40
0.5151515151515151
 40
0.5454545454545454
 40
0.5454545454545454
 40
0.5454545454545454
 40
0.5454545454545454
 40
0.5757575757575758
 40
0.5757575757575758
 40
0.5757575757575758
 40
0.5757575757575758
 40
0.6060606060606061
 40
0.6060606060606061
 40
0.6060606060606061
 40
0.6060606060606061
 40
0.6363636363636364
 40
0.6363636363636364
 40
0.6363636363636364
 40
0.6363636363636364
 40
0.6666666666666666
 40
0.6666666666666666
 40
0.6666666666666666
 40
0.6666666666666666
 40
0.696969696969697
 40
0.696969696969697
 40
0.696969696969697
 40
0.696969696969697
 40
0.7272727272727273
 40
0.7272727272727273
 40
0.7272727272727273
 40
0.7272727272727273
 40
0.7575757575757576
 40
0.7575757575757576
 40
0.7575757575757576
 40
0.7575757575757576
 40
0.7878787878787878
 40
0.7878787878787878
 40
0.7878787878787878
 40
0.7878787878787878
 40
0.8181818181818182
 40
0.8181818181818182
 40
0.8181818181818182
 40
0.8181818181818182
 40
0.8484848484848485
 40
0.8484848484848485
 40
0.8484848484848485
 40
0.8484848484848485
 40
0.8787878787878788
 40
0.8787878787878788
 40
0.8787878787878788
 40
0.8787878787878788
 40
0.9090909090909091
 40
0.9090909090909091
 40
0.9090909090909091
 40
0.9090909090909091
 40
0.9393939393939394
 40
0.9393939393939394
 40
0.9393939393939394
 40
0.9393939393939394
 40
1.0
 40
1.0
 40
1.0
 40
1.0
 10
11.1777
 20
0.6435
 30
0.0
 10
11.1777
 20
0.6435
 30
0.0
 10
11.1777
 20
-0.3218
 30
0.0
 10
11.1777
 20
-0.3218
 30
0.0
 10
11.1777
 20
-0.3218
 30
0.0
 10
11.1777
 20
-0.3218
 30
0.0
 10
12.3883
 20
-0.4522
 30
0.0
 10
12.3883
 20
-0.4522
 30
0.0
 10
12.3883
 20
-0.4522
 30
0.0
 10
12.3819
 20
-0.415
 30
0.0
 10
12.3767
 20
-0.3736
 30
0.0
 10
12.3722
 20
-0.3271
 30
0.0
 10
12.3722
 20
-0.3271
 30
0.0
 10
12.3676
 20
-0.2809
 30
0.0
 10
12.365
 20
-0.2283
 30
0.0
 10
12.365
 20
-0.1698
 30
0.0
 10
12.365
 20
-0.1698
 30
0.0
 10
12.3658
 20
-0.0363
 30
0.0
 10
12.3896
 20
0.0729
 30
0.0
 10
12.4362
 20
0.1577
 30
0.0
 10
12.4362
 20
0.1577
 30
0.0
 10
12.4834
 20
0.2431
 30
0.0
 10
12.5481
 20
0.3062
 30
0.0
 10
12.6308
 20
0.3471
 30
0.0
 10
12.6308
 20
0.3471
 30
0.0
 10
12.7143
 20
0.388
 30
0.0
 10
12.8107
 20
0.4082
 30
0.0
 10
12.9199
 20
0.4076
 30
0.0
 10
12.9199
 20
0.4076
 30
0.0
 10
13.0046
 20
0.4082
 30
0.0
 10
13.0804
 20
0.3957
 30
0.0
 10
13.1477
 20
0.3704
 30
0.0
 10
13.1477
 20
0.3704
 30
0.0
 10
13.2155
 20
0.3455
 30
0.0
 10
13.2725
 20
0.3109
 30
0.0
 10
13.3202
 20
0.2669
 30
0.0
 10
13.3202
 20
0.2669
 30
0.0
 10
13.3674
 20
0.2229
 30
0.0
 10
13.4037
 20
0.1723
 30
0.0
 10
13.4289
 20
0.1148
 30
0.0
 10
13.4289
 20
0.1148
 30
0.0
 10
13.4541
 20
0.0574
 30
0.0
 10
13.467
 20
-0.0032
 30
0.0
 10
13.467
 20
-0.0673
 30
0.0
 10
13.467
 20
-0.0673
 30
0.0
 10
13.4665
 20
-0.13
 30
0.0
 10
13.4593
 20
-0.1889
 30
0.0
 10
13.4445
 20
-0.2442
 30
0.0
 10
13.4445
 20
-0.2442
 30
0.0
 10
13.4302
 20
-0.2996
 30
0.0
 10
13.4127
 20
-0.3493
 30
0.0
 10
13.3914
 20
-0.3933
 30
0.0
 10
13.3914
 20
-0.3933
 30
0.0
 10
13.37
 20
-0.4373
 30
0.0
 10
13.3488
 20
-0.4734
 30
0.0
 10
13.3274
 20
-0.502
 30
0.0
 10
13.3274
 20
-0.502
 30
0.0
 10
13.3274
 20
-0.502
 30
0.0
 10
13.5873
 20
-0.5702
 30
0.0
 10
13.5873
 20
-0.5702
 30
0.0
 10
13.5873
 20
-0.5702
 30
0.0
 10
13.6138
 20
-0.5366
 30
0.0
 10
13.6384
 20
-0.4947
 30
0.0
 10
13.6623
 20
-0.4445
 30
0.0
 10
13.6623
 20
-0.4445
 30
0.0
 10
13.6856
 20
-0.3943
 30
0.0
 10
13.7044
 20
-0.3374
 30
0.0
 10
13.7193
 20
-0.2737
 30
0.0
 10
13.7193
 20
-0.2737
 30
0.0
 10
13.7341
 20
-0.2096
 30
0.0
 10
13.742
 20
-0.1408
 30
0.0
 10
13.7426
 20
-0.0673
 30
0.0
 10
13.7426
 20
-0.0673
 30
0.0
 10
13.742
 20
0.0428
 30
0.0
 10
13.72
 20
0.1433
 30
0.0
 10
13.6773
 20
0.2348
 30
0.0
 10
13.6773
 20
0.2348
 30
0.0
 10
13.6345
 20
0.3264
 30
0.0
 10
13.5744
 20
0.4056
 30
0.0
 10
13.4969
 20
0.4723
 30
0.0
 10
13.4969
 20
0.4723
 30
0.0
 10
13.4193
 20
0.5396
 30
0.0
 10
13.3281
 20
0.5913
 30
0.0
 10
13.224
 20
0.628
 30
0.0
 10
13.224
 20
0.628
 30
0.0
 10
13.1191
 20
0.6647
 30
0.0
 10
13.0046
 20
0.6834
 30
0.0
 10
12.8812
 20
0.684
 30
0.0
 10
12.8812
 20
0.684
 30
0.0
 10
12.7763
 20
0.6834
 30
0.0
 10
12.6819
 20
0.67
 30
0.0
 10
12.5985
 20
0.6441
 30
0.0
 10
12.5985
 20
0.6441
 30
0.0
 10
12.515
 20
0.6183
 30
0.0
 10
12.4432
 20
0.5841
 30
0.0
 10
12.3825
 20
0.5407
 30
0.0
 10
12.3825
 20
0.5407
 30
0.0
 10
12.3218
 20
0.4972
 30
0.0
 10
12.2733
 20
0.4485
 30
0.0
 10
12.237
 20
0.3953
 30
0.0
 10
12.237
 20
0.3953
 30
0.0
 10
12.1891
 20
0.3326
 30
0.0
 10
12.1541
 20
0.2649
 30
0.0
 10
12.1329
 20
0.1909
 30
0.0
 10
12.1329
 20
0.1909
 30
0.0
 10
12.1115
 20
0.1169
 30
0.0
 10
12.1006
 20
0.0403
 30
0.0
 10
12.1011
 20
-0.0394
 30
0.0
 10
12.1011
 20
-0.0394
 30
0.0
 10
12.1011
 20
-0.0755
 30
0.0
 10
12.1019
 20
-0.1066
 30
0.0
 10
12.1038
 20
-0.132
 30
0.0
 10
12.1038
 20
-0.132
 30
0.0
 10
12.1057
 20
-0.1573
 30
0.0
 10
12.109
 20
-0.1811
 30
0.0
 10
12.1128
 20
-0.2039
 30
0.0
 10
12.1128
 20
-0.2039
 30
0.0
 10
12.1128
 20
-0.2039
 30
0.0
 10
11.4647
 20
-0.1263
 30
0.0
 10
11.4647
 20
-0.1263
 30
0.0
 10
11.4647
 20
-0.1263
 30
0.0
 10
11.4647
 20
-0.1263
 30
0.0
 10
11.4647
 20
0.6435
 30
0.0
 10
11.4647
 20
0.6435
 30
0.0
 10
11.4647
 20
0.6435
 30
0.0
 10
11.4647
 20
0.6435
 30
0.0
 10
11.1777
 20
0.6435
 30
0.0
 10
11.1777
 20
0.6435
 30
0.0
  0
SPLINE
  5
1CC
330
1F
100
AcDbEntity
  8
Ilustrace
 62
   250
100
AcDbSpline
210
0.0
220
0.0
230
1.0
 70
    11
 71
     3
 72
   124
 73
   120
 74
     0
 42
0.0000000001
 43
0.0000000001
 40
0.0
 40
0.0
 40
0.0
 40
0.0
 40
0.032258064516129
 40
0.032258064516129
 40
0.032258064516129
 40
0.032258064516129
 40
0.0645161290322581
 40
0.0645161290322581
 40
0.0645161290322581
 40
0.0645161290322581
 40
0.0967741935483871
 40
0.0967741935483871
 40
0.0967741935483871
 40
0.0967741935483871
 40
0.1290322580645161
 40
0.1290322580645161
 40
0.1290322580645161
 40
0.1290322580645161
 40
0.1612903225806452
 40
0.1612903225806452
 40
0.1612903225806452
 40
0.1612903225806452
 40
0.1935483870967742
 40
0.1935483870967742
 40
0.1935483870967742
 40
0.1935483870967742
 40
0.2258064516129032
 40
0.2258064516129032
 40
0.2258064516129032
 40
0.2258064516129032
 40
0.2580645161290323
 40
0.2580645161290323
 40
0.2580645161290323
 40
0.2580645161290323
 40
0.2903225806451613
 40
0.2903225806451613
 40
0.2903225806451613
 40
0.2903225806451613
 40
0.3225806451612903
 40
0.3225806451612903
 40
0.3225806451612903
 40
0.3225806451612903
 40
0.3548387096774194
 40
0.3548387096774194
 40
0.3548387096774194
 40
0.3548387096774194
 40
0.3870967741935484
 40
0.3870967741935484
 40
0.3870967741935484
 40
0.3870967741935484
 40
0.4193548387096774
 40
0.4193548387096774
 40
0.4193548387096774
 40
0.4193548387096774
 40
0.4516129032258064
 40
0.4516129032258064
 40
0.4516129032258064
 40
0.4516129032258064
 40
0.4838709677419355
 40
0.4838709677419355
 40
0.4838709677419355
 40
0.4838709677419355
 40
0.5161290322580645
 40
0.5161290322580645
 40
0.5161290322580645
 40
0.5161290322580645
 40
0.5483870967741935
 40
0.5483870967741935
 40
0.5483870967741935
 40
0.5483870967741935
 40
0.5806451612903226
 40
0.5806451612903226
 40
0.5806451612903226
 40
0.5806451612903226
 40
0.6129032258064516
 40
0.6129032258064516
 40
0.6129032258064516
 40
0.6129032258064516
 40
0.6451612903225806
 40
0.6451612903225806
 40
0.6451612903225806
 40
0.6451612903225806
 40
0.6774193548387096
 40
0.6774193548387096
 40
0.6774193548387096
 40
0.6774193548387096
 40
0.7096774193548387
 40
0.7096774193548387
 40
0.7096774193548387
 40
0.7096774193548387
 40
0.7419354838709677
 40
0.7419354838709677
 40
0.7419354838709677
 40
0.7419354838709677
 40
0.7741935483870968
 40
0.7741935483870968
 40
0.7741935483870968
 40
0.7741935483870968
 40
0.8064516129032258
 40
0.8064516129032258
 40
0.8064516129032258
 40
0.8064516129032258
 40
0.8387096774193549
 40
0.8387096774193549
 40
0.8387096774193549
 40
0.8387096774193549
 40
0.8709677419354839
 40
0.8709677419354839
 40
0.8709677419354839
 40
0.8709677419354839
 40
0.9032258064516129
 40
0.9032258064516129
 40
0.9032258064516129
 40
0.9032258064516129
 40
0.9354838709677419
 40
0.9354838709677419
 40
0.9354838709677419
 40
0.9354838709677419
 40
1.0
 40
1.0
 40
1.0
 40
1.0
 10
13.7386
 20
1.19
 30
0.0
 10
13.7407
 20
1.2226
 30
0.0
 10
13.7407
 20
1.2603
 30
0.0
 10
13.7375
 20
1.3027
 30
0.0
 10
13.7375
 20
1.3027
 30
0.0
 10
13.7349
 20
1.3451
 30
0.0
 10
13.729
 20
1.3917
 30
0.0
 10
13.7193
 20
1.4414
 30
0.0
 10
13.7193
 20
1.4414
 30
0.0
 10
13.7089
 20
1.5143
 30
0.0
 10
13.689
 20
1.5857
 30
0.0
 10
13.6604
 20
1.6556
 30
0.0
 10
13.6604
 20
1.6556
 30
0.0
 10
13.6313
 20
1.7254
 30
0.0
 10
13.5932
 20
1.7922
 30
0.0
 10
13.5467
 20
1.8553
 30
0.0
 10
13.5467
 20
1.8553
 30
0.0
 10
13.5001
 20
1.9185
 30
0.0
 10
13.445
 20
1.9759
 30
0.0
 10
13.3817
 20
2.0281
 30
0.0
 10
13.3817
 20
2.0281
 30
0.0
 10
13.3014
 20
2.0949
 30
0.0
 10
13.2052
 20
2.1544
 30
0.0
 10
13.0913
 20
2.2066
 30
0.0
 10
13.0913
 20
2.2066
 30
0.0
 10
12.9781
 20
2.2589
 30
0.0
 10
12.8475
 20
2.2998
 30
0.0
 10
12.6994
 20
2.3297
 30
0.0
 10
12.6994
 20
2.3297
 30
0.0
 10
12.5513
 20
2.3598
 30
0.0
 10
12.3857
 20
2.3753
 30
0.0
 10
12.2021
 20
2.3758
 30
0.0
 10
12.2021
 20
2.3758
 30
0.0
 10
12.0384
 20
2.3758
 30
0.0
 10
11.8916
 20
2.3603
 30
0.0
 10
11.7604
 20
2.3297
 30
0.0
 10
11.7604
 20
2.3297
 30
0.0
 10
11.629
 20
2.2992
 30
0.0
 10
11.5171
 20
2.2547
 30
0.0
 10
11.4241
 20
2.1968
 30
0.0
 10
11.4241
 20
2.1968
 30
0.0
 10
11.3309
 20
2.1388
 30
0.0
 10
11.2598
 20
2.069
 30
0.0
 10
11.21
 20
1.9867
 30
0.0
 10
11.21
 20
1.9867
 30
0.0
 10
11.1602
 20
1.9045
 30
0.0
 10
11.1356
 20
1.8119
 30
0.0
 10
11.135
 20
1.7084
 30
0.0
 10
11.135
 20
1.7084
 30
0.0
 10
11.1356
 20
1.6048
 30
0.0
 10
11.1602
 20
1.5107
 30
0.0
 10
11.208
 20
1.4263
 30
0.0
 10
11.208
 20
1.4263
 30
0.0
 10
11.2553
 20
1.3421
 30
0.0
 10
11.3213
 20
1.2696
 30
0.0
 10
11.404
 20
1.2091
 30
0.0
 10
11.404
 20
1.2091
 30
0.0
 10
11.4874
 20
1.148
 30
0.0
 10
11.5825
 20
1.1015
 30
0.0
 10
11.6899
 20
1.0689
 30
0.0
 10
11.6899
 20
1.0689
 30
0.0
 10
11.7972
 20
1.0363
 30
0.0
 10
11.9111
 20
1.0197
 30
0.0
 10
12.0314
 20
1.0192
 30
0.0
 10
12.0314
 20
1.0192
 30
0.0
 10
12.1393
 20
1.0197
 30
0.0
 10
12.2402
 20
1.0337
 30
0.0
 10
12.3334
 20
1.0611
 30
0.0
 10
12.3334
 20
1.0611
 30
0.0
 10
12.4271
 20
1.0891
 30
0.0
 10
12.5086
 20
1.1289
 30
0.0
 10
12.5791
 20
1.1806
 30
0.0
 10
12.5791
 20
1.1806
 30
0.0
 10
12.649
 20
1.2324
 30
0.0
 10
12.7039
 20
1.2949
 30
0.0
 10
12.7434
 20
1.3674
 30
0.0
 10
12.7434
 20
1.3674
 30
0.0
 10
12.7828
 20
1.4403
 30
0.0
 10
12.8029
 20
1.5215
 30
0.0
 10
12.8035
 20
1.6122
 30
0.0
 10
12.8035
 20
1.6122
 30
0.0
 10
12.8029
 20
1.7146
 30
0.0
 10
12.7796
 20
1.8062
 30
0.0
 10
12.7336
 20
1.8863
 30
0.0
 10
12.7336
 20
1.8863
 30
0.0
 10
12.6877
 20
1.966
 30
0.0
 10
12.6218
 20
2.0343
 30
0.0
 10
12.5359
 20
2.0902
 30
0.0
 10
12.5359
 20
2.0902
 30
0.0
 10
12.5359
 20
2.0902
 30
0.0
 10
12.5359
 20
2.0995
 30
0.0
 10
12.5359
 20
2.0995
 30
0.0
 10
12.5359
 20
2.0995
 30
0.0
 10
12.6832
 20
2.0804
 30
0.0
 10
12.8126
 20
2.0478
 30
0.0
 10
12.9232
 20
2.0022
 30
0.0
 10
12.9232
 20
2.0022
 30
0.0
 10
13.0344
 20
1.9562
 30
0.0
 10
13.1276
 20
1.8998
 30
0.0
 10
13.2031
 20
1.8325
 30
0.0
 10
13.2031
 20
1.8325
 30
0.0
 10
13.273
 20
1.7746
 30
0.0
 10
13.3274
 20
1.7099
 30
0.0
 10
13.3674
 20
1.638
 30
0.0
 10
13.3674
 20
1.638
 30
0.0
 10
13.4076
 20
1.566
 30
0.0
 10
13.4341
 20
1.4901
 30
0.0
 10
13.4477
 20
1.4104
 30
0.0
 10
13.4477
 20
1.4104
 30
0.0
 10
13.4535
 20
1.3642
 30
0.0
 10
13.458
 20
1.3229
 30
0.0
 10
13.4606
 20
1.2872
 30
0.0
 10
13.4606
 20
1.2872
 30
0.0
 10
13.4632
 20
1.2515
 30
0.0
 10
13.4632
 20
1.219
 30
0.0
 10
13.4593
 20
1.19
 30
0.0
 10
13.4593
 20
1.19
 30
0.0
 10
13.4593
 20
1.19
 30
0.0
 10
13.7386
 20
1.19
 30
0.0
 10
13.7386
 20
1.19
 30
0.0
  0
SPLINE
  5
1CD
330
1F
100
AcDbEntity
  8
Ilustrace
 62
   250
100
AcDbSpline
210
0.0
220
0.0
230
1.0
 70
    11
 71
     3
 72
    64
 73
    60
 74
     0
 42
0.0000000001
 43
0.0000000001
 40
0.0
 40
0.0
 40
0.0
 40
0.0
 40
0.0625
 40
0.0625
 40
0.0625
 40
0.0625
 40
0.125
 40
0.125
 40
0.125
 40
0.125
 40
0.1875
 40
0.1875
 40
0.1875
 40
0.1875
 40
0.25
 40
0.25
 40
0.25
 40
0.25
 40
0.3125
 40
0.3125
 40
0.3125
 40
0.3125
 40
0.375
 40
0.375
 40
0.375
 40
0.375
 40
0.4375
 40
0.4375
 40
0.4375
 40
0.4375
 40
0.5
 40
0.5
 40
0.5
 40
0.5
 40
0.5625
 40
0.5625
 40
0.5625
 40
0.5625
 40
0.625
 40
0.625
 40
0.625
 40
0.625
 40
0.6875
 40
0.6875
 40
0.6875
 40
0.6875
 40
0.75
 40
0.75
 40
0.75
 40
0.75
 40
0.8125
 40
0.8125
 40
0.8125
 40
0.8125
 40
0.875
 40
0.875
 40
0.875
 40
0.875
 40
1.0
 40
1.0
 40
1.0
 40
1.0
 10
11.395
 20
1.6835
 30
0.0
 10
11.3955
 20
1.7555
 30
0.0
 10
11.4151
 20
1.818
 30
0.0
 10
11.4532
 20
1.8703
 30
0.0
 10
11.4532
 20
1.8703
 30
0.0
 10
11.4914
 20
1.9225
 30
0.0
 10
11.545
 20
1.966
 30
0.0
 10
11.6136
 20
1.9997
 30
0.0
 10
11.6136
 20
1.9997
 30
0.0
 10
11.6822
 20
2.0338
 30
0.0
 10
11.763
 20
2.0586
 30
0.0
 10
11.8547
 20
2.0752
 30
0.0
 10
11.8547
 20
2.0752
 30
0.0
 10
11.9472
 20
2.0917
 30
0.0
 10
12.0475
 20
2.0995
 30
0.0
 10
12.1555
 20
2.0995
 30
0.0
 10
12.1555
 20
2.0995
 30
0.0
 10
12.184
 20
2.0995
 30
0.0
 10
12.2085
 20
2.0974
 30
0.0
 10
12.228
 20
2.0928
 30
0.0
 10
12.228
 20
2.0928
 30
0.0
 10
12.2479
 20
2.0887
 30
0.0
 10
12.2667
 20
2.0824
 30
0.0
 10
12.2836
 20
2.0747
 30
0.0
 10
12.2836
 20
2.0747
 30
0.0
 10
12.3346
 20
2.0508
 30
0.0
 10
12.3799
 20
2.0194
 30
0.0
 10
12.4193
 20
1.9806
 30
0.0
 10
12.4193
 20
1.9806
 30
0.0
 10
12.4588
 20
1.9422
 30
0.0
 10
12.4898
 20
1.8973
 30
0.0
 10
12.5126
 20
1.846
 30
0.0
 10
12.5126
 20
1.846
 30
0.0
 10
12.5351
 20
1.7947
 30
0.0
 10
12.5468
 20
1.7383
 30
0.0
 10
12.5474
 20
1.6773
 30
0.0
 10
12.5474
 20
1.6773
 30
0.0
 10
12.5468
 20
1.5982
 30
0.0
 10
12.5235
 20
1.5299
 30
0.0
 10
12.4782
 20
1.4719
 30
0.0
 10
12.4782
 20
1.4719
 30
0.0
 10
12.4329
 20
1.414
 30
0.0
 10
12.3709
 20
1.3689
 30
0.0
 10
12.2906
 20
1.3374
 30
0.0
 10
12.2906
 20
1.3374
 30
0.0
 10
12.2105
 20
1.3059
 30
0.0
 10
12.1173
 20
1.2898
 30
0.0
 10
12.0119
 20
1.2893
 30
0.0
 10
12.0119
 20
1.2893
 30
0.0
 10
11.8904
 20
1.2898
 30
0.0
 10
11.7837
 20
1.3069
 30
0.0
 10
11.6918
 20
1.3405
 30
0.0
 10
11.6918
 20
1.3405
 30
0.0
 10
11.5993
 20
1.3741
 30
0.0
 10
11.5269
 20
1.4202
 30
0.0
 10
11.4745
 20
1.4791
 30
0.0
 10
11.4745
 20
1.4791
 30
0.0
 10
11.4221
 20
1.5382
 30
0.0
 10
11.3955
 20
1.6065
 30
0.0
 10
11.395
 20
1.6835
 30
0.0
  0
SPLINE
  5
1CE
330
1F
100
AcDbEntity
  8
Ilustrace
 62
   250
100
AcDbSpline
210
0.0
220
0.0
230
1.0
 70
    11
 71
     3
 72
    20
 73
    16
 74
     0
 42
0.0000000001
 43
0.0000000001
 40
0.0
 40
0.0
 40
0.0
 40
0.0
 40
0.2
 40
0.2
 40
0.2
 40
0.2
 40
0.4
 40
0.4
 40
0.4
 40
0.4
 40
0.6
 40
0.6
 40
0.6
 40
0.6
 40
1.0
 40
1.0
 40
1.0
 40
1.0
 10
12.5979
 20
2.5775
 30
0.0
 10
12.5979
 20
2.5775
 30
0.0
 10
12.8308
 20
2.5775
 30
0.0
 10
12.8308
 20
2.5775
 30
0.0
 10
12.8308
 20
2.5775
 30
0.0
 10
12.8308
 20
2.5775
 30
0.0
 10
12.8308
 20
3.9435
 30
0.0
 10
12.8308
 20
3.9435
 30
0.0
 10
12.8308
 20
3.9435
 30
0.0
 10
12.8308
 20
3.9435
 30
0.0
 10
12.5979
 20
3.9435
 30
0.0
 10
12.5979
 20
3.9435
 30
0.0
 10
12.5979
 20
3.9435
 30
0.0
 10
12.5979
 20
3.9435
 30
0.0
 10
12.5979
 20
2.5775
 30
0.0
 10
12.5979
 20
2.5775
 30
0.0
  0
SPLINE
  5
1CF
330
1F
100
AcDbEntity
  8
Ilustrace
 62
   250
100
AcDbSpline
210
0.0
220
0.0
230
1.0
 70
    11
 71
     3
 72
    36
 73
    32
 74
     0
 42
0.0000000001
 43
0.0000000001
 40
0.0
 40
0.0
 40
0.0
 40
0.0
 40
0.1111111111111111
 40
0.1111111111111111
 40
0.1111111111111111
 40
0.1111111111111111
 40
0.2222222222222222
 40
0.2222222222222222
 40
0.2222222222222222
 40
0.2222222222222222
 40
0.3333333333333333
 40
0.3333333333333333
 40
0.3333333333333333
 40
0.3333333333333333
 40
0.4444444444444444
 40
0.4444444444444444
 40
0.4444444444444444
 40
0.4444444444444444
 40
0.5555555555555556
 40
0.5555555555555556
 40
0.5555555555555556
 40
0.5555555555555556
 40
0.6666666666666666
 40
0.6666666666666666
 40
0.6666666666666666
 40
0.6666666666666666
 40
0.7777777777777778
 40
0.7777777777777778
 40
0.7777777777777778
 40
0.7777777777777778
 40
1.0
 40
1.0
 40
1.0
 40
1.0
 10
11.1777
 20
4.2135
 30
0.0
 10
11.1777
 20
4.2135
 30
0.0
 10
11.4609
 20
4.2135
 30
0.0
 10
11.4609
 20
4.2135
 30
0.0
 10
11.4609
 20
4.2135
 30
0.0
 10
11.4609
 20
4.2135
 30
0.0
 10
11.4609
 20
5.2007
 30
0.0
 10
11.4609
 20
5.2007
 30
0.0
 10
11.4609
 20
5.2007
 30
0.0
 10
11.4609
 20
5.2007
 30
0.0
 10
11.4687
 20
5.2007
 30
0.0
 10
11.4687
 20
5.2007
 30
0.0
 10
11.4687
 20
5.2007
 30
0.0
 10
11.4687
 20
5.2007
 30
0.0
 10
13.6999
 20
4.3253
 30
0.0
 10
13.6999
 20
4.3253
 30
0.0
 10
13.6999
 20
4.3253
 30
0.0
 10
13.6999
 20
4.3253
 30
0.0
 10
13.6999
 20
4.6078
 30
0.0
 10
13.6999
 20
4.6078
 30
0.0
 10
13.6999
 20
4.6078
 30
0.0
 10
13.6999
 20
4.6078
 30
0.0
 10
11.4027
 20
5.4862
 30
0.0
 10
11.4027
 20
5.4862
 30
0.0
 10
11.4027
 20
5.4862
 30
0.0
 10
11.4027
 20
5.4862
 30
0.0
 10
11.1777
 20
5.4862
 30
0.0
 10
11.1777
 20
5.4862
 30
0.0
 10
11.1777
 20
5.4862
 30
0.0
 10
11.1777
 20
5.4862
 30
0.0
 10
11.1777
 20
4.2135
 30
0.0
 10
11.1777
 20
4.2135
 30
0.0
  0
SPLINE
  5
1D0
330
1F
100
AcDbEntity
  8
Ilustrace
 62
   250
100
AcDbSpline
210
0.0
220
0.0
230
1.0
 70
    11
 71
     3
 72
   124
 73
   120
 74
     0
 42
0.0000000001
 43
0.0000000001
 40
0.0
 40
0.0
 40
0.0
 40
0.0
 40
0.032258064516129
 40
0.032258064516129
 40
0.032258064516129
 40
0.032258064516129
 40
0.0645161290322581
 40
0.0645161290322581
 40
0.0645161290322581
 40
0.0645161290322581
 40
0.0967741935483871
 40
0.0967741935483871
 40
0.0967741935483871
 40
0.0967741935483871
 40
0.1290322580645161
 40
0.1290322580645161
 40
0.1290322580645161
 40
0.1290322580645161
 40
0.1612903225806452
 40
0.1612903225806452
 40
0.1612903225806452
 40
0.1612903225806452
 40
0.1935483870967742
 40
0.1935483870967742
 40
0.1935483870967742
 40
0.1935483870967742
 40
0.2258064516129032
 40
0.2258064516129032
 40
0.2258064516129032
 40
0.2258064516129032
 40
0.2580645161290323
 40
0.2580645161290323
 40
0.2580645161290323
 40
0.2580645161290323
 40
0.2903225806451613
 40
0.2903225806451613
 40
0.2903225806451613
 40
0.2903225806451613
 40
0.3225806451612903
 40
0.3225806451612903
 40
0.3225806451612903
 40
0.3225806451612903
 40
0.3548387096774194
 40
0.3548387096774194
 40
0.3548387096774194
 40
0.3548387096774194
 40
0.3870967741935484
 40
0.3870967741935484
 40
0.3870967741935484
 40
0.3870967741935484
 40
0.4193548387096774
 40
0.4193548387096774
 40
0.4193548387096774
 40
0.4193548387096774
 40
0.4516129032258064
 40
0.4516129032258064
 40
0.4516129032258064
 40
0.4516129032258064
 40
0.4838709677419355
 40
0.4838709677419355
 40
0.4838709677419355
 40
0.4838709677419355
 40
0.5161290322580645
 40
0.5161290322580645
 40
0.5161290322580645
 40
0.5161290322580645
 40
0.5483870967741935
 40
0.5483870967741935
 40
0.5483870967741935
 40
0.5483870967741935
 40
0.5806451612903226
 40
0.5806451612903226
 40
0.5806451612903226
 40
0.5806451612903226
 40
0.6129032258064516
 40
0.6129032258064516
 40
0.6129032258064516
 40
0.6129032258064516
 40
0.6451612903225806
 40
0.6451612903225806
 40
0.6451612903225806
 40
0.6451612903225806
 40
0.6774193548387096
 40
0.6774193548387096
 40
0.6774193548387096
 40
0.6774193548387096
 40
0.7096774193548387
 40
0.7096774193548387
 40
0.7096774193548387
 40
0.7096774193548387
 40
0.7419354838709677
 40
0.7419354838709677
 40
0.7419354838709677
 40
0.7419354838709677
 40
0.7741935483870968
 40
0.7741935483870968
 40
0.7741935483870968
 40
0.7741935483870968
 40
0.8064516129032258
 40
0.8064516129032258
 40
0.8064516129032258
 40
0.8064516129032258
 40
0.8387096774193549
 40
0.8387096774193549
 40
0.8387096774193549
 40
0.8387096774193549
 40
0.8709677419354839
 40
0.8709677419354839
 40
0.8709677419354839
 40
0.8709677419354839
 40
0.9032258064516129
 40
0.9032258064516129
 40
0.9032258064516129
 40
0.9032258064516129
 40
0.9354838709677419
 40
0.9354838709677419
 40
0.9354838709677419
 40
0.9354838709677419
 40
1.0
 40
1.0
 40
1.0
 40
1.0
 10
13.7386
 20
5.9271
 30
0.0
 10
13.7407
 20
5.9597
 30
0.0
 10
13.7407
 20
5.9975
 30
0.0
 10
13.7375
 20
6.0399
 30
0.0
 10
13.7375
 20
6.0399
 30
0.0
 10
13.7349
 20
6.0823
 30
0.0
 10
13.729
 20
6.1289
 30
0.0
 10
13.7193
 20
6.1785
 30
0.0
 10
13.7193
 20
6.1785
 30
0.0
 10
13.7089
 20
6.2515
 30
0.0
 10
13.689
 20
6.3229
 30
0.0
 10
13.6604
 20
6.3928
 30
0.0
 10
13.6604
 20
6.3928
 30
0.0
 10
13.6313
 20
6.4626
 30
0.0
 10
13.5932
 20
6.5293
 30
0.0
 10
13.5467
 20
6.5925
 30
0.0
 10
13.5467
 20
6.5925
 30
0.0
 10
13.5001
 20
6.6556
 30
0.0
 10
13.445
 20
6.7131
 30
0.0
 10
13.3817
 20
6.7653
 30
0.0
 10
13.3817
 20
6.7653
 30
0.0
 10
13.3014
 20
6.832
 30
0.0
 10
13.2052
 20
6.8915
 30
0.0
 10
13.0913
 20
6.9437
 30
0.0
 10
13.0913
 20
6.9437
 30
0.0
 10
12.9781
 20
6.9961
 30
0.0
 10
12.8475
 20
7.0369
 30
0.0
 10
12.6994
 20
7.0669
 30
0.0
 10
12.6994
 20
7.0669
 30
0.0
 10
12.5513
 20
7.097
 30
0.0
 10
12.3857
 20
7.1124
 30
0.0
 10
12.2021
 20
7.1129
 30
0.0
 10
12.2021
 20
7.1129
 30
0.0
 10
12.0384
 20
7.1129
 30
0.0
 10
11.8916
 20
7.0974
 30
0.0
 10
11.7604
 20
7.0669
 30
0.0
 10
11.7604
 20
7.0669
 30
0.0
 10
11.629
 20
7.0364
 30
0.0
 10
11.5171
 20
6.9919
 30
0.0
 10
11.4241
 20
6.934
 30
0.0
 10
11.4241
 20
6.934
 30
0.0
 10
11.3309
 20
6.8759
 30
0.0
 10
11.2598
 20
6.8061
 30
0.0
 10
11.21
 20
6.7239
 30
0.0
 10
11.21
 20
6.7239
 30
0.0
 10
11.1602
 20
6.6416
 30
0.0
 10
11.1356
 20
6.549
 30
0.0
 10
11.135
 20
6.4456
 30
0.0
 10
11.135
 20
6.4456
 30
0.0
 10
11.1356
 20
6.342
 30
0.0
 10
11.1602
 20
6.2479
 30
0.0
 10
11.208
 20
6.1635
 30
0.0
 10
11.208
 20
6.1635
 30
0.0
 10
11.2553
 20
6.0793
 30
0.0
 10
11.3213
 20
6.0068
 30
0.0
 10
11.404
 20
5.9462
 30
0.0
 10
11.404
 20
5.9462
 30
0.0
 10
11.4874
 20
5.8852
 30
0.0
 10
11.5825
 20
5.8387
 30
0.0
 10
11.6899
 20
5.8061
 30
0.0
 10
11.6899
 20
5.8061
 30
0.0
 10
11.7972
 20
5.7734
 30
0.0
 10
11.9111
 20
5.7569
 30
0.0
 10
12.0314
 20
5.7563
 30
0.0
 10
12.0314
 20
5.7563
 30
0.0
 10
12.1393
 20
5.7569
 30
0.0
 10
12.2402
 20
5.7709
 30
0.0
 10
12.3334
 20
5.7983
 30
0.0
 10
12.3334
 20
5.7983
 30
0.0
 10
12.4271
 20
5.8262
 30
0.0
 10
12.5086
 20
5.8661
 30
0.0
 10
12.5791
 20
5.9178
 30
0.0
 10
12.5791
 20
5.9178
 30
0.0
 10
12.649
 20
5.9695
 30
0.0
 10
12.7039
 20
6.0321
 30
0.0
 10
12.7434
 20
6.1045
 30
0.0
 10
12.7434
 20
6.1045
 30
0.0
 10
12.7828
 20
6.1775
 30
0.0
 10
12.8029
 20
6.2587
 30
0.0
 10
12.8035
 20
6.3493
 30
0.0
 10
12.8035
 20
6.3493
 30
0.0
 10
12.8029
 20
6.4517
 30
0.0
 10
12.7796
 20
6.5433
 30
0.0
 10
12.7336
 20
6.6235
 30
0.0
 10
12.7336
 20
6.6235
 30
0.0
 10
12.6877
 20
6.7032
 30
0.0
 10
12.6218
 20
6.7714
 30
0.0
 10
12.5359
 20
6.8274
 30
0.0
 10
12.5359
 20
6.8274
 30
0.0
 10
12.5359
 20
6.8274
 30
0.0
 10
12.5359
 20
6.8367
 30
0.0
 10
12.5359
 20
6.8367
 30
0.0
 10
12.5359
 20
6.8367
 30
0.0
 10
12.6832
 20
6.8176
 30
0.0
 10
12.8126
 20
6.7849
 30
0.0
 10
12.9232
 20
6.7394
 30
0.0
 10
12.9232
 20
6.7394
 30
0.0
 10
13.0344
 20
6.6934
 30
0.0
 10
13.1276
 20
6.637
 30
0.0
 10
13.2031
 20
6.5696
 30
0.0
 10
13.2031
 20
6.5696
 30
0.0
 10
13.273
 20
6.5117
 30
0.0
 10
13.3274
 20
6.4471
 30
0.0
 10
13.3674
 20
6.3752
 30
0.0
 10
13.3674
 20
6.3752
 30
0.0
 10
13.4076
 20
6.3032
 30
0.0
 10
13.4341
 20
6.2272
 30
0.0
 10
13.4477
 20
6.1475
 30
0.0
 10
13.4477
 20
6.1475
 30
0.0
 10
13.4535
 20
6.1014
 30
0.0
 10
13.458
 20
6.06
 30
0.0
 10
13.4606
 20
6.0244
 30
0.0
 10
13.4606
 20
6.0244
 30
0.0
 10
13.4632
 20
5.9886
 30
0.0
 10
13.4632
 20
5.9561
 30
0.0
 10
13.4593
 20
5.9271
 30
0.0
 10
13.4593
 20
5.9271
 30
0.0
 10
13.4593
 20
5.9271
 30
0.0
 10
13.7386
 20
5.9271
 30
0.0
 10
13.7386
 20
5.9271
 30
0.0
  0
SPLINE
  5
1D1
330
1F
100
AcDbEntity
  8
Ilustrace
 62
   250
100
AcDbSpline
210
0.0
220
0.0
230
1.0
 70
    11
 71
     3
 72
    64
 73
    60
 74
     0
 42
0.0000000001
 43
0.0000000001
 40
0.0
 40
0.0
 40
0.0
 40
0.0
 40
0.0625
 40
0.0625
 40
0.0625
 40
0.0625
 40
0.125
 40
0.125
 40
0.125
 40
0.125
 40
0.1875
 40
0.1875
 40
0.1875
 40
0.1875
 40
0.25
 40
0.25
 40
0.25
 40
0.25
 40
0.3125
 40
0.3125
 40
0.3125
 40
0.3125
 40
0.375
 40
0.375
 40
0.375
 40
0.375
 40
0.4375
 40
0.4375
 40
0.4375
 40
0.4375
 40
0.5
 40
0.5
 40
0.5
 40
0.5
 40
0.5625
 40
0.5625
 40
0.5625
 40
0.5625
 40
0.625
 40
0.625
 40
0.625
 40
0.625
 40
0.6875
 40
0.6875
 40
0.6875
 40
0.6875
 40
0.75
 40
0.75
 40
0.75
 40
0.75
 40
0.8125
 40
0.8125
 40
0.8125
 40
0.8125
 40
0.875
 40
0.875
 40
0.875
 40
0.875
 40
1.0
 40
1.0
 40
1.0
 40
1.0
 10
11.395
 20
6.4206
 30
0.0
 10
11.3955
 20
6.4926
 30
0.0
 10
11.4151
 20
6.5552
 30
0.0
 10
11.4532
 20
6.6075
 30
0.0
 10
11.4532
 20
6.6075
 30
0.0
 10
11.4914
 20
6.6597
 30
0.0
 10
11.545
 20
6.7032
 30
0.0
 10
11.6136
 20
6.7368
 30
0.0
 10
11.6136
 20
6.7368
 30
0.0
 10
11.6822
 20
6.771
 30
0.0
 10
11.763
 20
6.7958
 30
0.0
 10
11.8547
 20
6.8123
 30
0.0
 10
11.8547
 20
6.8123
 30
0.0
 10
11.9472
 20
6.8289
 30
0.0
 10
12.0475
 20
6.8367
 30
0.0
 10
12.1555
 20
6.8367
 30
0.0
 10
12.1555
 20
6.8367
 30
0.0
 10
12.184
 20
6.8367
 30
0.0
 10
12.2085
 20
6.8346
 30
0.0
 10
12.228
 20
6.8299
 30
0.0
 10
12.228
 20
6.8299
 30
0.0
 10
12.2479
 20
6.8258
 30
0.0
 10
12.2667
 20
6.8195
 30
0.0
 10
12.2836
 20
6.8119
 30
0.0
 10
12.2836
 20
6.8119
 30
0.0
 10
12.3346
 20
6.788
 30
0.0
 10
12.3799
 20
6.7565
 30
0.0
 10
12.4193
 20
6.7177
 30
0.0
 10
12.4193
 20
6.7177
 30
0.0
 10
12.4588
 20
6.6794
 30
0.0
 10
12.4898
 20
6.6344
 30
0.0
 10
12.5126
 20
6.5832
 30
0.0
 10
12.5126
 20
6.5832
 30
0.0
 10
12.5351
 20
6.5319
 30
0.0
 10
12.5468
 20
6.4755
 30
0.0
 10
12.5474
 20
6.4145
 30
0.0
 10
12.5474
 20
6.4145
 30
0.0
 10
12.5468
 20
6.3353
 30
0.0
 10
12.5235
 20
6.2671
 30
0.0
 10
12.4782
 20
6.2091
 30
0.0
 10
12.4782
 20
6.2091
 30
0.0
 10
12.4329
 20
6.1511
 30
0.0
 10
12.3709
 20
6.1061
 30
0.0
 10
12.2906
 20
6.0746
 30
0.0
 10
12.2906
 20
6.0746
 30
0.0
 10
12.2105
 20
6.043
 30
0.0
 10
12.1173
 20
6.027
 30
0.0
 10
12.0119
 20
6.0265
 30
0.0
 10
12.0119
 20
6.0265
 30
0.0
 10
11.8904
 20
6.027
 30
0.0
 10
11.7837
 20
6.0441
 30
0.0
 10
11.6918
 20
6.0776
 30
0.0
 10
11.6918
 20
6.0776
 30
0.0
 10
11.5993
 20
6.1113
 30
0.0
 10
11.5269
 20
6.1573
 30
0.0
 10
11.4745
 20
6.2163
 30
0.0
 10
11.4745
 20
6.2163
 30
0.0
 10
11.4221
 20
6.2753
 30
0.0
 10
11.3955
 20
6.3436
 30
0.0
 10
11.395
 20
6.4206
 30
0.0
  0
SPLINE
  5
1D2
330
1F
100
AcDbEntity
  8
Ilustrace
  6
New Line1
 62
   250
370
    15
100
AcDbSpline
210
0.0
220
0.0
230
1.0
 70
    24
 71
     3
 72
     8
 73
     4
 74
     0
 42
0.0000000001
 43
0.0000000001
 40
0.0
 40
0.0
 40
0.0
 40
0.0
 40
1.0
 40
1.0
 40
1.0
 40
1.0
 10
-8.0391
 20
-0.9566
 30
0.0
 10
-8.0391
 20
-0.9566
 30
0.0
 10
-8.0391
 20
6.4297
 30
0.0
 10
-8.0391
 20
6.4297
 30
0.0
  0
SPLINE
  5
1D4
330
1F
100
AcDbEntity
  8
Ilustrace
  6
New Line2
 62
   250
370
    15
100
AcDbSpline
210
0.0
220
0.0
230
1.0
 70
    24
 71
     3
 72
     8
 73
     4
 74
     0
 42
0.0000000001
 43
0.0000000001
 40
0.0
 40
0.0
 40
0.0
 40
0.0
 40
1.0
 40
1.0
 40
1.0
 40
1.0
 10
-7.9648
 20
-11.5937
 30
0.0
 10
-7.9648
 20
-11.5937
 30
0.0
 10
-7.9648
 20
-6.3607
 30
0.0
 10
-7.9648
 20
-6.3607
 30
0.0
  0
SPLINE
  5
1D6
330
1F
100
AcDbEntity
  8
Ilustrace
  6
New Line3
 62
   250
370
    15
100
AcDbSpline
210
0.0
220
0.0
230
1.0
 70
    24
 71
     3
 72
     8
 73
     4
 74
     0
 42
0.0000000001
 43
0.0000000001
 40
0.0
 40
0.0
 40
0.0
 40
0.0
 40
1.0
 40
1.0
 40
1.0
 40
1.0
 10
-0.5068
 20
-11.5111
 30
0.0
 10
-0.5068
 20
-11.5111
 30
0.0
 10
-0.5068
 20
-6.2781
 30
0.0
 10
-0.5068
 20
-6.2781
 30
0.0
  0
SPLINE
  5
1D8
330
1F
100
AcDbEntity
  8
Ilustrace
  6
New Line4
 62
   250
370
    15
100
AcDbSpline
210
0.0
220
0.0
230
1.0
 70
    24
 71
     3
 72
     8
 73
     4
 74
     0
 42
0.0000000001
 43
0.0000000001
 40
0.0
 40
0.0
 40
0.0
 40
0.0
 40
1.0
 40
1.0
 40
1.0
 40
1.0
 10
-0.5481
 20
-0.9732
 30
0.0
 10
-0.5481
 20
-0.9732
 30
0.0
 10
-0.5481
 20
6.4131
 30
0.0
 10
-0.5481
 20
6.4131
 30
0.0
  0
SPLINE
  5
1DA
330
1F
100
AcDbEntity
  8
Ilustrace
  6
New Line5
 62
   250
370
    15
100
AcDbSpline
210
0.0
220
0.0
230
1.0
 70
    24
 71
     3
 72
     8
 73
     4
 74
     0
 42
0.0000000001
 43
0.0000000001
 40
0.0
 40
0.0
 40
0.0
 40
0.0
 40
1.0
 40
1.0
 40
1.0
 40
1.0
 10
-5.776
 20
3.2654
 30
0.0
 10
-5.776
 20
3.2654
 30
0.0
 10
-10.5274
 20
3.2654
 30
0.0
 10
-10.5274
 20
3.2654
 30
0.0
  0
SPLINE
  5
1DC
330
1F
100
AcDbEntity
  8
Ilustrace
  6
New Line6
 62
   250
370
    15
100
AcDbSpline
210
0.0
220
0.0
230
1.0
 70
    24
 71
     3
 72
     8
 73
     4
 74
     0
 42
0.0000000001
 43
0.0000000001
 40
0.0
 40
0.0
 40
0.0
 40
0.0
 40
1.0
 40
1.0
 40
1.0
 40
1.0
 10
1.715
 20
3.2488
 30
0.0
 10
1.715
 20
3.2488
 30
0.0
 10
-3.0364
 20
3.2488
 30
0.0
 10
-3.0364
 20
3.2488
 30
0.0
  0
SPLINE
  5
1DE
330
1F
100
AcDbEntity
  8
Ilustrace
 62
   250
370
    15
100
AcDbSpline
210
0.0
220
0.0
230
1.0
 70
    24
 71
     3
 72
     8
 73
     4
 74
     0
 42
0.0000000001
 43
0.0000000001
 40
0.0
 40
0.0
 40
0.0
 40
0.0
 40
1.0
 40
1.0
 40
1.0
 40
1.0
 10
14.3017
 20
-16.3501
 30
0.0
 10
14.3017
 20
-16.3501
 30
0.0
 10
6.6736
 20
-16.3501
 30
0.0
 10
6.6736
 20
-16.3501
 30
0.0
  0
SPLINE
  5
1DF
330
1F
100
AcDbEntity
  8
Ilustrace
 62
   250
370
    15
100
AcDbSpline
210
0.0
220
0.0
230
1.0
 70
    24
 71
     3
 72
     8
 73
     4
 74
     0
 42
0.0000000001
 43
0.0000000001
 40
0.0
 40
0.0
 40
0.0
 40
0.0
 40
1.0
 40
1.0
 40
1.0
 40
1.0
 10
14.0248
 20
-6.7873
 30
0.0
 10
14.0248
 20
-6.7873
 30
0.0
 10
14.0248
 20
-15.9096
 30
0.0
 10
14.0248
 20
-15.9096
 30
0.0
  0
SPLINE
  5
1E0
330
1F
100
AcDbEntity
  8
Ilustrace
 62
   250
370
     9
100
AcDbSpline
210
0.0
220
0.0
230
1.0
 70
    11
 71
     3
 72
    32
 73
    28
 74
     0
 42
0.0000000001
 43
0.0000000001
 40
0.0
 40
0.0
 40
0.0
 40
0.0
 40
0.125
 40
0.125
 40
0.125
 40
0.125
 40
0.25
 40
0.25
 40
0.25
 40
0.25
 40
0.375
 40
0.375
 40
0.375
 40
0.375
 40
0.5
 40
0.5
 40
0.5
 40
0.5
 40
0.625
 40
0.625
 40
0.625
 40
0.625
 40
0.75
 40
0.75
 40
0.75
 40
0.75
 40
1.0
 40
1.0
 40
1.0
 40
1.0
 10
14.4556
 20
-7.8576
 30
0.0
 10
14.4556
 20
-7.8576
 30
0.0
 10
14.4556
 20
-7.8576
 30
0.0
 10
14.4556
 20
-7.8576
 30
0.0
 10
14.4556
 20
-7.8576
 30
0.0
 10
14.4556
 20
-7.8576
 30
0.0
 10
14.4556
 20
-7.8576
 30
0.0
 10
14.4556
 20
-7.8576
 30
0.0
 10
14.4556
 20
-7.8576
 30
0.0
 10
14.4556
 20
-7.8576
 30
0.0
 10
14.0122
 20
-6.5848
 30
0.0
 10
14.0122
 20
-6.5848
 30
0.0
 10
14.0122
 20
-6.5848
 30
0.0
 10
14.0122
 20
-6.5848
 30
0.0
 10
13.5688
 20
-7.8576
 30
0.0
 10
13.5688
 20
-7.8576
 30
0.0
 10
13.5688
 20
-7.8576
 30
0.0
 10
13.5688
 20
-7.8576
 30
0.0
 10
13.5688
 20
-7.8576
 30
0.0
 10
13.5688
 20
-7.8576
 30
0.0
 10
13.5688
 20
-7.8576
 30
0.0
 10
13.5688
 20
-7.8576
 30
0.0
 10
13.5688
 20
-7.8576
 30
0.0
 10
13.5688
 20
-7.8576
 30
0.0
 10
13.5688
 20
-7.8576
 30
0.0
 10
13.5688
 20
-7.8576
 30
0.0
 10
14.4556
 20
-7.8576
 30
0.0
 10
14.4556
 20
-7.8576
 30
0.0
  0
SPLINE
  5
1E1
330
1F
100
AcDbEntity
  8
Ilustrace
 62
   250
370
     9
100
AcDbSpline
210
0.0
220
0.0
230
1.0
 70
    11
 71
     3
 72
    32
 73
    28
 74
     0
 42
0.0000000001
 43
0.0000000001
 40
0.0
 40
0.0
 40
0.0
 40
0.0
 40
0.125
 40
0.125
 40
0.125
 40
0.125
 40
0.25
 40
0.25
 40
0.25
 40
0.25
 40
0.375
 40
0.375
 40
0.375
 40
0.375
 40
0.5
 40
0.5
 40
0.5
 40
0.5
 40
0.625
 40
0.625
 40
0.625
 40
0.625
 40
0.75
 40
0.75
 40
0.75
 40
0.75
 40
1.0
 40
1.0
 40
1.0
 40
1.0
 10
14.5031
 20
-14.9981
 30
0.0
 10
14.5031
 20
-14.9981
 30
0.0
 10
14.5031
 20
-14.9981
 30
0.0
 10
14.5031
 20
-14.9981
 30
0.0
 10
14.5031
 20
-14.9981
 30
0.0
 10
14.5031
 20
-14.9981
 30
0.0
 10
14.5031
 20
-14.9981
 30
0.0
 10
14.5031
 20
-14.9981
 30
0.0
 10
14.5031
 20
-14.9981
 30
0.0
 10
14.5031
 20
-14.9981
 30
0.0
 10
14.0597
 20
-16.2709
 30
0.0
 10
14.0597
 20
-16.2709
 30
0.0
 10
14.0597
 20
-16.2709
 30
0.0
 10
14.0597
 20
-16.2709
 30
0.0
 10
13.6163
 20
-14.9981
 30
0.0
 10
13.6163
 20
-14.9981
 30
0.0
 10
13.6163
 20
-14.9981
 30
0.0
 10
13.6163
 20
-14.9981
 30
0.0
 10
13.6163
 20
-14.9981
 30
0.0
 10
13.6163
 20
-14.9981
 30
0.0
 10
13.6163
 20
-14.9981
 30
0.0
 10
13.6163
 20
-14.9981
 30
0.0
 10
13.6163
 20
-14.9981
 30
0.0
 10
13.6163
 20
-14.9981
 30
0.0
 10
13.6163
 20
-14.9981
 30
0.0
 10
13.6163
 20
-14.9981
 30
0.0
 10
14.5031
 20
-14.9981
 30
0.0
 10
14.5031
 20
-14.9981
 30
0.0
  0
SPLINE
  5
1E2
330
1F
100
AcDbEntity
  8
Ilustrace
 62
   250
370
    15
100
AcDbSpline
210
0.0
220
0.0
230
1.0
 70
    24
 71
     3
 72
     8
 73
     4
 74
     0
 42
0.0000000001
 43
0.0000000001
 40
0.0
 40
0.0
 40
0.0
 40
0.0
 40
1.0
 40
1.0
 40
1.0
 40
1.0
 10
0.5326
 20
-6.5461
 30
0.0
 10
0.5326
 20
-6.5461
 30
0.0
 10
14.5024
 20
-6.5461
 30
0.0
 10
14.5024
 20
-6.5461
 30
0.0
  0
SPLINE
  5
1E3
330
1F
100
AcDbEntity
  8
Ilustrace
 62
   250
100
AcDbSpline
210
0.0
220
0.0
230
1.0
 70
    11
 71
     3
 72
    48
 73
    44
 74
     0
 42
0.0000000001
 43
0.0000000001
 40
0.0
 40
0.0
 40
0.0
 40
0.0
 40
0.0833333333333333
 40
0.0833333333333333
 40
0.0833333333333333
 40
0.0833333333333333
 40
0.1666666666666667
 40
0.1666666666666667
 40
0.1666666666666667
 40
0.1666666666666667
 40
0.25
 40
0.25
 40
0.25
 40
0.25
 40
0.3333333333333333
 40
0.3333333333333333
 40
0.3333333333333333
 40
0.3333333333333333
 40
0.4166666666666667
 40
0.4166666666666667
 40
0.4166666666666667
 40
0.4166666666666667
 40
0.5
 40
0.5
 40
0.5
 40
0.5
 40
0.5833333333333334
 40
0.5833333333333334
 40
0.5833333333333334
 40
0.5833333333333334
 40
0.6666666666666666
 40
0.6666666666666666
 40
0.6666666666666666
 40
0.6666666666666666
 40
0.75
 40
0.75
 40
0.75
 40
0.75
 40
0.8333333333333334
 40
0.8333333333333334
 40
0.8333333333333334
 40
0.8333333333333334
 40
1.0
 40
1.0
 40
1.0
 40
1.0
 10
13.5676
 20
-12.209
 30
0.0
 10
13.5676
 20
-12.209
 30
0.0
 10
12.8769
 20
-12.209
 30
0.0
 10
12.8769
 20
-12.209
 30
0.0
 10
12.8769
 20
-12.209
 30
0.0
 10
12.8769
 20
-12.209
 30
0.0
 10
12.8769
 20
-11.9264
 30
0.0
 10
12.8769
 20
-11.9264
 30
0.0
 10
12.8769
 20
-11.9264
 30
0.0
 10
12.8769
 20
-11.9264
 30
0.0
 10
12.613
 20
-11.9264
 30
0.0
 10
12.613
 20
-11.9264
 30
0.0
 10
12.613
 20
-11.9264
 30
0.0
 10
12.613
 20
-11.9264
 30
0.0
 10
12.613
 20
-12.209
 30
0.0
 10
12.613
 20
-12.209
 30
0.0
 10
12.613
 20
-12.209
 30
0.0
 10
12.613
 20
-12.209
 30
0.0
 10
11.0454
 20
-12.209
 30
0.0
 10
11.0454
 20
-12.209
 30
0.0
 10
11.0454
 20
-12.209
 30
0.0
 10
11.0454
 20
-12.209
 30
0.0
 10
11.0454
 20
-12.5039
 30
0.0
 10
11.0454
 20
-12.5039
 30
0.0
 10
11.0454
 20
-12.5039
 30
0.0
 10
11.0454
 20
-12.5039
 30
0.0
 10
12.6556
 20
-13.4041
 30
0.0
 10
12.6556
 20
-13.4041
 30
0.0
 10
12.6556
 20
-13.4041
 30
0.0
 10
12.6556
 20
-13.4041
 30
0.0
 10
12.8769
 20
-13.4041
 30
0.0
 10
12.8769
 20
-13.4041
 30
0.0
 10
12.8769
 20
-13.4041
 30
0.0
 10
12.8769
 20
-13.4041
 30
0.0
 10
12.8769
 20
-12.4667
 30
0.0
 10
12.8769
 20
-12.4667
 30
0.0
 10
12.8769
 20
-12.4667
 30
0.0
 10
12.8769
 20
-12.4667
 30
0.0
 10
13.5676
 20
-12.4667
 30
0.0
 10
13.5676
 20
-12.4667
 30
0.0
 10
13.5676
 20
-12.4667
 30
0.0
 10
13.5676
 20
-12.4667
 30
0.0
 10
13.5676
 20
-12.209
 30
0.0
 10
13.5676
 20
-12.209
 30
0.0
  0
SPLINE
  5
1E4
330
1F
100
AcDbEntity
  8
Ilustrace
 62
   250
100
AcDbSpline
210
0.0
220
0.0
230
1.0
 70
    11
 71
     3
 72
    36
 73
    32
 74
     0
 42
0.0000000001
 43
0.0000000001
 40
0.0
 40
0.0
 40
0.0
 40
0.0
 40
0.1111111111111111
 40
0.1111111111111111
 40
0.1111111111111111
 40
0.1111111111111111
 40
0.2222222222222222
 40
0.2222222222222222
 40
0.2222222222222222
 40
0.2222222222222222
 40
0.3333333333333333
 40
0.3333333333333333
 40
0.3333333333333333
 40
0.3333333333333333
 40
0.4444444444444444
 40
0.4444444444444444
 40
0.4444444444444444
 40
0.4444444444444444
 40
0.5555555555555556
 40
0.5555555555555556
 40
0.5555555555555556
 40
0.5555555555555556
 40
0.6666666666666666
 40
0.6666666666666666
 40
0.6666666666666666
 40
0.6666666666666666
 40
0.7777777777777778
 40
0.7777777777777778
 40
0.7777777777777778
 40
0.7777777777777778
 40
1.0
 40
1.0
 40
1.0
 40
1.0
 10
12.613
 20
-13.1279
 30
0.0
 10
12.613
 20
-13.1279
 30
0.0
 10
12.6053
 20
-13.1279
 30
0.0
 10
12.6053
 20
-13.1279
 30
0.0
 10
12.6053
 20
-13.1279
 30
0.0
 10
12.6053
 20
-13.1279
 30
0.0
 10
11.7476
 20
-12.6342
 30
0.0
 10
11.7476
 20
-12.6342
 30
0.0
 10
11.7476
 20
-12.6342
 30
0.0
 10
11.6901
 20
-12.6068
 30
0.0
 10
11.632
 20
-12.5795
 30
0.0
 10
11.573
 20
-12.5526
 30
0.0
 10
11.573
 20
-12.5526
 30
0.0
 10
11.5136
 20
-12.5261
 30
0.0
 10
11.4476
 20
-12.4972
 30
0.0
 10
11.3752
 20
-12.4667
 30
0.0
 10
11.3752
 20
-12.4667
 30
0.0
 10
11.3752
 20
-12.4667
 30
0.0
 10
11.3752
 20
-12.4574
 30
0.0
 10
11.3752
 20
-12.4574
 30
0.0
 10
11.3752
 20
-12.4574
 30
0.0
 10
11.5072
 20
-12.4635
 30
0.0
 10
11.639
 20
-12.4667
 30
0.0
 10
11.7709
 20
-12.4667
 30
0.0
 10
11.7709
 20
-12.4667
 30
0.0
 10
11.7709
 20
-12.4667
 30
0.0
 10
12.613
 20
-12.4667
 30
0.0
 10
12.613
 20
-12.4667
 30
0.0
 10
12.613
 20
-12.4667
 30
0.0
 10
12.613
 20
-12.4667
 30
0.0
 10
12.613
 20
-13.1279
 30
0.0
 10
12.613
 20
-13.1279
 30
0.0
  0
SPLINE
  5
1E5
330
1F
100
AcDbEntity
  8
Ilustrace
 62
   250
100
AcDbSpline
210
0.0
220
0.0
230
1.0
 70
    11
 71
     3
 72
    36
 73
    32
 74
     0
 42
0.0000000001
 43
0.0000000001
 40
0.0
 40
0.0
 40
0.0
 40
0.0
 40
0.1111111111111111
 40
0.1111111111111111
 40
0.1111111111111111
 40
0.1111111111111111
 40
0.2222222222222222
 40
0.2222222222222222
 40
0.2222222222222222
 40
0.2222222222222222
 40
0.3333333333333333
 40
0.3333333333333333
 40
0.3333333333333333
 40
0.3333333333333333
 40
0.4444444444444444
 40
0.4444444444444444
 40
0.4444444444444444
 40
0.4444444444444444
 40
0.5555555555555556
 40
0.5555555555555556
 40
0.5555555555555556
 40
0.5555555555555556
 40
0.6666666666666666
 40
0.6666666666666666
 40
0.6666666666666666
 40
0.6666666666666666
 40
0.7777777777777778
 40
0.7777777777777778
 40
0.7777777777777778
 40
0.7777777777777778
 40
1.0
 40
1.0
 40
1.0
 40
1.0
 10
13.5676
 20
-11.1256
 30
0.0
 10
13.5676
 20
-11.1256
 30
0.0
 10
13.5676
 20
-10.8617
 30
0.0
 10
13.5676
 20
-10.8617
 30
0.0
 10
13.5676
 20
-10.8617
 30
0.0
 10
13.5676
 20
-10.8617
 30
0.0
 10
11.0454
 20
-10.8617
 30
0.0
 10
11.0454
 20
-10.8617
 30
0.0
 10
11.0454
 20
-10.8617
 30
0.0
 10
11.0454
 20
-10.8617
 30
0.0
 10
11.0454
 20
-11.0945
 30
0.0
 10
11.0454
 20
-11.0945
 30
0.0
 10
11.0454
 20
-11.0945
 30
0.0
 10
11.0454
 20
-11.0945
 30
0.0
 10
11.3403
 20
-11.5353
 30
0.0
 10
11.3403
 20
-11.5353
 30
0.0
 10
11.3403
 20
-11.5353
 30
0.0
 10
11.3403
 20
-11.5353
 30
0.0
 10
11.6002
 20
-11.4826
 30
0.0
 10
11.6002
 20
-11.4826
 30
0.0
 10
11.6002
 20
-11.4826
 30
0.0
 10
11.6002
 20
-11.4826
 30
0.0
 10
11.3636
 20
-11.1318
 30
0.0
 10
11.3636
 20
-11.1318
 30
0.0
 10
11.3636
 20
-11.1318
 30
0.0
 10
11.3636
 20
-11.1318
 30
0.0
 10
11.3636
 20
-11.1256
 30
0.0
 10
11.3636
 20
-11.1256
 30
0.0
 10
11.3636
 20
-11.1256
 30
0.0
 10
11.3636
 20
-11.1256
 30
0.0
 10
13.5676
 20
-11.1256
 30
0.0
 10
13.5676
 20
-11.1256
 30
0.0
  0
ENDSEC
  0
SECTION
  2
OBJECTS
  0
DICTIONARY
  5
C
330
0
100
AcDbDictionary
281
     1
  3
ACAD_GROUP
350
D
  3
ACAD_LAYOUT
350
1A
  3
ACAD_MATERIAL
350
3B
  3
ACAD_MLEADERSTYLE
350
1E8
  3
ACAD_MLINESTYLE
350
17
  3
ACAD_PLOTSETTINGS
350
19
  3
ACAD_PLOTSTYLENAME
350
E
  3
ACAD_VISUALSTYLE
350
2A
  3
AcDbVariableDictionary
350
1E6
  0
DICTIONARY
  5
D
102
{ACAD_REACTORS
330
C
102
}
330
C
100
AcDbDictionary
281
     1
  0
DICTIONARY
  5
1A
102
{ACAD_REACTORS
330
C
102
}
330
C
100
AcDbDictionary
281
     1
  3
Layout1
350
1E
  3
Layout2
350
26
  3
Model
350
22
  0
DICTIONARY
  5
3B
102
{ACAD_REACTORS
330
C
102
}
330
C
100
AcDbDictionary
281
     1
  3
ByBlock
350
3D
  3
ByLayer
350
3C
  3
Global
350
3E
  0
DICTIONARY
  5
1E8
102
{ACAD_REACTORS
330
C
102
}
330
C
100
AcDbDictionary
281
     1
  0
DICTIONARY
  5
17
102
{ACAD_REACTORS
330
C
102
}
330
C
100
AcDbDictionary
281
     1
  3
Standard
350
18
  0
DICTIONARY
  5
19
102
{ACAD_REACTORS
330
C
102
}
330
C
100
AcDbDictionary
281
     1
  0
ACDBDICTIONARYWDFLT
  5
E
102
{ACAD_REACTORS
330
C
102
}
330
C
100
AcDbDictionary
281
     1
  3
Normal
350
F
100
AcDbDictionaryWithDefault
340
F
  0
DICTIONARY
  5
2A
102
{ACAD_REACTORS
330
C
102
}
330
C
100
AcDbDictionary
281
     1
  3
2dWireframe
350
2F
  3
3D Hidden
350
31
  3
3dWireframe
350
30
  3
Basic
350
32
  3
Brighten
350
36
  3
ColorChange
350
3A
  3
Conceptual
350
34
  3
Dim
350
35
  3
Facepattern
350
39
  3
Flat
350
2B
  3
FlatWithEdges
350
2C
  3
Gouraud
350
2D
  3
GouraudWithEdges
350
2E
  3
Linepattern
350
38
  3
Realistic
350
33
  3
Thicken
350
37
  0
DICTIONARY
  5
1E6
102
{ACAD_REACTORS
330
C
102
}
330
C
100
AcDbDictionary
281
     1
  3
DIMASSOC
350
1E9
  3
HIDETEXT
350
1EA
  0
LAYOUT
  5
1E
102
{ACAD_REACTORS
330
1A
102
}
330
1A
100
AcDbPlotSettings
  1

  2
none_device
  4

  6

 40
0.0
 41
0.0
 42
0.0
 43
0.0
 44
0.0
 45
0.0
 46
0.0
 47
0.0
 48
0.0
 49
0.0
140
0.0
141
0.0
142
1.0
143
1.0
 70
   688
 72
     0
 73
     0
 74
     5
  7

 75
    16
147
1.0
148
0.0
149
0.0
100
AcDbLayout
  1
Layout1
 70
     1
 71
     1
 10
0.0
 20
0.0
 11
12.0
 21
9.0
 12
0.0
 22
0.0
 32
0.0
 14
1.000000000000000E+20
 24
1.000000000000000E+20
 34
1.000000000000000E+20
 15
-1.000000000000000E+20
 25
-1.000000000000000E+20
 35
-1.000000000000000E+20
146
0.0
 13
0.0
 23
0.0
 33
0.0
 16
1.0
 26
0.0
 36
0.0
 17
0.0
 27
1.0
 37
0.0
 76
     0
330
1B
  0
LAYOUT
  5
26
102
{ACAD_REACTORS
330
1A
102
}
330
1A
100
AcDbPlotSettings
  1

  2
none_device
  4

  6

 40
0.0
 41
0.0
 42
0.0
 43
0.0
 44
0.0
 45
0.0
 46
0.0
 47
0.0
 48
0.0
 49
0.0
140
0.0
141
0.0
142
1.0
143
1.0
 70
   688
 72
     0
 73
     0
 74
     5
  7

 75
    16
147
1.0
148
0.0
149
0.0
100
AcDbLayout
  1
Layout2
 70
     1
 71
     2
 10
0.0
 20
0.0
 11
0.0
 21
0.0
 12
0.0
 22
0.0
 32
0.0
 14
0.0
 24
0.0
 34
0.0
 15
0.0
 25
0.0
 35
0.0
146
0.0
 13
0.0
 23
0.0
 33
0.0
 16
1.0
 26
0.0
 36
0.0
 17
0.0
 27
1.0
 37
0.0
 76
     0
330
23
  0
LAYOUT
  5
22
102
{ACAD_REACTORS
330
1A
102
}
330
1A
100
AcDbPlotSettings
  1

  2
none_device
  4

  6

 40
0.0
 41
0.0
 42
0.0
 43
0.0
 44
0.0
 45
0.0
 46
0.0
 47
0.0
 48
0.0
 49
0.0
140
0.0
141
0.0
142
1.0
143
1.0
 70
  1712
 72
     0
 73
     0
 74
     0
  7

 75
     0
147
1.0
148
0.0
149
0.0
100
AcDbLayout
  1
Model
 70
     1
 71
     0
 10
0.0
 20
0.0
 11
12.0
 21
9.0
 12
0.0
 22
0.0
 32
0.0
 14
-14.7684
 24
-16.4409
 34
0.0
 15
14.6458
 25
16.3504
 35
0.0
146
0.0
 13
0.0
 23
0.0
 33
0.0
 16
1.0
 26
0.0
 36
0.0
 17
0.0
 27
1.0
 37
0.0
 76
     0
330
1F
331
29
  0
MATERIAL
  5
3D
102
{ACAD_REACTORS
330
3B
102
}
102
{ACAD_XDICTIONARY
360
20D
102
}
330
3B
100
AcDbMaterial
  1
ByBlock
  0
MATERIAL
  5
3C
102
{ACAD_REACTORS
330
3B
102
}
102
{ACAD_XDICTIONARY
360
20B
102
}
330
3B
100
AcDbMaterial
  1
ByLayer
  0
MATERIAL
  5
3E
102
{ACAD_REACTORS
330
3B
102
}
102
{ACAD_XDICTIONARY
360
20F
102
}
330
3B
100
AcDbMaterial
  1
Global
  0
MLINESTYLE
  5
18
102
{ACAD_REACTORS
330
17
102
}
330
17
100
AcDbMlineStyle
  2
Standard
 70
     0
  3

 62
   256
 51
90.0
 52
90.0
 71
     2
 49
0.5
 62
   256
  6
BYLAYER
 49
-0.5
 62
   256
  6
BYLAYER
  0
ACDBPLACEHOLDER
  5
F
102
{ACAD_REACTORS
330
E
102
}
330
E
  0
VISUALSTYLE
  5
2F
102
{ACAD_REACTORS
330
2A
102
}
102
{ACAD_XDICTIONARY
360
1F3
102
}
330
2A
100
AcDbVisualStyle
  2
2dWireframe
 70
     4
 71
     0
 72
     2
 73
     0
 90
        0
 40
-0.6
 41
-30.0
 62
     5
 63
     7
 74
     1
 91
        4
 64
     7
 65
   257
 75
     1
175
     1
 42
1.0
 92
        0
 66
   257
 43
1.0
 76
     1
 77
     6
 78
     2
 67
     7
 79
     5
170
     0
171
     0
290
     0
174
     0
 93
        1
 44
0.0
173
     0
291
     0
 45
0.0
1001
ACAD
1000
AcDbSavedByObjectVersion
1070
     0
  0
VISUALSTYLE
  5
31
102
{ACAD_REACTORS
330
2A
102
}
102
{ACAD_XDICTIONARY
360
1F7
102
}
330
2A
100
AcDbVisualStyle
  2
3D Hidden
 70
     6
 71
     1
 72
     2
 73
     2
 90
        0
 40
-0.6
 41
-30.0
 62
     5
 63
     7
 74
     2
 91
        2
 64
     7
 65
   257
 75
     2
175
     1
 42
40.0
 92
        0
 66
   257
 43
1.0
 76
     1
 77
     6
 78
     2
 67
     7
 79
     3
170
     0
171
     0
290
     0
174
     0
 93
        1
 44
0.0
173
     0
291
     0
 45
0.0
1001
ACAD
1000
AcDbSavedByObjectVersion
1070
     0
  0
VISUALSTYLE
  5
30
102
{ACAD_REACTORS
330
2A
102
}
102
{ACAD_XDICTIONARY
360
1F5
102
}
330
2A
100
AcDbVisualStyle
  2
3dWireframe
 70
     5
 71
     0
 72
     2
 73
     0
 90
        0
 40
-0.6
 41
-30.0
 62
     5
 63
     7
 74
     1
 91
        4
 64
     7
 65
   257
 75
     1
175
     1
 42
1.0
 92
        0
 66
   257
 43
1.0
 76
     1
 77
     6
 78
     2
 67
     7
 79
     5
170
     0
171
     0
290
     0
174
     0
 93
        1
 44
0.0
173
     0
291
     0
 45
0.0
1001
ACAD
1000
AcDbSavedByObjectVersion
1070
     0
  0
VISUALSTYLE
  5
32
102
{ACAD_REACTORS
330
2A
102
}
102
{ACAD_XDICTIONARY
360
1F9
102
}
330
2A
100
AcDbVisualStyle
  2
Basic
 70
     7
 71
     1
 72
     0
 73
     1
 90
        0
 40
-0.6
 41
-30.0
 62
     5
 63
     7
 74
     0
 91
        4
 64
     7
 65
   257
 75
     1
175
     1
 42
1.0
 92
        8
 66
     7
 43
1.0
 76
     1
 77
     6
 78
     2
 67
     7
 79
     5
170
     0
171
     0
290
     0
174
     0
 93
        1
 44
0.0
173
     0
291
     1
 45
0.0
1001
ACAD
1000
AcDbSavedByObjectVersion
1070
     0
  0
VISUALSTYLE
  5
36
102
{ACAD_REACTORS
330
2A
102
}
102
{ACAD_XDICTIONARY
360
201
102
}
330
2A
100
AcDbVisualStyle
  2
Brighten
 70
    12
 71
     2
 72
     2
 73
     0
 90
        0
 40
-0.6
 41
-30.0
 62
     5
 63
     7
 74
     1
 91
        4
 64
     7
 65
   257
 75
     1
175
     1
 42
1.0
 92
        8
 66
     7
 43
1.0
 76
     1
 77
     6
 78
     2
 67
     7
 79
     5
170
     0
171
     0
290
     0
174
     0
 93
        1
 44
50.0
173
     0
291
     1
 45
0.0
1001
ACAD
1000
AcDbSavedByObjectVersion
1070
     0
  0
VISUALSTYLE
  5
3A
102
{ACAD_REACTORS
330
2A
102
}
102
{ACAD_XDICTIONARY
360
209
102
}
330
2A
100
AcDbVisualStyle
  2
ColorChange
 70
    16
 71
     2
 72
     2
 73
     3
 90
        0
 40
-0.6
 41
-30.0
 62
     5
 63
     8
 74
     1
 91
        4
 64
     7
 65
   257
 75
     1
175
     1
 42
1.0
 92
        8
 66
     8
 43
1.0
 76
     1
 77
     6
 78
     2
 67
     7
 79
     5
170
     0
171
     0
290
     0
174
     0
 93
        1
 44
0.0
173
     0
291
     1
 45
0.0
1001
ACAD
1000
AcDbSavedByObjectVersion
1070
     0
  0
VISUALSTYLE
  5
34
102
{ACAD_REACTORS
330
2A
102
}
102
{ACAD_XDICTIONARY
360
1FD
102
}
330
2A
100
AcDbVisualStyle
  2
Conceptual
 70
     9
 71
     3
 72
     2
 73
     0
 90
        0
 40
-0.6
 41
-30.0
 62
     5
 63
     7
 74
     2
 91
        2
 64
     7
 65
   257
 75
     1
175
     1
 42
40.0
 92
        8
 66
     7
 43
1.0
 76
     1
 77
     6
 78
     2
 67
     7
 79
     3
170
     0
171
     0
290
     0
174
     0
 93
        1
 44
0.0
173
     0
291
     0
 45
0.0
1001
ACAD
1000
AcDbSavedByObjectVersion
1070
     0
  0
VISUALSTYLE
  5
35
102
{ACAD_REACTORS
330
2A
102
}
102
{ACAD_XDICTIONARY
360
1FF
102
}
330
2A
100
AcDbVisualStyle
  2
Dim
 70
    11
 71
     2
 72
     2
 73
     0
 90
        0
 40
-0.6
 41
-30.0
 62
     5
 63
     7
 74
     1
 91
        4
 64
     7
 65
   257
 75
     1
175
     1
 42
1.0
 92
        8
 66
     7
 43
1.0
 76
     1
 77
     6
 78
     2
 67
     7
 79
     5
170
     0
171
     0
290
     0
174
     0
 93
        1
 44
-50.0
173
     0
291
     1
 45
0.0
1001
ACAD
1000
AcDbSavedByObjectVersion
1070
     0
  0
VISUALSTYLE
  5
39
102
{ACAD_REACTORS
330
2A
102
}
102
{ACAD_XDICTIONARY
360
207
102
}
330
2A
100
AcDbVisualStyle
  2
Facepattern
 70
    15
 71
     2
 72
     2
 73
     0
 90
        0
 40
-0.6
 41
-30.0
 62
     5
 63
     7
 74
     1
 91
        4
 64
     7
 65
   257
 75
     1
175
     1
 42
1.0
 92
        8
 66
     7
 43
1.0
 76
     1
 77
     6
 78
     2
 67
     7
 79
     5
170
     0
171
     0
290
     0
174
     0
 93
        1
 44
0.0
173
     0
291
     1
 45
0.0
1001
ACAD
1000
AcDbSavedByObjectVersion
1070
     0
  0
VISUALSTYLE
  5
2B
102
{ACAD_REACTORS
330
2A
102
}
102
{ACAD_XDICTIONARY
360
1EB
102
}
330
2A
100
AcDbVisualStyle
  2
Flat
 70
     0
 71
     2
 72
     1
 73
     1
 90
        2
 40
-0.6
 41
30.0
 62
     5
 63
     7
 74
     0
 91
        4
 64
     7
 65
   257
 75
     1
175
     1
 42
1.0
 92
        8
 66
     7
 43
1.0
 76
     1
 77
     6
 78
     2
 67
     7
 79
     5
170
     0
171
     0
290
     0
174
     0
 93
       13
 44
0.0
173
     0
291
     1
 45
0.0
1001
ACAD
1000
AcDbSavedByObjectVersion
1070
     0
  0
VISUALSTYLE
  5
2C
102
{ACAD_REACTORS
330
2A
102
}
102
{ACAD_XDICTIONARY
360
1ED
102
}
330
2A
100
AcDbVisualStyle
  2
FlatWithEdges
 70
     1
 71
     2
 72
     1
 73
     1
 90
        2
 40
-0.6
 41
30.0
 62
     5
 63
     7
 74
     1
 91
        4
 64
     7
 65
   257
 75
     1
175
     1
 42
1.0
 92
        0
 66
   257
 43
1.0
 76
     1
 77
     6
 78
     2
 67
     7
 79
     5
170
     0
171
     0
290
     0
174
     0
 93
       13
 44
0.0
173
     0
291
     1
 45
0.0
1001
ACAD
1000
AcDbSavedByObjectVersion
1070
     0
  0
VISUALSTYLE
  5
2D
102
{ACAD_REACTORS
330
2A
102
}
102
{ACAD_XDICTIONARY
360
1EF
102
}
330
2A
100
AcDbVisualStyle
  2
Gouraud
 70
     2
 71
     2
 72
     2
 73
     1
 90
        2
 40
-0.6
 41
30.0
 62
     5
 63
     7
 74
     0
 91
        4
 64
     7
 65
   257
 75
     1
175
     1
 42
1.0
 92
        0
 66
     7
 43
1.0
 76
     1
 77
     6
 78
     2
 67
     7
 79
     5
170
     0
171
     0
290
     0
174
     0
 93
       13
 44
0.0
173
     0
291
     1
 45
0.0
1001
ACAD
1000
AcDbSavedByObjectVersion
1070
     0
  0
VISUALSTYLE
  5
2E
102
{ACAD_REACTORS
330
2A
102
}
102
{ACAD_XDICTIONARY
360
1F1
102
}
330
2A
100
AcDbVisualStyle
  2
GouraudWithEdges
 70
     3
 71
     2
 72
     2
 73
     1
 90
        2
 40
-0.6
 41
30.0
 62
     5
 63
     7
 74
     1
 91
        4
 64
     7
 65
   257
 75
     1
175
     1
 42
1.0
 92
        0
 66
   257
 43
1.0
 76
     1
 77
     6
 78
     2
 67
     7
 79
     5
170
     0
171
     0
290
     0
174
     0
 93
       13
 44
0.0
173
     0
291
     1
 45
0.0
1001
ACAD
1000
AcDbSavedByObjectVersion
1070
     0
  0
VISUALSTYLE
  5
38
102
{ACAD_REACTORS
330
2A
102
}
102
{ACAD_XDICTIONARY
360
205
102
}
330
2A
100
AcDbVisualStyle
  2
Linepattern
 70
    14
 71
     2
 72
     2
 73
     0
 90
        0
 40
-0.6
 41
-30.0
 62
     5
 63
     7
 74
     1
 91
        4
 64
     7
 65
   257
 75
     7
175
     7
 42
1.0
 92
        8
 66
     7
 43
1.0
 76
     1
 77
     6
 78
     2
 67
     7
 79
     5
170
     0
171
     0
290
     0
174
     0
 93
        1
 44
0.0
173
     0
291
     1
 45
0.0
1001
ACAD
1000
AcDbSavedByObjectVersion
1070
     0
  0
VISUALSTYLE
  5
33
102
{ACAD_REACTORS
330
2A
102
}
102
{ACAD_XDICTIONARY
360
1FB
102
}
330
2A
100
AcDbVisualStyle
  2
Realistic
 70
     8
 71
     2
 72
     2
 73
     0
 90
        0
 40
-0.6
 41
-30.0
 62
     5
 63
     7
 74
     1
 91
        0
 64
     7
 65
   257
 75
     1
175
     1
 42
1.0
 92
        8
 66
     8
 43
1.0
 76
     1
 77
     6
 78
     2
 67
     7
 79
     5
170
     0
171
     0
290
     0
174
     0
 93
       13
 44
0.0
173
     0
291
     0
 45
0.0
1001
ACAD
1000
AcDbSavedByObjectVersion
1070
     0
  0
VISUALSTYLE
  5
37
102
{ACAD_REACTORS
330
2A
102
}
102
{ACAD_XDICTIONARY
360
203
102
}
330
2A
100
AcDbVisualStyle
  2
Thicken
 70
    13
 71
     2
 72
     2
 73
     0
 90
        0
 40
-0.6
 41
-30.0
 62
     5
 63
     7
 74
     1
 91
        4
 64
     7
 65
   257
 75
     1
175
     1
 42
1.0
 92
       12
 66
     7
 43
1.0
 76
     1
 77
     6
 78
     2
 67
     7
 79
     5
170
     0
171
     0
290
     0
174
     0
 93
        1
 44
0.0
173
     0
291
     1
 45
0.0
1001
ACAD
1000
AcDbSavedByObjectVersion
1070
     0
  0
DICTIONARYVAR
  5
1E9
102
{ACAD_REACTORS
330
1E6
102
}
330
1E6
100
DictionaryVariables
280
     0
  1
2
  0
DICTIONARYVAR
  5
1EA
102
{ACAD_REACTORS
330
1E6
102
}
330
1E6
100
DictionaryVariables
280
     0
  1
1
  0
DICTIONARY
  5
20D
330
3D
100
AcDbDictionary
280
     1
281
     1
  3
ACAD_XREC_ROUNDTRIP
360
20E
  0
DICTIONARY
  5
20B
330
3C
100
AcDbDictionary
280
     1
281
     1
  3
ACAD_XREC_ROUNDTRIP
360
20C
  0
DICTIONARY
  5
20F
330
3E
100
AcDbDictionary
280
     1
281
     1
  3
ACAD_XREC_ROUNDTRIP
360
210
  0
DICTIONARY
  5
1F3
330
2F
100
AcDbDictionary
280
     1
281
     1
  3
ACAD_XREC_ROUNDTRIP
360
1F4
  0
DICTIONARY
  5
1F7
330
31
100
AcDbDictionary
280
     1
281
     1
  3
ACAD_XREC_ROUNDTRIP
360
1F8
  0
DICTIONARY
  5
1F5
330
30
100
AcDbDictionary
280
     1
281
     1
  3
ACAD_XREC_ROUNDTRIP
360
1F6
  0
DICTIONARY
  5
1F9
330
32
100
AcDbDictionary
280
     1
281
     1
  3
ACAD_XREC_ROUNDTRIP
360
1FA
  0
DICTIONARY
  5
201
330
36
100
AcDbDictionary
280
     1
281
     1
  3
ACAD_XREC_ROUNDTRIP
360
202
  0
DICTIONARY
  5
209
330
3A
100
AcDbDictionary
280
     1
281
     1
  3
ACAD_XREC_ROUNDTRIP
360
20A
  0
DICTIONARY
  5
1FD
330
34
100
AcDbDictionary
280
     1
281
     1
  3
ACAD_XREC_ROUNDTRIP
360
1FE
  0
DICTIONARY
  5
1FF
330
35
100
AcDbDictionary
280
     1
281
     1
  3
ACAD_XREC_ROUNDTRIP
360
200
  0
DICTIONARY
  5
207
330
39
100
AcDbDictionary
280
     1
281
     1
  3
ACAD_XREC_ROUNDTRIP
360
208
  0
DICTIONARY
  5
1EB
330
2B
100
AcDbDictionary
280
     1
281
     1
  3
ACAD_XREC_ROUNDTRIP
360
1EC
  0
DICTIONARY
  5
1ED
330
2C
100
AcDbDictionary
280
     1
281
     1
  3
ACAD_XREC_ROUNDTRIP
360
1EE
  0
DICTIONARY
  5
1EF
330
2D
100
AcDbDictionary
280
     1
281
     1
  3
ACAD_XREC_ROUNDTRIP
360
1F0
  0
DICTIONARY
  5
1F1
330
2E
100
AcDbDictionary
280
     1
281
     1
  3
ACAD_XREC_ROUNDTRIP
360
1F2
  0
DICTIONARY
  5
205
330
38
100
AcDbDictionary
280
     1
281
     1
  3
ACAD_XREC_ROUNDTRIP
360
206
  0
DICTIONARY
  5
1FB
330
33
100
AcDbDictionary
280
     1
281
     1
  3
ACAD_XREC_ROUNDTRIP
360
1FC
  0
DICTIONARY
  5
203
330
37
100
AcDbDictionary
280
     1
281
     1
  3
ACAD_XREC_ROUNDTRIP
360
204
  0
XRECORD
  5
20E
102
{ACAD_REACTORS
330
20D
102
}
330
20D
100
AcDbXrecord
280
     1
102
MATERIAL
148
0.0
149
0.0
149
0.0
 93
        0
 94
      127
282
     0
 72
     1
 77
     1
171
     1
175
     1
179
     1
273
     0
  0
XRECORD
  5
20C
102
{ACAD_REACTORS
330
20B
102
}
330
20B
100
AcDbXrecord
280
     1
102
MATERIAL
148
0.0
149
0.0
149
0.0
 93
        0
 94
      127
282
     0
 72
     1
 77
     1
171
     1
175
     1
179
     1
273
     0
  0
XRECORD
  5
210
102
{ACAD_REACTORS
330
20F
102
}
330
20F
100
AcDbXrecord
280
     1
102
MATERIAL
148
0.0
149
0.0
149
0.0
 93
        0
 94
      127
282
     0
 72
     1
 77
     1
171
     1
175
     1
179
     1
273
     0
  0
XRECORD
  5
1F4
102
{ACAD_REACTORS
330
1F3
102
}
330
1F3
100
AcDbXrecord
280
     1
102
RTVSPropertyOp0
 70
     1
102
RTVSPropertyOp1
 70
     1
102
RTVSPropertyOp2
 70
     1
102
RTVSPropertyOp3
 70
     1
102
RTVSPropertyOp4
 70
     1
102
RTVSPropertyOp5
 70
     1
102
RTVSPropertyOp6
 70
     1
102
RTVSPropertyOp7
 70
     1
102
RTVSPropertyOp8
 70
     1
102
RTVSPropertyOp9
 70
     1
102
RTVSPropertyOp10
 70
     1
102
RTVSPropertyOp11
 70
     1
102
RTVSPropertyOp12
 70
     1
102
RTVSPropertyOp13
 70
     1
102
RTVSPropertyOp14
 70
     1
102
RTVSPropertyOp15
 70
     1
102
RTVSPropertyOp16
 70
     1
102
RTVSPropertyOp17
 70
     1
102
RTVSPropertyOp18
 70
     1
102
RTVSPropertyOp19
 70
     1
102
RTVSPropertyOp20
 70
     1
102
RTVSPropertyOp21
 70
     1
102
RTVSPropertyOp22
 70
     1
102
RTVSPropertyOp23
 70
     1
102
RTVSPropertyOp24
 70
     1
102
RTVSPropertyOp25
 70
     1
102
RTVSPropertyOp26
 70
     1
102
RTVSPropertyOp27
 70
     1
  0
XRECORD
  5
1F8
102
{ACAD_REACTORS
330
1F7
102
}
330
1F7
100
AcDbXrecord
280
     1
102
RTVSPropertyOp0
 70
     1
102
RTVSPropertyOp1
 70
     1
102
RTVSPropertyOp2
 70
     1
102
RTVSPropertyOp3
 70
     1
102
RTVSPropertyOp4
 70
     1
102
RTVSPropertyOp5
 70
     1
102
RTVSPropertyOp6
 70
     1
102
RTVSPropertyOp7
 70
     1
102
RTVSPropertyOp8
 70
     1
102
RTVSPropertyOp9
 70
     1
102
RTVSPropertyOp10
 70
     1
102
RTVSPropertyOp11
 70
     1
102
RTVSPropertyOp12
 70
     1
102
RTVSPropertyOp13
 70
     1
102
RTVSPropertyOp14
 70
     1
102
RTVSPropertyOp15
 70
     1
102
RTVSPropertyOp16
 70
     1
102
RTVSPropertyOp17
 70
     1
102
RTVSPropertyOp18
 70
     1
102
RTVSPropertyOp19
 70
     1
102
RTVSPropertyOp20
 70
     1
102
RTVSPropertyOp21
 70
     1
102
RTVSPropertyOp22
 70
     1
102
RTVSPropertyOp23
 70
     1
102
RTVSPropertyOp24
 70
     1
102
RTVSPropertyOp25
 70
     1
102
RTVSPropertyOp26
 70
     1
102
RTVSPropertyOp27
 70
     1
  0
XRECORD
  5
1F6
102
{ACAD_REACTORS
330
1F5
102
}
330
1F5
100
AcDbXrecord
280
     1
102
RTVSPropertyOp0
 70
     1
102
RTVSPropertyOp1
 70
     1
102
RTVSPropertyOp2
 70
     1
102
RTVSPropertyOp3
 70
     1
102
RTVSPropertyOp4
 70
     1
102
RTVSPropertyOp5
 70
     1
102
RTVSPropertyOp6
 70
     1
102
RTVSPropertyOp7
 70
     1
102
RTVSPropertyOp8
 70
     1
102
RTVSPropertyOp9
 70
     1
102
RTVSPropertyOp10
 70
     1
102
RTVSPropertyOp11
 70
     1
102
RTVSPropertyOp12
 70
     1
102
RTVSPropertyOp13
 70
     1
102
RTVSPropertyOp14
 70
     1
102
RTVSPropertyOp15
 70
     1
102
RTVSPropertyOp16
 70
     1
102
RTVSPropertyOp17
 70
     1
102
RTVSPropertyOp18
 70
     1
102
RTVSPropertyOp19
 70
     1
102
RTVSPropertyOp20
 70
     1
102
RTVSPropertyOp21
 70
     1
102
RTVSPropertyOp22
 70
     1
102
RTVSPropertyOp23
 70
     1
102
RTVSPropertyOp24
 70
     1
102
RTVSPropertyOp25
 70
     1
102
RTVSPropertyOp26
 70
     1
102
RTVSPropertyOp27
 70
     1
  0
XRECORD
  5
1FA
102
{ACAD_REACTORS
330
1F9
102
}
330
1F9
100
AcDbXrecord
280
     1
102
RTVSPropertyOp0
 70
     1
102
RTVSPropertyOp1
 70
     1
102
RTVSPropertyOp2
 70
     1
102
RTVSPropertyOp3
 70
     1
102
RTVSPropertyOp4
 70
     1
102
RTVSPropertyOp5
 70
     1
102
RTVSPropertyOp6
 70
     1
102
RTVSPropertyOp7
 70
     1
102
RTVSPropertyOp8
 70
     1
102
RTVSPropertyOp9
 70
     1
102
RTVSPropertyOp10
 70
     1
102
RTVSPropertyOp11
 70
     1
102
RTVSPropertyOp12
 70
     1
102
RTVSPropertyOp13
 70
     1
102
RTVSPropertyOp14
 70
     1
102
RTVSPropertyOp15
 70
     1
102
RTVSPropertyOp16
 70
     1
102
RTVSPropertyOp17
 70
     1
102
RTVSPropertyOp18
 70
     1
102
RTVSPropertyOp19
 70
     1
102
RTVSPropertyOp20
 70
     1
102
RTVSPropertyOp21
 70
     1
102
RTVSPropertyOp22
 70
     1
102
RTVSPropertyOp23
 70
     1
102
RTVSPropertyOp24
 70
     1
102
RTVSPropertyOp25
 70
     1
102
RTVSPropertyOp26
 70
     1
102
RTVSPropertyOp27
 70
     1
  0
XRECORD
  5
202
102
{ACAD_REACTORS
330
201
102
}
330
201
100
AcDbXrecord
280
     1
102
RTVSPropertyOp0
 70
     1
102
RTVSPropertyOp1
 70
     1
102
RTVSPropertyOp2
 70
     1
102
RTVSPropertyOp3
 70
     1
102
RTVSPropertyOp4
 70
     1
102
RTVSPropertyOp5
 70
     1
102
RTVSPropertyOp6
 70
     1
102
RTVSPropertyOp7
 70
     1
102
RTVSPropertyOp8
 70
     1
102
RTVSPropertyOp9
 70
     1
102
RTVSPropertyOp10
 70
     1
102
RTVSPropertyOp11
 70
     1
102
RTVSPropertyOp12
 70
     1
102
RTVSPropertyOp13
 70
     1
102
RTVSPropertyOp14
 70
     1
102
RTVSPropertyOp15
 70
     1
102
RTVSPropertyOp16
 70
     1
102
RTVSPropertyOp17
 70
     1
102
RTVSPropertyOp18
 70
     1
102
RTVSPropertyOp19
 70
     1
102
RTVSPropertyOp20
 70
     1
102
RTVSPropertyOp21
 70
     1
102
RTVSPropertyOp22
 70
     1
102
RTVSPropertyOp23
 70
     1
102
RTVSPropertyOp24
 70
     1
102
RTVSPropertyOp25
 70
     1
102
RTVSPropertyOp26
 70
     1
102
RTVSPropertyOp27
 70
     1
  0
XRECORD
  5
20A
102
{ACAD_REACTORS
330
209
102
}
330
209
100
AcDbXrecord
280
     1
102
RTVSPropertyOp0
 70
     1
102
RTVSPropertyOp1
 70
     1
102
RTVSPropertyOp2
 70
     1
102
RTVSPropertyOp3
 70
     1
102
RTVSPropertyOp4
 70
     1
102
RTVSPropertyOp5
 70
     1
102
RTVSPropertyOp6
 70
     1
102
RTVSPropertyOp7
 70
     1
102
RTVSPropertyOp8
 70
     1
102
RTVSPropertyOp9
 70
     1
102
RTVSPropertyOp10
 70
     1
102
RTVSPropertyOp11
 70
     1
102
RTVSPropertyOp12
 70
     1
102
RTVSPropertyOp13
 70
     1
102
RTVSPropertyOp14
 70
     1
102
RTVSPropertyOp15
 70
     1
102
RTVSPropertyOp16
 70
     1
102
RTVSPropertyOp17
 70
     1
102
RTVSPropertyOp18
 70
     1
102
RTVSPropertyOp19
 70
     1
102
RTVSPropertyOp20
 70
     1
102
RTVSPropertyOp21
 70
     1
102
RTVSPropertyOp22
 70
     1
102
RTVSPropertyOp23
 70
     1
102
RTVSPropertyOp24
 70
     1
102
RTVSPropertyOp25
 70
     1
102
RTVSPropertyOp26
 70
     1
102
RTVSPropertyOp27
 70
     1
  0
XRECORD
  5
1FE
102
{ACAD_REACTORS
330
1FD
102
}
330
1FD
100
AcDbXrecord
280
     1
102
RTVSPropertyOp0
 70
     1
102
RTVSPropertyOp1
 70
     1
102
RTVSPropertyOp2
 70
     1
102
RTVSPropertyOp3
 70
     1
102
RTVSPropertyOp4
 70
     1
102
RTVSPropertyOp5
 70
     1
102
RTVSPropertyOp6
 70
     1
102
RTVSPropertyOp7
 70
     1
102
RTVSPropertyOp8
 70
     1
102
RTVSPropertyOp9
 70
     1
102
RTVSPropertyOp10
 70
     1
102
RTVSPropertyOp11
 70
     1
102
RTVSPropertyOp12
 70
     1
102
RTVSPropertyOp13
 70
     1
102
RTVSPropertyOp14
 70
     1
102
RTVSPropertyOp15
 70
     1
102
RTVSPropertyOp16
 70
     1
102
RTVSPropertyOp17
 70
     1
102
RTVSPropertyOp18
 70
     1
102
RTVSPropertyOp19
 70
     1
102
RTVSPropertyOp20
 70
     1
102
RTVSPropertyOp21
 70
     1
102
RTVSPropertyOp22
 70
     1
102
RTVSPropertyOp23
 70
     1
102
RTVSPropertyOp24
 70
     1
102
RTVSPropertyOp25
 70
     1
102
RTVSPropertyOp26
 70
     1
102
RTVSPropertyOp27
 70
     1
  0
XRECORD
  5
200
102
{ACAD_REACTORS
330
1FF
102
}
330
1FF
100
AcDbXrecord
280
     1
102
RTVSPropertyOp0
 70
     1
102
RTVSPropertyOp1
 70
     1
102
RTVSPropertyOp2
 70
     1
102
RTVSPropertyOp3
 70
     1
102
RTVSPropertyOp4
 70
     1
102
RTVSPropertyOp5
 70
     1
102
RTVSPropertyOp6
 70
     1
102
RTVSPropertyOp7
 70
     1
102
RTVSPropertyOp8
 70
     1
102
RTVSPropertyOp9
 70
     1
102
RTVSPropertyOp10
 70
     1
102
RTVSPropertyOp11
 70
     1
102
RTVSPropertyOp12
 70
     1
102
RTVSPropertyOp13
 70
     1
102
RTVSPropertyOp14
 70
     1
102
RTVSPropertyOp15
 70
     1
102
RTVSPropertyOp16
 70
     1
102
RTVSPropertyOp17
 70
     1
102
RTVSPropertyOp18
 70
     1
102
RTVSPropertyOp19
 70
     1
102
RTVSPropertyOp20
 70
     1
102
RTVSPropertyOp21
 70
     1
102
RTVSPropertyOp22
 70
     1
102
RTVSPropertyOp23
 70
     1
102
RTVSPropertyOp24
 70
     1
102
RTVSPropertyOp25
 70
     1
102
RTVSPropertyOp26
 70
     1
102
RTVSPropertyOp27
 70
     1
  0
XRECORD
  5
208
102
{ACAD_REACTORS
330
207
102
}
330
207
100
AcDbXrecord
280
     1
102
RTVSPropertyOp0
 70
     1
102
RTVSPropertyOp1
 70
     1
102
RTVSPropertyOp2
 70
     1
102
RTVSPropertyOp3
 70
     1
102
RTVSPropertyOp4
 70
     1
102
RTVSPropertyOp5
 70
     1
102
RTVSPropertyOp6
 70
     1
102
RTVSPropertyOp7
 70
     1
102
RTVSPropertyOp8
 70
     1
102
RTVSPropertyOp9
 70
     1
102
RTVSPropertyOp10
 70
     1
102
RTVSPropertyOp11
 70
     1
102
RTVSPropertyOp12
 70
     1
102
RTVSPropertyOp13
 70
     1
102
RTVSPropertyOp14
 70
     1
102
RTVSPropertyOp15
 70
     1
102
RTVSPropertyOp16
 70
     1
102
RTVSPropertyOp17
 70
     1
102
RTVSPropertyOp18
 70
     1
102
RTVSPropertyOp19
 70
     1
102
RTVSPropertyOp20
 70
     1
102
RTVSPropertyOp21
 70
     1
102
RTVSPropertyOp22
 70
     1
102
RTVSPropertyOp23
 70
     1
102
RTVSPropertyOp24
 70
     1
102
RTVSPropertyOp25
 70
     1
102
RTVSPropertyOp26
 70
     1
102
RTVSPropertyOp27
 70
     1
  0
XRECORD
  5
1EC
102
{ACAD_REACTORS
330
1EB
102
}
330
1EB
100
AcDbXrecord
280
     1
102
RTVSPropertyOp0
 70
     1
102
RTVSPropertyOp1
 70
     1
102
RTVSPropertyOp2
 70
     1
102
RTVSPropertyOp3
 70
     1
102
RTVSPropertyOp4
 70
     1
102
RTVSPropertyOp5
 70
     1
102
RTVSPropertyOp6
 70
     1
102
RTVSPropertyOp7
 70
     1
102
RTVSPropertyOp8
 70
     1
102
RTVSPropertyOp9
 70
     1
102
RTVSPropertyOp10
 70
     1
102
RTVSPropertyOp11
 70
     1
102
RTVSPropertyOp12
 70
     1
102
RTVSPropertyOp13
 70
     1
102
RTVSPropertyOp14
 70
     1
102
RTVSPropertyOp15
 70
     1
102
RTVSPropertyOp16
 70
     1
102
RTVSPropertyOp17
 70
     1
102
RTVSPropertyOp18
 70
     1
102
RTVSPropertyOp19
 70
     1
102
RTVSPropertyOp20
 70
     1
102
RTVSPropertyOp21
 70
     1
102
RTVSPropertyOp22
 70
     1
102
RTVSPropertyOp23
 70
     1
102
RTVSPropertyOp24
 70
     1
102
RTVSPropertyOp25
 70
     1
102
RTVSPropertyOp26
 70
     1
102
RTVSPropertyOp27
 70
     1
  0
XRECORD
  5
1EE
102
{ACAD_REACTORS
330
1ED
102
}
330
1ED
100
AcDbXrecord
280
     1
102
RTVSPropertyOp0
 70
     1
102
RTVSPropertyOp1
 70
     1
102
RTVSPropertyOp2
 70
     1
102
RTVSPropertyOp3
 70
     1
102
RTVSPropertyOp4
 70
     1
102
RTVSPropertyOp5
 70
     1
102
RTVSPropertyOp6
 70
     1
102
RTVSPropertyOp7
 70
     1
102
RTVSPropertyOp8
 70
     1
102
RTVSPropertyOp9
 70
     1
102
RTVSPropertyOp10
 70
     1
102
RTVSPropertyOp11
 70
     1
102
RTVSPropertyOp12
 70
     1
102
RTVSPropertyOp13
 70
     1
102
RTVSPropertyOp14
 70
     1
102
RTVSPropertyOp15
 70
     1
102
RTVSPropertyOp16
 70
     1
102
RTVSPropertyOp17
 70
     1
102
RTVSPropertyOp18
 70
     1
102
RTVSPropertyOp19
 70
     1
102
RTVSPropertyOp20
 70
     1
102
RTVSPropertyOp21
 70
     1
102
RTVSPropertyOp22
 70
     1
102
RTVSPropertyOp23
 70
     1
102
RTVSPropertyOp24
 70
     1
102
RTVSPropertyOp25
 70
     1
102
RTVSPropertyOp26
 70
     1
102
RTVSPropertyOp27
 70
     1
  0
XRECORD
  5
1F0
102
{ACAD_REACTORS
330
1EF
102
}
330
1EF
100
AcDbXrecord
280
     1
102
RTVSPropertyOp0
 70
     1
102
RTVSPropertyOp1
 70
     1
102
RTVSPropertyOp2
 70
     1
102
RTVSPropertyOp3
 70
     1
102
RTVSPropertyOp4
 70
     1
102
RTVSPropertyOp5
 70
     1
102
RTVSPropertyOp6
 70
     1
102
RTVSPropertyOp7
 70
     1
102
RTVSPropertyOp8
 70
     1
102
RTVSPropertyOp9
 70
     1
102
RTVSPropertyOp10
 70
     1
102
RTVSPropertyOp11
 70
     1
102
RTVSPropertyOp12
 70
     1
102
RTVSPropertyOp13
 70
     1
102
RTVSPropertyOp14
 70
     1
102
RTVSPropertyOp15
 70
     1
102
RTVSPropertyOp16
 70
     1
102
RTVSPropertyOp17
 70
     1
102
RTVSPropertyOp18
 70
     1
102
RTVSPropertyOp19
 70
     1
102
RTVSPropertyOp20
 70
     1
102
RTVSPropertyOp21
 70
     1
102
RTVSPropertyOp22
 70
     1
102
RTVSPropertyOp23
 70
     1
102
RTVSPropertyOp24
 70
     1
102
RTVSPropertyOp25
 70
     1
102
RTVSPropertyOp26
 70
     1
102
RTVSPropertyOp27
 70
     1
  0
XRECORD
  5
1F2
102
{ACAD_REACTORS
330
1F1
102
}
330
1F1
100
AcDbXrecord
280
     1
102
RTVSPropertyOp0
 70
     1
102
RTVSPropertyOp1
 70
     1
102
RTVSPropertyOp2
 70
     1
102
RTVSPropertyOp3
 70
     1
102
RTVSPropertyOp4
 70
     1
102
RTVSPropertyOp5
 70
     1
102
RTVSPropertyOp6
 70
     1
102
RTVSPropertyOp7
 70
     1
102
RTVSPropertyOp8
 70
     1
102
RTVSPropertyOp9
 70
     1
102
RTVSPropertyOp10
 70
     1
102
RTVSPropertyOp11
 70
     1
102
RTVSPropertyOp12
 70
     1
102
RTVSPropertyOp13
 70
     1
102
RTVSPropertyOp14
 70
     1
102
RTVSPropertyOp15
 70
     1
102
RTVSPropertyOp16
 70
     1
102
RTVSPropertyOp17
 70
     1
102
RTVSPropertyOp18
 70
     1
102
RTVSPropertyOp19
 70
     1
102
RTVSPropertyOp20
 70
     1
102
RTVSPropertyOp21
 70
     1
102
RTVSPropertyOp22
 70
     1
102
RTVSPropertyOp23
 70
     1
102
RTVSPropertyOp24
 70
     1
102
RTVSPropertyOp25
 70
     1
102
RTVSPropertyOp26
 70
     1
102
RTVSPropertyOp27
 70
     1
  0
XRECORD
  5
206
102
{ACAD_REACTORS
330
205
102
}
330
205
100
AcDbXrecord
280
     1
102
RTVSPropertyOp0
 70
     1
102
RTVSPropertyOp1
 70
     1
102
RTVSPropertyOp2
 70
     1
102
RTVSPropertyOp3
 70
     1
102
RTVSPropertyOp4
 70
     1
102
RTVSPropertyOp5
 70
     1
102
RTVSPropertyOp6
 70
     1
102
RTVSPropertyOp7
 70
     1
102
RTVSPropertyOp8
 70
     1
102
RTVSPropertyOp9
 70
     1
102
RTVSPropertyOp10
 70
     1
102
RTVSPropertyOp11
 70
     1
102
RTVSPropertyOp12
 70
     1
102
RTVSPropertyOp13
 70
     1
102
RTVSPropertyOp14
 70
     1
102
RTVSPropertyOp15
 70
     1
102
RTVSPropertyOp16
 70
     1
102
RTVSPropertyOp17
 70
     1
102
RTVSPropertyOp18
 70
     1
102
RTVSPropertyOp19
 70
     1
102
RTVSPropertyOp20
 70
     1
102
RTVSPropertyOp21
 70
     1
102
RTVSPropertyOp22
 70
     1
102
RTVSPropertyOp23
 70
     1
102
RTVSPropertyOp24
 70
     1
102
RTVSPropertyOp25
 70
     1
102
RTVSPropertyOp26
 70
     1
102
RTVSPropertyOp27
 70
     1
  0
XRECORD
  5
1FC
102
{ACAD_REACTORS
330
1FB
102
}
330
1FB
100
AcDbXrecord
280
     1
102
RTVSPropertyOp0
 70
     1
102
RTVSPropertyOp1
 70
     1
102
RTVSPropertyOp2
 70
     1
102
RTVSPropertyOp3
 70
     1
102
RTVSPropertyOp4
 70
     1
102
RTVSPropertyOp5
 70
     1
102
RTVSPropertyOp6
 70
     1
102
RTVSPropertyOp7
 70
     1
102
RTVSPropertyOp8
 70
     1
102
RTVSPropertyOp9
 70
     1
102
RTVSPropertyOp10
 70
     1
102
RTVSPropertyOp11
 70
     1
102
RTVSPropertyOp12
 70
     1
102
RTVSPropertyOp13
 70
     1
102
RTVSPropertyOp14
 70
     1
102
RTVSPropertyOp15
 70
     1
102
RTVSPropertyOp16
 70
     1
102
RTVSPropertyOp17
 70
     1
102
RTVSPropertyOp18
 70
     1
102
RTVSPropertyOp19
 70
     1
102
RTVSPropertyOp20
 70
     1
102
RTVSPropertyOp21
 70
     1
102
RTVSPropertyOp22
 70
     1
102
RTVSPropertyOp23
 70
     1
102
RTVSPropertyOp24
 70
     1
102
RTVSPropertyOp25
 70
     1
102
RTVSPropertyOp26
 70
     1
102
RTVSPropertyOp27
 70
     1
  0
XRECORD
  5
204
102
{ACAD_REACTORS
330
203
102
}
330
203
100
AcDbXrecord
280
     1
102
RTVSPropertyOp0
 70
     1
102
RTVSPropertyOp1
 70
     1
102
RTVSPropertyOp2
 70
     1
102
RTVSPropertyOp3
 70
     1
102
RTVSPropertyOp4
 70
     1
102
RTVSPropertyOp5
 70
     1
102
RTVSPropertyOp6
 70
     1
102
RTVSPropertyOp7
 70
     1
102
RTVSPropertyOp8
 70
     1
102
RTVSPropertyOp9
 70
     1
102
RTVSPropertyOp10
 70
     1
102
RTVSPropertyOp11
 70
     1
102
RTVSPropertyOp12
 70
     1
102
RTVSPropertyOp13
 70
     1
102
RTVSPropertyOp14
 70
     1
102
RTVSPropertyOp15
 70
     1
102
RTVSPropertyOp16
 70
     1
102
RTVSPropertyOp17
 70
     1
102
RTVSPropertyOp18
 70
     1
102
RTVSPropertyOp19
 70
     1
102
RTVSPropertyOp20
 70
     1
102
RTVSPropertyOp21
 70
     1
102
RTVSPropertyOp22
 70
     1
102
RTVSPropertyOp23
 70
     1
102
RTVSPropertyOp24
 70
     1
102
RTVSPropertyOp25
 70
     1
102
RTVSPropertyOp26
 70
     1
102
RTVSPropertyOp27
 70
     1
  0
ENDSEC
  0
EOF
