  0
SECTION
  2
HEADER
  9
$ACADVER
  1
AC1014
  9
$ACADMAINTVER
 70
     9
  9
$DWGCODEPAGE
  3
ANSI_1250
  9
$INSBASE
 10
0.0
 20
0.0
 30
0.0
  9
$EXTMIN
 10
-30.0852
 20
-26.163
 30
0.0
  9
$EXTMAX
 10
30.1915
 20
26.1629
 30
0.0
  9
$LIMMIN
 10
0.0
 20
0.0
  9
$LIMMAX
 10
12.0
 20
9.0
  9
$ORTHOMODE
 70
     0
  9
$REGENMODE
 70
     1
  9
$FILLMODE
 70
     1
  9
$QTEXTMODE
 70
     0
  9
$MIRRTEXT
 70
     1
  9
$DRAGMODE
 70
     2
  9
$LTSCALE
 40
1.0
  9
$OSMODE
 70
    37
  9
$ATTMODE
 70
     1
  9
$TEXTSIZE
 40
0.2
  9
$TRACEWID
 40
0.05
  9
$TEXTSTYLE
  7
STANDARD
  9
$CLAYER
  8
0
  9
$CELTYPE
  6
BYLAYER
  9
$CECOLOR
 62
   256
  9
$CELTSCALE
 40
1.0
  9
$DELOBJ
 70
     1
  9
$DISPSILH
 70
     0
  9
$DIMSCALE
 40
1.0
  9
$DIMASZ
 40
0.18
  9
$DIMEXO
 40
0.0625
  9
$DIMDLI
 40
0.38
  9
$DIMRND
 40
0.0
  9
$DIMDLE
 40
0.0
  9
$DIMEXE
 40
0.18
  9
$DIMTP
 40
0.0
  9
$DIMTM
 40
0.0
  9
$DIMTXT
 40
0.18
  9
$DIMCEN
 40
0.09
  9
$DIMTSZ
 40
0.0
  9
$DIMTOL
 70
     0
  9
$DIMLIM
 70
     0
  9
$DIMTIH
 70
     1
  9
$DIMTOH
 70
     1
  9
$DIMSE1
 70
     0
  9
$DIMSE2
 70
     0
  9
$DIMTAD
 70
     0
  9
$DIMZIN
 70
     0
  9
$DIMBLK
  1

  9
$DIMASO
 70
     1
  9
$DIMSHO
 70
     1
  9
$DIMPOST
  1

  9
$DIMAPOST
  1

  9
$DIMALT
 70
     0
  9
$DIMALTD
 70
     2
  9
$DIMALTF
 40
25.4
  9
$DIMLFAC
 40
1.0
  9
$DIMTOFL
 70
     0
  9
$DIMTVP
 40
0.0
  9
$DIMTIX
 70
     0
  9
$DIMSOXD
 70
     0
  9
$DIMSAH
 70
     0
  9
$DIMBLK1
  1

  9
$DIMBLK2
  1

  9
$DIMSTYLE
  2
STANDARD
  9
$DIMCLRD
 70
     0
  9
$DIMCLRE
 70
     0
  9
$DIMCLRT
 70
     0
  9
$DIMTFAC
 40
1.0
  9
$DIMGAP
 40
0.09
  9
$DIMJUST
 70
     0
  9
$DIMSD1
 70
     0
  9
$DIMSD2
 70
     0
  9
$DIMTOLJ
 70
     1
  9
$DIMTZIN
 70
     0
  9
$DIMALTZ
 70
     0
  9
$DIMALTTZ
 70
     0
  9
$DIMFIT
 70
     3
  9
$DIMUPT
 70
     0
  9
$DIMUNIT
 70
     2
  9
$DIMDEC
 70
     4
  9
$DIMTDEC
 70
     4
  9
$DIMALTU
 70
     2
  9
$DIMALTTD
 70
     2
  9
$DIMTXSTY
  7
STANDARD
  9
$DIMAUNIT
 70
     0
  9
$LUNITS
 70
     2
  9
$LUPREC
 70
     4
  9
$SKETCHINC
 40
0.1
  9
$FILLETRAD
 40
0.5
  9
$AUNITS
 70
     0
  9
$AUPREC
 70
     0
  9
$MENU
  1
.
  9
$ELEVATION
 40
0.0
  9
$PELEVATION
 40
0.0
  9
$THICKNESS
 40
0.0
  9
$LIMCHECK
 70
     0
  9
$CHAMFERA
 40
0.5
  9
$CHAMFERB
 40
0.5
  9
$CHAMFERC
 40
1.0
  9
$CHAMFERD
 40
0.0
  9
$SKPOLY
 70
     0
  9
$TDCREATE
 40
2456268.556815636
  9
$TDUPDATE
 40
2456268.556815648
  9
$TDINDWG
 40
0.0000000116
  9
$TDUSRTIMER
 40
0.0000000116
  9
$USRTIMER
 70
     1
  9
$ANGBASE
 50
0.0
  9
$ANGDIR
 70
     0
  9
$PDMODE
 70
     0
  9
$PDSIZE
 40
0.0
  9
$PLINEWID
 40
0.0
  9
$COORDS
 70
     1
  9
$SPLFRAME
 70
     0
  9
$SPLINETYPE
 70
     6
  9
$SPLINESEGS
 70
     8
  9
$ATTDIA
 70
     0
  9
$ATTREQ
 70
     1
  9
$HANDLING
 70
     1
  9
$HANDSEED
  5
DB
  9
$SURFTAB1
 70
     6
  9
$SURFTAB2
 70
     6
  9
$SURFTYPE
 70
     6
  9
$SURFU
 70
     6
  9
$SURFV
 70
     6
  9
$UCSNAME
  2

  9
$UCSORG
 10
0.0
 20
0.0
 30
0.0
  9
$UCSXDIR
 10
1.0
 20
0.0
 30
0.0
  9
$UCSYDIR
 10
0.0
 20
1.0
 30
0.0
  9
$PUCSNAME
  2

  9
$PUCSORG
 10
0.0
 20
0.0
 30
0.0
  9
$PUCSXDIR
 10
1.0
 20
0.0
 30
0.0
  9
$PUCSYDIR
 10
0.0
 20
1.0
 30
0.0
  9
$USERI1
 70
     0
  9
$USERI2
 70
     0
  9
$USERI3
 70
     0
  9
$USERI4
 70
     0
  9
$USERI5
 70
     0
  9
$USERR1
 40
0.0
  9
$USERR2
 40
0.0
  9
$USERR3
 40
0.0
  9
$USERR4
 40
0.0
  9
$USERR5
 40
0.0
  9
$WORLDVIEW
 70
     1
  9
$SHADEDGE
 70
     3
  9
$SHADEDIF
 70
    70
  9
$TILEMODE
 70
     1
  9
$MAXACTVP
 70
    64
  9
$PINSBASE
 10
0.0
 20
0.0
 30
0.0
  9
$PLIMCHECK
 70
     0
  9
$PEXTMIN
 10
1.000000000000000E+20
 20
1.000000000000000E+20
 30
1.000000000000000E+20
  9
$PEXTMAX
 10
-1.000000000000000E+20
 20
-1.000000000000000E+20
 30
-1.000000000000000E+20
  9
$PLIMMIN
 10
0.0
 20
0.0
  9
$PLIMMAX
 10
12.0
 20
9.0
  9
$UNITMODE
 70
     0
  9
$VISRETAIN
 70
     1
  9
$PLINEGEN
 70
     0
  9
$PSLTSCALE
 70
     1
  9
$TREEDEPTH
 70
  3020
  9
$PICKSTYLE
 70
     1
  9
$CMLSTYLE
  2
STANDARD
  9
$CMLJUST
 70
     0
  9
$CMLSCALE
 40
1.0
  9
$PROXYGRAPHICS
 70
     1
  9
$MEASUREMENT
 70
     0
  0
ENDSEC
  0
SECTION
  2
CLASSES
  0
CLASS
  1
ACDBDICTIONARYWDFLT
  2
AcDbDictionaryWithDefault
  3
ObjectDBX Classes
 90
        0
280
     0
281
     0
  0
CLASS
  1
VISUALSTYLE
  2
AcDbVisualStyle
  3
ObjectDBX Classes
 90
     4095
280
     0
281
     0
  0
CLASS
  1
MATERIAL
  2
AcDbMaterial
  3
ObjectDBX Classes
 90
     1153
280
     0
281
     0
  0
CLASS
  1
DICTIONARYVAR
  2
AcDbDictionaryVar
  3
ObjectDBX Classes
 90
        0
280
     0
281
     0
  0
CLASS
  1
XRECORD
  2
AcDbXrecord
  3
AutoCAD 2000
 90
        0
280
     0
281
     0
  0
CLASS
  1
LWPOLYLINE
  2
AcDbPolyline
  3
AutoCAD 2000
 90
        0
280
     0
281
     1
  0
CLASS
  1
HATCH
  2
AcDbHatch
  3
AutoCAD 2000
 90
        0
280
     0
281
     1
  0
CLASS
  1
ACDBPLACEHOLDER
  2
AcDbPlaceHolder
  3
ObjectDBX Classes
 90
        0
280
     0
281
     0
  0
CLASS
  1
LAYOUT
  2
AcDbLayout
  3
ObjectDBX Classes
 90
        0
280
     0
281
     0
  0
ENDSEC
  0
SECTION
  2
TABLES
  0
TABLE
  2
VPORT
  5
8
330
0
100
AcDbSymbolTable
 70
     1
  0
VPORT
  5
29
330
8
100
AcDbSymbolTableRecord
100
AcDbViewportTableRecord
  2
*ACTIVE
 70
     0
 10
0.0
 20
0.0
 11
1.0
 21
1.0
 12
10.42990654205607
 22
4.5
 13
0.0
 23
0.0
 14
0.5
 24
0.5
 15
0.5
 25
0.5
 16
0.0
 26
0.0
 36
1.0
 17
0.0
 27
0.0
 37
0.0
 40
9.0
 41
1.972972972850329
 42
50.0
 43
0.0
 44
0.0
 50
0.0
 51
0.0
 71
     0
 72
   100
 73
     1
 74
     3
 75
     0
 76
     0
 77
     0
 78
     0
  0
ENDTAB
  0
TABLE
  2
LTYPE
  5
5
330
0
100
AcDbSymbolTable
 70
     1
  0
LTYPE
  5
14
330
5
100
AcDbSymbolTableRecord
100
AcDbLinetypeTableRecord
  2
BYBLOCK
 70
     0
  3

 72
    65
 73
     0
 40
0.0
  0
LTYPE
  5
15
330
5
100
AcDbSymbolTableRecord
100
AcDbLinetypeTableRecord
  2
BYLAYER
 70
     0
  3

 72
    65
 73
     0
 40
0.0
  0
LTYPE
  5
16
330
5
100
AcDbSymbolTableRecord
100
AcDbLinetypeTableRecord
  2
CONTINUOUS
 70
     0
  3
Solid line
 72
    65
 73
     0
 40
0.0
  0
ENDTAB
  0
TABLE
  2
LAYER
  5
2
330
0
100
AcDbSymbolTable
 70
     2
  0
LAYER
  5
10
330
2
100
AcDbSymbolTableRecord
100
AcDbLayerTableRecord
  2
0
 70
     0
 62
     7
  6
CONTINUOUS
  0
LAYER
  5
40
330
2
100
AcDbSymbolTableRecord
100
AcDbLayerTableRecord
  2
ILUSTRACE
 70
     0
 62
     7
  6
CONTINUOUS
  0
ENDTAB
  0
TABLE
  2
STYLE
  5
3
330
0
100
AcDbSymbolTable
 70
     1
  0
STYLE
  5
11
330
3
100
AcDbSymbolTableRecord
100
AcDbTextStyleTableRecord
  2
STANDARD
 70
     0
 40
0.0
 41
1.0
 50
0.0
 71
     0
 42
0.2
  3
txt
  4

  0
ENDTAB
  0
TABLE
  2
VIEW
  5
6
330
0
100
AcDbSymbolTable
 70
     0
  0
ENDTAB
  0
TABLE
  2
UCS
  5
7
330
0
100
AcDbSymbolTable
 70
     0
  0
ENDTAB
  0
TABLE
  2
APPID
  5
9
330
0
100
AcDbSymbolTable
 70
     2
  0
APPID
  5
12
330
9
100
AcDbSymbolTableRecord
100
AcDbRegAppTableRecord
  2
ACAD
 70
     0
  0
APPID
  5
3F
330
9
100
AcDbSymbolTableRecord
100
AcDbRegAppTableRecord
  2
ODA
 70
     0
  0
ENDTAB
  0
TABLE
  2
DIMSTYLE
  5
A
330
0
100
AcDbSymbolTable
 70
     1
  0
DIMSTYLE
105
27
330
A
100
AcDbSymbolTableRecord
100
AcDbDimStyleTableRecord
  2
STANDARD
 70
     0
  3

  4

  5

  6

  7

 40
1.0
 41
0.18
 42
0.0625
 43
0.38
 44
0.18
 45
0.0
 46
0.0
 47
0.0
 48
0.0
140
0.18
141
0.09
142
0.0
143
25.4
144
1.0
145
0.0
146
1.0
147
0.09
 71
     0
 72
     0
 73
     1
 74
     1
 75
     0
 76
     0
 77
     0
 78
     0
170
     0
171
     2
172
     0
173
     0
174
     0
175
     0
176
     0
177
     0
178
     0
270
     2
271
     4
272
     4
273
     2
274
     2
340
11
275
     0
280
     0
281
     0
282
     0
283
     1
284
     0
285
     0
286
     0
287
     3
288
     0
  0
ENDTAB
  0
TABLE
  2
BLOCK_RECORD
  5
1
330
0
100
AcDbSymbolTable
 70
     1
  0
BLOCK_RECORD
  5
1F
330
1
100
AcDbSymbolTableRecord
100
AcDbBlockTableRecord
  2
*MODEL_SPACE
  0
BLOCK_RECORD
  5
1B
330
1
100
AcDbSymbolTableRecord
100
AcDbBlockTableRecord
  2
*PAPER_SPACE
  0
ENDTAB
  0
ENDSEC
  0
SECTION
  2
BLOCKS
  0
BLOCK
  5
20
330
1F
100
AcDbEntity
  8
0
100
AcDbBlockBegin
  2
*MODEL_SPACE
 70
     0
 10
0.0
 20
0.0
 30
0.0
  3
*MODEL_SPACE
  1

  0
ENDBLK
  5
21
330
1F
100
AcDbEntity
  8
0
100
AcDbBlockEnd
  0
BLOCK
  5
1C
330
1B
100
AcDbEntity
 67
     1
  8
0
100
AcDbBlockBegin
  2
*PAPER_SPACE
 70
     0
 10
0.0
 20
0.0
 30
0.0
  3
*PAPER_SPACE
  1

  0
ENDBLK
  5
1D
330
1B
100
AcDbEntity
 67
     1
  8
0
100
AcDbBlockEnd
  0
ENDSEC
  0
SECTION
  2
ENTITIES
  0
SPLINE
  5
41
330
1F
100
AcDbEntity
  8
ILUSTRACE
 62
   250
100
AcDbSpline
210
0.0
220
0.0
230
1.0
 70
    24
 71
     3
 72
     8
 73
     4
 74
     0
 42
0.0000000001
 43
0.0000000001
 40
0.0
 40
0.0
 40
0.0
 40
0.0
 40
1.0
 40
1.0
 40
1.0
 40
1.0
 10
-18.6943
 20
23.4148
 30
0.0
 10
-18.6943
 20
23.4148
 30
0.0
 10
-18.6943
 20
12.8619
 30
0.0
 10
-18.6943
 20
12.8619
 30
0.0
  0
SPLINE
  5
42
330
1F
100
AcDbEntity
  8
ILUSTRACE
 62
   250
100
AcDbSpline
210
0.0
220
0.0
230
1.0
 70
    24
 71
     3
 72
     8
 73
     4
 74
     0
 42
0.0000000001
 43
0.0000000001
 40
0.0
 40
0.0
 40
0.0
 40
0.0
 40
1.0
 40
1.0
 40
1.0
 40
1.0
 10
30.085
 20
23.2748
 30
0.0
 10
30.085
 20
23.2748
 30
0.0
 10
30.085
 20
12.6646
 30
0.0
 10
30.085
 20
12.6646
 30
0.0
  0
SPLINE
  5
43
330
1F
100
AcDbEntity
  8
ILUSTRACE
 62
   250
100
AcDbSpline
210
0.0
220
0.0
230
1.0
 70
    11
 71
     3
 72
    20
 73
    16
 74
     0
 42
0.0000000001
 43
0.0000000001
 40
0.0
 40
0.0
 40
0.0
 40
0.0
 40
0.2
 40
0.2
 40
0.2
 40
0.2
 40
0.4
 40
0.4
 40
0.4
 40
0.4
 40
0.6
 40
0.6
 40
0.6
 40
0.6
 40
1.0
 40
1.0
 40
1.0
 40
1.0
 10
27.6423
 20
23.0693
 30
0.0
 10
27.6423
 20
23.0693
 30
0.0
 10
29.9897
 20
22.738
 30
0.0
 10
29.9897
 20
22.738
 30
0.0
 10
29.9897
 20
22.738
 30
0.0
 10
29.9897
 20
22.738
 30
0.0
 10
29.9897
 20
22.6644
 30
0.0
 10
29.9897
 20
22.6644
 30
0.0
 10
29.9897
 20
22.6644
 30
0.0
 10
29.9897
 20
22.6644
 30
0.0
 10
27.6423
 20
22.3111
 30
0.0
 10
27.6423
 20
22.3111
 30
0.0
 10
27.6423
 20
22.3111
 30
0.0
 10
27.6423
 20
22.3111
 30
0.0
 10
27.6423
 20
23.0693
 30
0.0
 10
27.6423
 20
23.0693
 30
0.0
  0
SPLINE
  5
44
330
1F
100
AcDbEntity
  8
ILUSTRACE
 62
   250
100
AcDbSpline
210
0.0
220
0.0
230
1.0
 70
    11
 71
     3
 72
    20
 73
    16
 74
     0
 42
0.0000000001
 43
0.0000000001
 40
0.0
 40
0.0
 40
0.0
 40
0.0
 40
0.2
 40
0.2
 40
0.2
 40
0.2
 40
0.4
 40
0.4
 40
0.4
 40
0.4
 40
0.6
 40
0.6
 40
0.6
 40
0.6
 40
1.0
 40
1.0
 40
1.0
 40
1.0
 10
-16.2574
 20
22.3119
 30
0.0
 10
-16.2574
 20
22.3119
 30
0.0
 10
-18.6049
 20
22.6432
 30
0.0
 10
-18.6049
 20
22.6432
 30
0.0
 10
-18.6049
 20
22.6432
 30
0.0
 10
-18.6049
 20
22.6432
 30
0.0
 10
-18.6049
 20
22.7168
 30
0.0
 10
-18.6049
 20
22.7168
 30
0.0
 10
-18.6049
 20
22.7168
 30
0.0
 10
-18.6049
 20
22.7168
 30
0.0
 10
-16.2574
 20
23.0701
 30
0.0
 10
-16.2574
 20
23.0701
 30
0.0
 10
-16.2574
 20
23.0701
 30
0.0
 10
-16.2574
 20
23.0701
 30
0.0
 10
-16.2574
 20
22.3119
 30
0.0
 10
-16.2574
 20
22.3119
 30
0.0
  0
SPLINE
  5
45
330
1F
100
AcDbEntity
  8
ILUSTRACE
 62
   250
100
AcDbSpline
210
0.0
220
0.0
230
1.0
 70
    24
 71
     3
 72
     8
 73
     4
 74
     0
 42
0.0000000001
 43
0.0000000001
 40
0.0
 40
0.0
 40
0.0
 40
0.0
 40
1.0
 40
1.0
 40
1.0
 40
1.0
 10
29.1975
 20
22.6798
 30
0.0
 10
29.1975
 20
22.6798
 30
0.0
 10
-18.3893
 20
22.6798
 30
0.0
 10
-18.3893
 20
22.6798
 30
0.0
  0
SPLINE
  5
46
330
1F
100
AcDbEntity
  8
ILUSTRACE
 62
   250
100
AcDbSpline
210
0.0
220
0.0
230
1.0
 70
    24
 71
     3
 72
     8
 73
     4
 74
     0
 42
0.0000000001
 43
0.0000000001
 40
0.0
 40
0.0
 40
0.0
 40
0.0
 40
1.0
 40
1.0
 40
1.0
 40
1.0
 10
9.9506
 20
-19.6677
 30
0.0
 10
9.9506
 20
-19.6677
 30
0.0
 10
-28.6834
 20
-19.6677
 30
0.0
 10
-28.6834
 20
-19.6677
 30
0.0
  0
SPLINE
  5
47
330
1F
100
AcDbEntity
  8
ILUSTRACE
 62
   250
100
AcDbSpline
210
0.0
220
0.0
230
1.0
 70
    24
 71
     3
 72
     8
 73
     4
 74
     0
 42
0.0000000001
 43
0.0000000001
 40
0.0
 40
0.0
 40
0.0
 40
0.0
 40
1.0
 40
1.0
 40
1.0
 40
1.0
 10
-22.4871
 20
6.9365
 30
0.0
 10
-22.4871
 20
6.9365
 30
0.0
 10
-22.4871
 20
-19.2027
 30
0.0
 10
-22.4871
 20
-19.2027
 30
0.0
  0
SPLINE
  5
48
330
1F
100
AcDbEntity
  8
ILUSTRACE
 62
   250
100
AcDbSpline
210
0.0
220
0.0
230
1.0
 70
    11
 71
     3
 72
    20
 73
    16
 74
     0
 42
0.0000000001
 43
0.0000000001
 40
0.0
 40
0.0
 40
0.0
 40
0.0
 40
0.2
 40
0.2
 40
0.2
 40
0.2
 40
0.4
 40
0.4
 40
0.4
 40
0.4
 40
0.6
 40
0.6
 40
0.6
 40
0.6
 40
1.0
 40
1.0
 40
1.0
 40
1.0
 10
-22.8799
 20
5.1135
 30
0.0
 10
-22.8799
 20
5.1135
 30
0.0
 10
-22.5486
 20
7.4609
 30
0.0
 10
-22.5486
 20
7.4609
 30
0.0
 10
-22.5486
 20
7.4609
 30
0.0
 10
-22.5486
 20
7.4609
 30
0.0
 10
-22.475
 20
7.4609
 30
0.0
 10
-22.475
 20
7.4609
 30
0.0
 10
-22.475
 20
7.4609
 30
0.0
 10
-22.475
 20
7.4609
 30
0.0
 10
-22.1217
 20
5.1135
 30
0.0
 10
-22.1217
 20
5.1135
 30
0.0
 10
-22.1217
 20
5.1135
 30
0.0
 10
-22.1217
 20
5.1135
 30
0.0
 10
-22.8799
 20
5.1135
 30
0.0
 10
-22.8799
 20
5.1135
 30
0.0
  0
SPLINE
  5
49
330
1F
100
AcDbEntity
  8
ILUSTRACE
 62
   250
100
AcDbSpline
210
0.0
220
0.0
230
1.0
 70
    11
 71
     3
 72
    20
 73
    16
 74
     0
 42
0.0000000001
 43
0.0000000001
 40
0.0
 40
0.0
 40
0.0
 40
0.0
 40
0.2
 40
0.2
 40
0.2
 40
0.2
 40
0.4
 40
0.4
 40
0.4
 40
0.4
 40
0.6
 40
0.6
 40
0.6
 40
0.6
 40
1.0
 40
1.0
 40
1.0
 40
1.0
 10
-22.1529
 20
-17.2037
 30
0.0
 10
-22.1529
 20
-17.2037
 30
0.0
 10
-22.4842
 20
-19.5511
 30
0.0
 10
-22.4842
 20
-19.5511
 30
0.0
 10
-22.4842
 20
-19.5511
 30
0.0
 10
-22.4842
 20
-19.5511
 30
0.0
 10
-22.5578
 20
-19.5511
 30
0.0
 10
-22.5578
 20
-19.5511
 30
0.0
 10
-22.5578
 20
-19.5511
 30
0.0
 10
-22.5578
 20
-19.5511
 30
0.0
 10
-22.9111
 20
-17.2037
 30
0.0
 10
-22.9111
 20
-17.2037
 30
0.0
 10
-22.9111
 20
-17.2037
 30
0.0
 10
-22.9111
 20
-17.2037
 30
0.0
 10
-22.1529
 20
-17.2037
 30
0.0
 10
-22.1529
 20
-17.2037
 30
0.0
  0
SPLINE
  5
4A
330
1F
100
AcDbEntity
  8
ILUSTRACE
 62
   250
100
AcDbSpline
210
0.0
220
0.0
230
1.0
 70
    24
 71
     3
 72
     8
 73
     4
 74
     0
 42
0.0000000001
 43
0.0000000001
 40
0.0
 40
0.0
 40
0.0
 40
0.0
 40
1.0
 40
1.0
 40
1.0
 40
1.0
 10
-17.9377
 20
7.5382
 30
0.0
 10
-17.9377
 20
7.5382
 30
0.0
 10
-23.061
 20
7.5382
 30
0.0
 10
-23.061
 20
7.5382
 30
0.0
  0
SPLINE
  5
4B
330
1F
100
AcDbEntity
  8
ILUSTRACE
 62
   250
100
AcDbSpline
210
0.0
220
0.0
230
1.0
 70
    24
 71
     3
 72
     8
 73
     4
 74
     0
 42
0.0000000001
 43
0.0000000001
 40
0.0
 40
0.0
 40
0.0
 40
0.0
 40
1.0
 40
1.0
 40
1.0
 40
1.0
 10
-10.5023
 20
17.6871
 30
0.0
 10
-10.5023
 20
17.6871
 30
0.0
 10
-27.9642
 20
17.6871
 30
0.0
 10
-27.9642
 20
17.6871
 30
0.0
  0
SPLINE
  5
4C
330
1F
100
AcDbEntity
  8
ILUSTRACE
 62
   250
100
AcDbSpline
210
0.0
220
0.0
230
1.0
 70
    11
 71
     3
 72
    20
 73
    16
 74
     0
 42
0.0000000001
 43
0.0000000001
 40
0.0
 40
0.0
 40
0.0
 40
0.0
 40
0.2
 40
0.2
 40
0.2
 40
0.2
 40
0.4
 40
0.4
 40
0.4
 40
0.4
 40
0.6
 40
0.6
 40
0.6
 40
0.6
 40
1.0
 40
1.0
 40
1.0
 40
1.0
 10
-17.3698
 20
6.4577
 30
0.0
 10
-17.784
 20
6.4577
 30
0.0
 10
-18.1198
 20
6.1219
 30
0.0
 10
-18.1198
 20
5.7077
 30
0.0
 10
-18.1198
 20
5.7077
 30
0.0
 10
-18.1198
 20
5.2935
 30
0.0
 10
-17.784
 20
4.9577
 30
0.0
 10
-17.3698
 20
4.9577
 30
0.0
 10
-17.3698
 20
4.9577
 30
0.0
 10
-16.9556
 20
4.9577
 30
0.0
 10
-16.6199
 20
5.2935
 30
0.0
 10
-16.6199
 20
5.7077
 30
0.0
 10
-16.6199
 20
5.7077
 30
0.0
 10
-16.6199
 20
6.1219
 30
0.0
 10
-16.9556
 20
6.4577
 30
0.0
 10
-17.3698
 20
6.4577
 30
0.0
  0
SPLINE
  5
4D
330
1F
100
AcDbEntity
  8
ILUSTRACE
 62
   250
100
AcDbSpline
210
0.0
220
0.0
230
1.0
 70
    11
 71
     3
 72
    20
 73
    16
 74
     0
 42
0.0000000001
 43
0.0000000001
 40
0.0
 40
0.0
 40
0.0
 40
0.0
 40
0.2
 40
0.2
 40
0.2
 40
0.2
 40
0.4
 40
0.4
 40
0.4
 40
0.4
 40
0.6
 40
0.6
 40
0.6
 40
0.6
 40
1.0
 40
1.0
 40
1.0
 40
1.0
 10
28.8178
 20
6.4288
 30
0.0
 10
28.4036
 20
6.4288
 30
0.0
 10
28.0678
 20
6.093
 30
0.0
 10
28.0678
 20
5.6788
 30
0.0
 10
28.0678
 20
5.6788
 30
0.0
 10
28.0678
 20
5.2646
 30
0.0
 10
28.4036
 20
4.9288
 30
0.0
 10
28.8178
 20
4.9288
 30
0.0
 10
28.8178
 20
4.9288
 30
0.0
 10
29.232
 20
4.9288
 30
0.0
 10
29.5677
 20
5.2646
 30
0.0
 10
29.5677
 20
5.6788
 30
0.0
 10
29.5677
 20
5.6788
 30
0.0
 10
29.5677
 20
6.093
 30
0.0
 10
29.232
 20
6.4288
 30
0.0
 10
28.8178
 20
6.4288
 30
0.0
  0
SPLINE
  5
4E
330
1F
100
AcDbEntity
  8
ILUSTRACE
 62
   250
100
AcDbSpline
210
0.0
220
0.0
230
1.0
 70
    24
 71
     3
 72
     8
 73
     4
 74
     0
 42
0.0000000001
 43
0.0000000001
 40
0.0
 40
0.0
 40
0.0
 40
0.0
 40
1.0
 40
1.0
 40
1.0
 40
1.0
 10
-16.5862
 20
6.6585
 30
0.0
 10
-16.5862
 20
6.6585
 30
0.0
 10
-16.5862
 20
4.8205
 30
0.0
 10
-16.5862
 20
4.8205
 30
0.0
  0
SPLINE
  5
4F
330
1F
100
AcDbEntity
  8
ILUSTRACE
 62
   250
100
AcDbSpline
210
0.0
220
0.0
230
1.0
 70
    24
 71
     3
 72
     8
 73
     4
 74
     0
 42
0.0000000001
 43
0.0000000001
 40
0.0
 40
0.0
 40
0.0
 40
0.0
 40
1.0
 40
1.0
 40
1.0
 40
1.0
 10
27.9929
 20
6.6001
 30
0.0
 10
27.9929
 20
6.6001
 30
0.0
 10
27.9929
 20
4.7621
 30
0.0
 10
27.9929
 20
4.7621
 30
0.0
  0
SPLINE
  5
50
330
1F
100
AcDbEntity
  8
ILUSTRACE
100
AcDbSpline
210
0.0
220
0.0
230
1.0
 70
    24
 71
     3
 72
     8
 73
     4
 74
     0
 42
0.0000000001
 43
0.0000000001
 40
0.0
 40
0.0
 40
0.0
 40
0.0
 40
1.0
 40
1.0
 40
1.0
 40
1.0
 10
-8.2904
 20
-14.7949
 30
0.0
 10
-8.2904
 20
-14.7949
 30
0.0
 10
-2.7457
 20
-3.4266
 30
0.0
 10
-2.7457
 20
-3.4266
 30
0.0
  0
SPLINE
  5
51
330
1F
100
AcDbEntity
  8
ILUSTRACE
100
AcDbSpline
210
0.0
220
0.0
230
1.0
 70
     8
 71
     3
 72
     8
 73
     4
 74
     0
 42
0.0000000001
 43
0.0000000001
 40
0.0
 40
0.0
 40
0.0
 40
0.0
 40
1.0
 40
1.0
 40
1.0
 40
1.0
 10
-3.2192
 20
-1.0789
 30
0.0
 10
-3.3347
 20
-1.2172
 30
0.0
 10
-3.3708
 20
-1.3517
 30
0.0
 10
-3.3429
 20
-1.5292
 30
0.0
  0
SPLINE
  5
52
330
1F
100
AcDbEntity
  8
ILUSTRACE
100
AcDbSpline
210
0.0
220
0.0
230
1.0
 70
     8
 71
     3
 72
    20
 73
    16
 74
     0
 42
0.0000000001
 43
0.0000000001
 40
0.0
 40
0.0
 40
0.0
 40
0.0
 40
0.2
 40
0.2
 40
0.2
 40
0.2
 40
0.4
 40
0.4
 40
0.4
 40
0.4
 40
0.6
 40
0.6
 40
0.6
 40
0.6
 40
1.0
 40
1.0
 40
1.0
 40
1.0
 10
-3.2192
 20
-1.0789
 30
0.0
 10
-3.1556
 20
-1.0247
 30
0.0
 10
-3.0963
 20
-0.9808
 30
0.0
 10
-3.0144
 20
-0.9569
 30
0.0
 10
-3.0144
 20
-0.9569
 30
0.0
 10
-2.5385
 20
-0.8174
 30
0.0
 10
-2.193
 20
-1.4405
 30
0.0
 10
-2.5636
 20
-1.7699
 30
0.0
 10
-2.5636
 20
-1.7699
 30
0.0
 10
-2.6488
 20
-1.846
 30
0.0
 10
-2.745
 20
-1.8747
 30
0.0
 10
-2.8553
 20
-1.8899
 30
0.0
 10
-2.8553
 20
-1.8899
 30
0.0
 10
-3.0979
 20
-1.8822
 30
0.0
 10
-3.2638
 20
-1.7589
 30
0.0
 10
-3.3429
 20
-1.5292
 30
0.0
  0
SPLINE
  5
53
330
1F
100
AcDbEntity
  8
ILUSTRACE
100
AcDbSpline
210
0.0
220
0.0
230
1.0
 70
    24
 71
     3
 72
     8
 73
     4
 74
     0
 42
0.0000000001
 43
0.0000000001
 40
0.0
 40
0.0
 40
0.0
 40
0.0
 40
1.0
 40
1.0
 40
1.0
 40
1.0
 10
-8.2904
 20
-14.7949
 30
0.0
 10
-8.2904
 20
-14.7949
 30
0.0
 10
-8.7413
 20
-14.5749
 30
0.0
 10
-8.7413
 20
-14.5749
 30
0.0
  0
SPLINE
  5
54
330
1F
100
AcDbEntity
  8
ILUSTRACE
100
AcDbSpline
210
0.0
220
0.0
230
1.0
 70
     8
 71
     3
 72
    12
 73
     8
 74
     0
 42
0.0000000001
 43
0.0000000001
 40
0.0
 40
0.0
 40
0.0
 40
0.0
 40
0.3333333333333333
 40
0.3333333333333333
 40
0.3333333333333333
 40
0.3333333333333333
 40
1.0
 40
1.0
 40
1.0
 40
1.0
 10
-8.7413
 20
-14.5749
 30
0.0
 10
-9.1685
 20
-14.3664
 30
0.0
 10
-9.6705
 20
-14.1691
 30
0.0
 10
-9.6105
 20
-13.6
 30
0.0
 10
-9.6105
 20
-13.6
 30
0.0
 10
-9.6014
 20
-13.5128
 30
0.0
 10
-9.5767
 20
-13.4277
 30
0.0
 10
-9.5386
 20
-13.3488
 30
0.0
  0
SPLINE
  5
55
330
1F
100
AcDbEntity
  8
ILUSTRACE
100
AcDbSpline
210
0.0
220
0.0
230
1.0
 70
     8
 71
     3
 72
    16
 73
    12
 74
     0
 42
0.0000000001
 43
0.0000000001
 40
0.0
 40
0.0
 40
0.0
 40
0.0
 40
0.25
 40
0.25
 40
0.25
 40
0.25
 40
0.5
 40
0.5
 40
0.5
 40
0.5
 40
1.0
 40
1.0
 40
1.0
 40
1.0
 10
-9.5386
 20
-13.3488
 30
0.0
 10
-9.5386
 20
-13.3488
 30
0.0
 10
-9.0989
 20
-12.4468
 30
0.0
 10
-9.0989
 20
-12.4468
 30
0.0
 10
-9.0989
 20
-12.4468
 30
0.0
 10
-9.0989
 20
-12.4468
 30
0.0
 10
-4.8118
 20
-3.6579
 30
0.0
 10
-4.8118
 20
-3.6579
 30
0.0
 10
-4.8118
 20
-3.6579
 30
0.0
 10
-4.8118
 20
-3.6579
 30
0.0
 10
-4.3722
 20
-2.756
 30
0.0
 10
-4.3722
 20
-2.756
 30
0.0
  0
SPLINE
  5
56
330
1F
100
AcDbEntity
  8
ILUSTRACE
100
AcDbSpline
210
0.0
220
0.0
230
1.0
 70
    24
 71
     3
 72
     8
 73
     4
 74
     0
 42
0.0000000001
 43
0.0000000001
 40
0.0
 40
0.0
 40
0.0
 40
0.0
 40
1.0
 40
1.0
 40
1.0
 40
1.0
 10
-18.6033
 20
8.312
 30
0.0
 10
-18.6033
 20
8.312
 30
0.0
 10
-12.885
 20
8.312
 30
0.0
 10
-12.885
 20
8.312
 30
0.0
  0
SPLINE
  5
57
330
1F
100
AcDbEntity
  8
ILUSTRACE
100
AcDbSpline
210
0.0
220
0.0
230
1.0
 70
    24
 71
     3
 72
     8
 73
     4
 74
     0
 42
0.0000000001
 43
0.0000000001
 40
0.0
 40
0.0
 40
0.0
 40
0.0
 40
1.0
 40
1.0
 40
1.0
 40
1.0
 10
-18.0739
 20
8.312
 30
0.0
 10
-18.0739
 20
8.312
 30
0.0
 10
-12.885
 20
8.312
 30
0.0
 10
-12.885
 20
8.312
 30
0.0
  0
SPLINE
  5
58
330
1F
100
AcDbEntity
  8
ILUSTRACE
100
AcDbSpline
210
0.0
220
0.0
230
1.0
 70
    24
 71
     3
 72
     8
 73
     4
 74
     0
 42
0.0000000001
 43
0.0000000001
 40
0.0
 40
0.0
 40
0.0
 40
0.0
 40
1.0
 40
1.0
 40
1.0
 40
1.0
 10
-17.7264
 20
7.7101
 30
0.0
 10
-17.7264
 20
7.7101
 30
0.0
 10
-18.0739
 20
8.312
 30
0.0
 10
-18.0739
 20
8.312
 30
0.0
  0
SPLINE
  5
59
330
1F
100
AcDbEntity
  8
ILUSTRACE
100
AcDbSpline
210
0.0
220
0.0
230
1.0
 70
    24
 71
     3
 72
     8
 73
     4
 74
     0
 42
0.0000000001
 43
0.0000000001
 40
0.0
 40
0.0
 40
0.0
 40
0.0
 40
1.0
 40
1.0
 40
1.0
 40
1.0
 10
-17.7264
 20
7.7101
 30
0.0
 10
-17.7264
 20
7.7101
 30
0.0
 10
-12.4567
 20
7.7101
 30
0.0
 10
-12.4567
 20
7.7101
 30
0.0
  0
SPLINE
  5
5A
330
1F
100
AcDbEntity
  8
ILUSTRACE
100
AcDbSpline
210
0.0
220
0.0
230
1.0
 70
    24
 71
     3
 72
     8
 73
     4
 74
     0
 42
0.0000000001
 43
0.0000000001
 40
0.0
 40
0.0
 40
0.0
 40
0.0
 40
1.0
 40
1.0
 40
1.0
 40
1.0
 10
-11.97
 20
8.312
 30
0.0
 10
-11.97
 20
8.312
 30
0.0
 10
30.0422
 20
8.312
 30
0.0
 10
30.0422
 20
8.312
 30
0.0
  0
SPLINE
  5
5B
330
1F
100
AcDbEntity
  8
ILUSTRACE
100
AcDbSpline
210
0.0
220
0.0
230
1.0
 70
    24
 71
     3
 72
     8
 73
     4
 74
     0
 42
0.0000000001
 43
0.0000000001
 40
0.0
 40
0.0
 40
0.0
 40
0.0
 40
1.0
 40
1.0
 40
1.0
 40
1.0
 10
29.5127
 20
8.312
 30
0.0
 10
29.5127
 20
8.312
 30
0.0
 10
-11.6069
 20
8.312
 30
0.0
 10
-11.6069
 20
8.312
 30
0.0
  0
SPLINE
  5
5C
330
1F
100
AcDbEntity
  8
ILUSTRACE
100
AcDbSpline
210
0.0
220
0.0
230
1.0
 70
    24
 71
     3
 72
     8
 73
     4
 74
     0
 42
0.0000000001
 43
0.0000000001
 40
0.0
 40
0.0
 40
0.0
 40
0.0
 40
1.0
 40
1.0
 40
1.0
 40
1.0
 10
29.1655
 20
7.7101
 30
0.0
 10
29.1655
 20
7.7101
 30
0.0
 10
29.5127
 20
8.312
 30
0.0
 10
29.5127
 20
8.312
 30
0.0
  0
SPLINE
  5
5D
330
1F
100
AcDbEntity
  8
ILUSTRACE
100
AcDbSpline
210
0.0
220
0.0
230
1.0
 70
    24
 71
     3
 72
     8
 73
     4
 74
     0
 42
0.0000000001
 43
0.0000000001
 40
0.0
 40
0.0
 40
0.0
 40
0.0
 40
1.0
 40
1.0
 40
1.0
 40
1.0
 10
-11.3622
 20
7.7101
 30
0.0
 10
-11.3622
 20
7.7101
 30
0.0
 10
29.1655
 20
7.7101
 30
0.0
 10
29.1655
 20
7.7101
 30
0.0
  0
SPLINE
  5
5E
330
1F
100
AcDbEntity
  8
ILUSTRACE
100
AcDbSpline
210
0.0
220
0.0
230
1.0
 70
    24
 71
     3
 72
     8
 73
     4
 74
     0
 42
0.0000000001
 43
0.0000000001
 40
0.0
 40
0.0
 40
0.0
 40
0.0
 40
1.0
 40
1.0
 40
1.0
 40
1.0
 10
-14.9573
 20
9.4659
 30
0.0
 10
-14.9573
 20
9.4659
 30
0.0
 10
-11.97
 20
9.4659
 30
0.0
 10
-11.97
 20
9.4659
 30
0.0
  0
SPLINE
  5
5F
330
1F
100
AcDbEntity
  8
ILUSTRACE
100
AcDbSpline
210
0.0
220
0.0
230
1.0
 70
    24
 71
     3
 72
     8
 73
     4
 74
     0
 42
0.0000000001
 43
0.0000000001
 40
0.0
 40
0.0
 40
0.0
 40
0.0
 40
1.0
 40
1.0
 40
1.0
 40
1.0
 10
-13.2864
 20
9.4659
 30
0.0
 10
-13.2864
 20
9.4659
 30
0.0
 10
-13.2864
 20
8.312
 30
0.0
 10
-13.2864
 20
8.312
 30
0.0
  0
SPLINE
  5
60
330
1F
100
AcDbEntity
  8
ILUSTRACE
100
AcDbSpline
210
0.0
220
0.0
230
1.0
 70
    24
 71
     3
 72
     8
 73
     4
 74
     0
 42
0.0000000001
 43
0.0000000001
 40
0.0
 40
0.0
 40
0.0
 40
0.0
 40
1.0
 40
1.0
 40
1.0
 40
1.0
 10
-12.9234
 20
8.312
 30
0.0
 10
-12.9234
 20
8.312
 30
0.0
 10
-12.9234
 20
9.4659
 30
0.0
 10
-12.9234
 20
9.4659
 30
0.0
  0
SPLINE
  5
61
330
1F
100
AcDbEntity
  8
ILUSTRACE
100
AcDbSpline
210
0.0
220
0.0
230
1.0
 70
     8
 71
     3
 72
    20
 73
    16
 74
     0
 42
0.0000000001
 43
0.0000000001
 40
0.0
 40
0.0
 40
0.0
 40
0.0
 40
0.2
 40
0.2
 40
0.2
 40
0.2
 40
0.4
 40
0.4
 40
0.4
 40
0.4
 40
0.6
 40
0.6
 40
0.6
 40
0.6
 40
1.0
 40
1.0
 40
1.0
 40
1.0
 10
-12.547
 20
13.4794
 30
0.0
 10
-13.6799
 20
13.4794
 30
0.0
 10
-14.8125
 20
13.4794
 30
0.0
 10
-15.9454
 20
13.4794
 30
0.0
 10
-15.9454
 20
13.4794
 30
0.0
 10
-16.3535
 20
13.4806
 30
0.0
 10
-16.7628
 20
13.4794
 30
0.0
 10
-17.171
 20
13.4794
 30
0.0
 10
-17.171
 20
13.4794
 30
0.0
 10
-17.6754
 20
13.1392
 30
0.0
 10
-18.2403
 20
12.7693
 30
0.0
 10
-18.5044
 20
12.1943
 30
0.0
 10
-18.5044
 20
12.1943
 30
0.0
 10
-18.7034
 20
11.7607
 30
0.0
 10
-18.6102
 20
11.105
 30
0.0
 10
-18.6091
 20
10.6983
 30
0.0
  0
SPLINE
  5
62
330
1F
100
AcDbEntity
  8
ILUSTRACE
100
AcDbSpline
210
0.0
220
0.0
230
1.0
 70
     8
 71
     3
 72
    12
 73
     8
 74
     0
 42
0.0000000001
 43
0.0000000001
 40
0.0
 40
0.0
 40
0.0
 40
0.0
 40
0.3333333333333333
 40
0.3333333333333333
 40
0.3333333333333333
 40
0.3333333333333333
 40
1.0
 40
1.0
 40
1.0
 40
1.0
 10
-18.6091
 20
10.6983
 30
0.0
 10
-18.6091
 20
10.6983
 30
0.0
 10
-18.606
 20
9.3153
 30
0.0
 10
-18.606
 20
9.3153
 30
0.0
 10
-18.606
 20
9.3153
 30
0.0
 10
-18.606
 20
9.3153
 30
0.0
 10
-18.6033
 20
8.312
 30
0.0
 10
-18.6033
 20
8.312
 30
0.0
  0
SPLINE
  5
63
330
1F
100
AcDbEntity
  8
ILUSTRACE
100
AcDbSpline
210
0.0
220
0.0
230
1.0
 70
     8
 71
     3
 72
    12
 73
     8
 74
     0
 42
0.0000000001
 43
0.0000000001
 40
0.0
 40
0.0
 40
0.0
 40
0.0
 40
0.3333333333333333
 40
0.3333333333333333
 40
0.3333333333333333
 40
0.3333333333333333
 40
1.0
 40
1.0
 40
1.0
 40
1.0
 10
-13.6259
 20
11.5055
 30
0.0
 10
-13.633
 20
11.8041
 30
0.0
 10
-13.6188
 20
12.0955
 30
0.0
 10
-13.6928
 20
12.3847
 30
0.0
 10
-13.6928
 20
12.3847
 30
0.0
 10
-13.8554
 20
13.0196
 30
0.0
 10
-14.4074
 20
13.4496
 30
0.0
 10
-15.052
 20
13.4794
 30
0.0
  0
SPLINE
  5
64
330
1F
100
AcDbEntity
  8
ILUSTRACE
100
AcDbSpline
210
0.0
220
0.0
230
1.0
 70
     8
 71
     3
 72
    16
 73
    12
 74
     0
 42
0.0000000001
 43
0.0000000001
 40
0.0
 40
0.0
 40
0.0
 40
0.0
 40
0.25
 40
0.25
 40
0.25
 40
0.25
 40
0.5
 40
0.5
 40
0.5
 40
0.5
 40
1.0
 40
1.0
 40
1.0
 40
1.0
 10
-15.6031
 20
10.3609
 30
0.0
 10
-15.3475
 20
10.6634
 30
0.0
 10
-15.0024
 20
10.8749
 30
0.0
 10
-14.6554
 20
11.0574
 30
0.0
 10
-14.6554
 20
11.0574
 30
0.0
 10
-14.2193
 20
11.2871
 30
0.0
 10
-13.7517
 20
11.4773
 30
0.0
 10
-13.2843
 20
11.631
 30
0.0
 10
-13.2843
 20
11.631
 30
0.0
 10
-12.9719
 20
11.7334
 30
0.0
 10
-12.5091
 20
11.9214
 30
0.0
 10
-12.1746
 20
11.9743
 30
0.0
  0
SPLINE
  5
65
330
1F
100
AcDbEntity
  8
ILUSTRACE
100
AcDbSpline
210
0.0
220
0.0
230
1.0
 70
    24
 71
     3
 72
     8
 73
     4
 74
     0
 42
0.0000000001
 43
0.0000000001
 40
0.0
 40
0.0
 40
0.0
 40
0.0
 40
1.0
 40
1.0
 40
1.0
 40
1.0
 10
-12.1746
 20
11.9743
 30
0.0
 10
-12.1746
 20
11.9743
 30
0.0
 10
-11.8269
 20
11.9743
 30
0.0
 10
-11.8269
 20
11.9743
 30
0.0
  0
SPLINE
  5
66
330
1F
100
AcDbEntity
  8
ILUSTRACE
100
AcDbSpline
210
0.0
220
0.0
230
1.0
 70
     8
 71
     3
 72
    20
 73
    16
 74
     0
 42
0.0000000001
 43
0.0000000001
 40
0.0
 40
0.0
 40
0.0
 40
0.0
 40
0.2
 40
0.2
 40
0.2
 40
0.2
 40
0.4
 40
0.4
 40
0.4
 40
0.4
 40
0.6
 40
0.6
 40
0.6
 40
0.6
 40
1.0
 40
1.0
 40
1.0
 40
1.0
 10
-11.97
 20
8.312
 30
0.0
 10
-11.97
 20
8.312
 30
0.0
 10
-11.97
 20
9.3153
 30
0.0
 10
-11.97
 20
9.3153
 30
0.0
 10
-11.97
 20
9.3153
 30
0.0
 10
-11.97
 20
9.3153
 30
0.0
 10
-11.97
 20
9.9675
 30
0.0
 10
-11.97
 20
9.9675
 30
0.0
 10
-11.97
 20
9.9675
 30
0.0
 10
-11.97
 20
9.9675
 30
0.0
 10
-11.97
 20
10.971
 30
0.0
 10
-11.97
 20
10.971
 30
0.0
 10
-11.97
 20
10.971
 30
0.0
 10
-11.97
 20
10.971
 30
0.0
 10
-11.9633
 20
11.1898
 30
0.0
 10
-11.9633
 20
11.1898
 30
0.0
  0
SPLINE
  5
67
330
1F
100
AcDbEntity
  8
ILUSTRACE
100
AcDbSpline
210
0.0
220
0.0
230
1.0
 70
     8
 71
     3
 72
    12
 73
     8
 74
     0
 42
0.0000000001
 43
0.0000000001
 40
0.0
 40
0.0
 40
0.0
 40
0.0
 40
0.3333333333333333
 40
0.3333333333333333
 40
0.3333333333333333
 40
0.3333333333333333
 40
1.0
 40
1.0
 40
1.0
 40
1.0
 10
-11.9633
 20
11.1898
 30
0.0
 10
-11.9112
 20
12.0534
 30
0.0
 10
-11.5208
 20
13.0762
 30
0.0
 10
-10.6386
 20
13.3935
 30
0.0
 10
-10.6386
 20
13.3935
 30
0.0
 10
-10.1979
 20
13.5521
 30
0.0
 10
-9.6121
 20
13.4794
 30
0.0
 10
-9.1907
 20
13.4794
 30
0.0
  0
SPLINE
  5
68
330
1F
100
AcDbEntity
  8
ILUSTRACE
100
AcDbSpline
210
0.0
220
0.0
230
1.0
 70
     8
 71
     3
 72
    16
 73
    12
 74
     0
 42
0.0000000001
 43
0.0000000001
 40
0.0
 40
0.0
 40
0.0
 40
0.0
 40
0.25
 40
0.25
 40
0.25
 40
0.25
 40
0.5
 40
0.5
 40
0.5
 40
0.5
 40
1.0
 40
1.0
 40
1.0
 40
1.0
 10
30.0422
 20
8.312
 30
0.0
 10
30.0422
 20
8.312
 30
0.0
 10
30.0449
 20
9.3153
 30
0.0
 10
30.0449
 20
9.3153
 30
0.0
 10
30.0449
 20
9.3153
 30
0.0
 10
30.0449
 20
9.3153
 30
0.0
 10
30.0479
 20
10.6983
 30
0.0
 10
30.0479
 20
10.6983
 30
0.0
 10
30.0479
 20
10.6983
 30
0.0
 10
30.0479
 20
10.6983
 30
0.0
 10
30.0504
 20
11.7016
 30
0.0
 10
30.0504
 20
11.7016
 30
0.0
  0
SPLINE
  5
69
330
1F
100
AcDbEntity
  8
ILUSTRACE
100
AcDbSpline
210
0.0
220
0.0
230
1.0
 70
     8
 71
     3
 72
     8
 73
     4
 74
     0
 42
0.0000000001
 43
0.0000000001
 40
0.0
 40
0.0
 40
0.0
 40
0.0
 40
1.0
 40
1.0
 40
1.0
 40
1.0
 10
30.0504
 20
11.7016
 30
0.0
 10
30.0474
 20
12.329
 30
0.0
 10
29.5479
 20
12.7869
 30
0.0
 10
29.0924
 20
13.1475
 30
0.0
  0
SPLINE
  5
6A
330
1F
100
AcDbEntity
  8
ILUSTRACE
100
AcDbSpline
210
0.0
220
0.0
230
1.0
 70
     8
 71
     3
 72
    24
 73
    20
 74
     0
 42
0.0000000001
 43
0.0000000001
 40
0.0
 40
0.0
 40
0.0
 40
0.0
 40
0.1666666666666667
 40
0.1666666666666667
 40
0.1666666666666667
 40
0.1666666666666667
 40
0.3333333333333333
 40
0.3333333333333333
 40
0.3333333333333333
 40
0.3333333333333333
 40
0.5
 40
0.5
 40
0.5
 40
0.5
 40
0.6666666666666666
 40
0.6666666666666666
 40
0.6666666666666666
 40
0.6666666666666666
 40
1.0
 40
1.0
 40
1.0
 40
1.0
 10
29.0924
 20
13.1475
 30
0.0
 10
29.0924
 20
13.1475
 30
0.0
 10
28.9965
 20
13.219
 30
0.0
 10
28.9965
 20
13.219
 30
0.0
 10
28.9965
 20
13.219
 30
0.0
 10
28.9965
 20
13.219
 30
0.0
 10
28.6142
 20
13.4794
 30
0.0
 10
28.6142
 20
13.4794
 30
0.0
 10
28.6142
 20
13.4794
 30
0.0
 10
28.6142
 20
13.4794
 30
0.0
 10
27.6109
 20
13.4794
 30
0.0
 10
27.6109
 20
13.4794
 30
0.0
 10
27.6109
 20
13.4794
 30
0.0
 10
27.6109
 20
13.4794
 30
0.0
 10
-9.1443
 20
13.4794
 30
0.0
 10
-9.1443
 20
13.4794
 30
0.0
 10
-9.1443
 20
13.4794
 30
0.0
 10
-9.1443
 20
13.4794
 30
0.0
 10
-10.1476
 20
13.4794
 30
0.0
 10
-10.1476
 20
13.4794
 30
0.0
  0
SPLINE
  5
6B
330
1F
100
AcDbEntity
  8
ILUSTRACE
100
AcDbSpline
210
0.0
220
0.0
230
1.0
 70
     8
 71
     3
 72
     8
 73
     4
 74
     0
 42
0.0000000001
 43
0.0000000001
 40
0.0
 40
0.0
 40
0.0
 40
0.0
 40
1.0
 40
1.0
 40
1.0
 40
1.0
 10
-11.3622
 20
7.7101
 30
0.0
 10
-11.4229
 20
7.9156
 30
0.0
 10
-11.4915
 20
8.112
 30
0.0
 10
-11.57
 20
8.312
 30
0.0
  0
SPLINE
  5
6C
330
1F
100
AcDbEntity
  8
ILUSTRACE
100
AcDbSpline
210
0.0
220
0.0
230
1.0
 70
     8
 71
     3
 72
    12
 73
     8
 74
     0
 42
0.0000000001
 43
0.0000000001
 40
0.0
 40
0.0
 40
0.0
 40
0.0
 40
0.3333333333333333
 40
0.3333333333333333
 40
0.3333333333333333
 40
0.3333333333333333
 40
1.0
 40
1.0
 40
1.0
 40
1.0
 10
-17.198
 20
11.7304
 30
0.0
 10
-17.0853
 20
11.2306
 30
0.0
 10
-16.6029
 20
10.8561
 30
0.0
 10
-16.1714
 20
10.6337
 30
0.0
 10
-16.1714
 20
10.6337
 30
0.0
 10
-14.9587
 20
10.0082
 30
0.0
 10
-13.6345
 20
9.7203
 30
0.0
 10
-12.3031
 20
9.4659
 30
0.0
  0
SPLINE
  5
6D
330
1F
100
AcDbEntity
  8
ILUSTRACE
100
AcDbSpline
210
0.0
220
0.0
230
1.0
 70
     8
 71
     3
 72
     8
 73
     4
 74
     0
 42
0.0000000001
 43
0.0000000001
 40
0.0
 40
0.0
 40
0.0
 40
0.0
 40
1.0
 40
1.0
 40
1.0
 40
1.0
 10
-12.5728
 20
7.7101
 30
0.0
 10
-12.6845
 20
7.908
 30
0.0
 10
-12.7871
 20
8.1062
 30
0.0
 10
-12.885
 20
8.312
 30
0.0
  0
SPLINE
  5
6E
330
1F
100
AcDbEntity
  8
ILUSTRACE
100
AcDbSpline
210
0.0
220
0.0
230
1.0
 70
     8
 71
     3
 72
    16
 73
    12
 74
     0
 42
0.0000000001
 43
0.0000000001
 40
0.0
 40
0.0
 40
0.0
 40
0.0
 40
0.25
 40
0.25
 40
0.25
 40
0.25
 40
0.5
 40
0.5
 40
0.5
 40
0.5
 40
1.0
 40
1.0
 40
1.0
 40
1.0
 10
-14.9573
 20
9.4659
 30
0.0
 10
-14.9573
 20
9.4659
 30
0.0
 10
-15.5672
 20
9.6258
 30
0.0
 10
-15.5672
 20
9.6258
 30
0.0
 10
-15.5672
 20
9.6258
 30
0.0
 10
-15.5672
 20
9.6258
 30
0.0
 10
-16.1257
 20
9.7955
 30
0.0
 10
-16.1257
 20
9.7955
 30
0.0
 10
-16.1257
 20
9.7955
 30
0.0
 10
-16.1257
 20
9.7955
 30
0.0
 10
-16.6312
 20
9.9751
 30
0.0
 10
-16.6312
 20
9.9751
 30
0.0
  0
SPLINE
  5
6F
330
1F
100
AcDbEntity
  8
ILUSTRACE
100
AcDbSpline
210
0.0
220
0.0
230
1.0
 70
     8
 71
     3
 72
     8
 73
     4
 74
     0
 42
0.0000000001
 43
0.0000000001
 40
0.0
 40
0.0
 40
0.0
 40
0.0
 40
1.0
 40
1.0
 40
1.0
 40
1.0
 10
-16.6312
 20
9.9751
 30
0.0
 10
-17.4487
 20
10.29
 30
0.0
 10
-18.4575
 20
10.7438
 30
0.0
 10
-18.6116
 20
11.7016
 30
0.0
  0
SPLINE
  5
70
330
1F
100
AcDbEntity
  8
ILUSTRACE
100
AcDbSpline
210
0.0
220
0.0
230
1.0
 70
     8
 71
     3
 72
    12
 73
     8
 74
     0
 42
0.0000000001
 43
0.0000000001
 40
0.0
 40
0.0
 40
0.0
 40
0.0
 40
0.3333333333333333
 40
0.3333333333333333
 40
0.3333333333333333
 40
0.3333333333333333
 40
1.0
 40
1.0
 40
1.0
 40
1.0
 10
-17.198
 20
11.7304
 30
0.0
 10
-17.2186
 20
11.9972
 30
0.0
 10
-17.2308
 20
11.9564
 30
0.0
 10
-17.1712
 20
12.2125
 30
0.0
 10
-17.1712
 20
12.2125
 30
0.0
 10
-17.0405
 20
12.7715
 30
0.0
 10
-16.4284
 20
13.1714
 30
0.0
 10
-15.9997
 20
13.4794
 30
0.0
  0
SPLINE
  5
71
330
1F
100
AcDbEntity
  8
ILUSTRACE
100
AcDbSpline
210
0.0
220
0.0
230
1.0
 70
    24
 71
     3
 72
     8
 73
     4
 74
     0
 42
0.0000000001
 43
0.0000000001
 40
0.0
 40
0.0
 40
0.0
 40
0.0
 40
1.0
 40
1.0
 40
1.0
 40
1.0
 10
29.026
 20
4.6722
 30
0.0
 10
29.026
 20
4.6722
 30
0.0
 10
29.026
 20
3.1949
 30
0.0
 10
29.026
 20
3.1949
 30
0.0
  0
SPLINE
  5
72
330
1F
100
AcDbEntity
  8
ILUSTRACE
100
AcDbSpline
210
0.0
220
0.0
230
1.0
 70
    24
 71
     3
 72
     8
 73
     4
 74
     0
 42
0.0000000001
 43
0.0000000001
 40
0.0
 40
0.0
 40
0.0
 40
0.0
 40
1.0
 40
1.0
 40
1.0
 40
1.0
 10
-17.6088
 20
4.7
 30
0.0
 10
-17.6088
 20
4.7
 30
0.0
 10
29.0476
 20
4.7
 30
0.0
 10
29.0476
 20
4.7
 30
0.0
  0
SPLINE
  5
73
330
1F
100
AcDbEntity
  8
ILUSTRACE
100
AcDbSpline
210
0.0
220
0.0
230
1.0
 70
    24
 71
     3
 72
     8
 73
     4
 74
     0
 42
0.0000000001
 43
0.0000000001
 40
0.0
 40
0.0
 40
0.0
 40
0.0
 40
1.0
 40
1.0
 40
1.0
 40
1.0
 10
-17.6088
 20
3.195
 30
0.0
 10
-17.6088
 20
3.195
 30
0.0
 10
-17.6088
 20
4.7
 30
0.0
 10
-17.6088
 20
4.7
 30
0.0
  0
SPLINE
  5
74
330
1F
100
AcDbEntity
  8
ILUSTRACE
100
AcDbSpline
210
0.0
220
0.0
230
1.0
 70
    24
 71
     3
 72
     8
 73
     4
 74
     0
 42
0.0000000001
 43
0.0000000001
 40
0.0
 40
0.0
 40
0.0
 40
0.0
 40
1.0
 40
1.0
 40
1.0
 40
1.0
 10
28.8664
 20
3.195
 30
0.0
 10
28.8664
 20
3.195
 30
0.0
 10
-17.609
 20
3.195
 30
0.0
 10
-17.609
 20
3.195
 30
0.0
  0
SPLINE
  5
75
330
1F
100
AcDbEntity
  8
ILUSTRACE
100
AcDbSpline
210
0.0
220
0.0
230
1.0
 70
    24
 71
     3
 72
     8
 73
     4
 74
     0
 42
0.0000000001
 43
0.0000000001
 40
0.0
 40
0.0
 40
0.0
 40
0.0
 40
1.0
 40
1.0
 40
1.0
 40
1.0
 10
29.0476
 20
6.7064
 30
0.0
 10
29.0476
 20
6.7064
 30
0.0
 10
-16.7055
 20
6.7064
 30
0.0
 10
-16.7055
 20
6.7064
 30
0.0
  0
SPLINE
  5
76
330
1F
100
AcDbEntity
  8
ILUSTRACE
100
AcDbSpline
210
0.0
220
0.0
230
1.0
 70
    24
 71
     3
 72
     8
 73
     4
 74
     0
 42
0.0000000001
 43
0.0000000001
 40
0.0
 40
0.0
 40
0.0
 40
0.0
 40
1.0
 40
1.0
 40
1.0
 40
1.0
 10
-17.6088
 20
6.7064
 30
0.0
 10
-17.6088
 20
6.7064
 30
0.0
 10
28.1445
 20
6.7064
 30
0.0
 10
28.1445
 20
6.7064
 30
0.0
  0
SPLINE
  5
77
330
1F
100
AcDbEntity
  8
ILUSTRACE
100
AcDbSpline
210
0.0
220
0.0
230
1.0
 70
    24
 71
     3
 72
     8
 73
     4
 74
     0
 42
0.0000000001
 43
0.0000000001
 40
0.0
 40
0.0
 40
0.0
 40
0.0
 40
1.0
 40
1.0
 40
1.0
 40
1.0
 10
-17.6088
 20
7.7101
 30
0.0
 10
-17.6088
 20
7.7101
 30
0.0
 10
-17.6088
 20
6.7064
 30
0.0
 10
-17.6088
 20
6.7064
 30
0.0
  0
SPLINE
  5
78
330
1F
100
AcDbEntity
  8
ILUSTRACE
100
AcDbSpline
210
0.0
220
0.0
230
1.0
 70
    24
 71
     3
 72
     8
 73
     4
 74
     0
 42
0.0000000001
 43
0.0000000001
 40
0.0
 40
0.0
 40
0.0
 40
0.0
 40
1.0
 40
1.0
 40
1.0
 40
1.0
 10
29.0476
 20
7.7101
 30
0.0
 10
29.0476
 20
7.7101
 30
0.0
 10
29.0476
 20
6.7064
 30
0.0
 10
29.0476
 20
6.7064
 30
0.0
  0
SPLINE
  5
79
330
1F
100
AcDbEntity
  8
ILUSTRACE
100
AcDbSpline
210
0.0
220
0.0
230
1.0
 70
    24
 71
     3
 72
     8
 73
     4
 74
     0
 42
0.0000000001
 43
0.0000000001
 40
0.0
 40
0.0
 40
0.0
 40
0.0
 40
1.0
 40
1.0
 40
1.0
 40
1.0
 10
-11.3622
 20
7.7101
 30
0.0
 10
-11.3622
 20
7.7101
 30
0.0
 10
-12.788
 20
7.7101
 30
0.0
 10
-12.788
 20
7.7101
 30
0.0
  0
SPLINE
  5
7A
330
1F
100
AcDbEntity
  8
ILUSTRACE
100
AcDbSpline
210
0.0
220
0.0
230
1.0
 70
     8
 71
     3
 72
    12
 73
     8
 74
     0
 42
0.0000000001
 43
0.0000000001
 40
0.0
 40
0.0
 40
0.0
 40
0.0
 40
0.3333333333333333
 40
0.3333333333333333
 40
0.3333333333333333
 40
0.3333333333333333
 40
1.0
 40
1.0
 40
1.0
 40
1.0
 10
0.5182
 20
-3.5406
 30
0.0
 10
0.5182
 20
-3.5406
 30
0.0
 10
-0.4844
 20
-3.5057
 30
0.0
 10
-0.4844
 20
-3.5057
 30
0.0
 10
-0.4844
 20
-3.5057
 30
0.0
 10
-0.4844
 20
-3.5057
 30
0.0
 10
-1.9479
 20
-3.4546
 30
0.0
 10
-1.9479
 20
-3.4546
 30
0.0
  0
SPLINE
  5
7B
330
1F
100
AcDbEntity
  8
ILUSTRACE
100
AcDbSpline
210
0.0
220
0.0
230
1.0
 70
     8
 71
     3
 72
    16
 73
    12
 74
     0
 42
0.0000000001
 43
0.0000000001
 40
0.0
 40
0.0
 40
0.0
 40
0.0
 40
0.25
 40
0.25
 40
0.25
 40
0.25
 40
0.5
 40
0.5
 40
0.5
 40
0.5
 40
1.0
 40
1.0
 40
1.0
 40
1.0
 10
-1.9479
 20
-3.4546
 30
0.0
 10
-2.3581
 20
-3.4402
 30
0.0
 10
-2.9197
 20
-3.4742
 30
0.0
 10
-3.3637
 20
-3.3618
 30
0.0
 10
-3.3637
 20
-3.3618
 30
0.0
 10
-4.1826
 20
-3.1542
 30
0.0
 10
-4.8038
 20
-2.4405
 30
0.0
 10
-4.8789
 20
-1.595
 30
0.0
 10
-4.8789
 20
-1.595
 30
0.0
 10
-4.9222
 20
-1.1044
 30
0.0
 10
-4.8869
 20
-0.5928
 30
0.0
 10
-4.8869
 20
-0.1006
 30
0.0
  0
SPLINE
  5
7C
330
1F
100
AcDbEntity
  8
ILUSTRACE
100
AcDbSpline
210
0.0
220
0.0
230
1.0
 70
     8
 71
     3
 72
     8
 73
     4
 74
     0
 42
0.0000000001
 43
0.0000000001
 40
0.0
 40
0.0
 40
0.0
 40
0.0
 40
1.0
 40
1.0
 40
1.0
 40
1.0
 10
-15.7741
 20
3.195
 30
0.0
 10
-15.7615
 20
2.4794
 30
0.0
 10
-14.8113
 20
2.4656
 30
0.0
 10
-14.3325
 20
2.3513
 30
0.0
  0
SPLINE
  5
7D
330
1F
100
AcDbEntity
  8
ILUSTRACE
100
AcDbSpline
210
0.0
220
0.0
230
1.0
 70
     8
 71
     3
 72
    12
 73
     8
 74
     0
 42
0.0000000001
 43
0.0000000001
 40
0.0
 40
0.0
 40
0.0
 40
0.0
 40
0.3333333333333333
 40
0.3333333333333333
 40
0.3333333333333333
 40
0.3333333333333333
 40
1.0
 40
1.0
 40
1.0
 40
1.0
 10
-14.3325
 20
2.3513
 30
0.0
 10
-14.3325
 20
2.3513
 30
0.0
 10
-2.5889
 20
-0.452
 30
0.0
 10
-2.5889
 20
-0.452
 30
0.0
 10
-2.5889
 20
-0.452
 30
0.0
 10
-2.5889
 20
-0.452
 30
0.0
 10
-1.6858
 20
-0.6675
 30
0.0
 10
-1.6858
 20
-0.6675
 30
0.0
  0
SPLINE
  5
7E
330
1F
100
AcDbEntity
  8
ILUSTRACE
100
AcDbSpline
210
0.0
220
0.0
230
1.0
 70
     8
 71
     3
 72
    12
 73
     8
 74
     0
 42
0.0000000001
 43
0.0000000001
 40
0.0
 40
0.0
 40
0.0
 40
0.0
 40
0.3333333333333333
 40
0.3333333333333333
 40
0.3333333333333333
 40
0.3333333333333333
 40
1.0
 40
1.0
 40
1.0
 40
1.0
 10
-1.6831
 20
-0.6684
 30
0.0
 10
-1.3932
 20
-0.7638
 30
0.0
 10
-1.2975
 20
-0.7732
 30
0.0
 10
-1.0194
 20
-1.019
 30
0.0
 10
-1.0194
 20
-1.019
 30
0.0
 10
-0.7303
 20
-1.2751
 30
0.0
 10
-0.3495
 20
-2.0371
 30
0.0
 10
-0.2278
 20
-2.2484
 30
0.0
  0
SPLINE
  5
7F
330
1F
100
AcDbEntity
  8
ILUSTRACE
100
AcDbSpline
210
0.0
220
0.0
230
1.0
 70
    24
 71
     3
 72
     8
 73
     4
 74
     0
 42
0.0000000001
 43
0.0000000001
 40
0.0
 40
0.0
 40
0.0
 40
0.0
 40
1.0
 40
1.0
 40
1.0
 40
1.0
 10
-0.2278
 20
-2.2484
 30
0.0
 10
-0.2278
 20
-2.2484
 30
0.0
 10
8.2207
 20
-16.8815
 30
0.0
 10
8.2207
 20
-16.8815
 30
0.0
  0
SPLINE
  5
80
330
1F
100
AcDbEntity
  8
ILUSTRACE
100
AcDbSpline
210
0.0
220
0.0
230
1.0
 70
     8
 71
     3
 72
     8
 73
     4
 74
     0
 42
0.0000000001
 43
0.0000000001
 40
0.0
 40
0.0
 40
0.0
 40
0.0
 40
1.0
 40
1.0
 40
1.0
 40
1.0
 10
8.2207
 20
-16.8815
 30
0.0
 10
8.6729
 20
-17.6652
 30
0.0
 10
9.0876
 20
-18.4851
 30
0.0
 10
9.846
 20
-19.0212
 30
0.0
  0
SPLINE
  5
81
330
1F
100
AcDbEntity
  8
ILUSTRACE
100
AcDbSpline
210
0.0
220
0.0
230
1.0
 70
     8
 71
     3
 72
    12
 73
     8
 74
     0
 42
0.0000000001
 43
0.0000000001
 40
0.0
 40
0.0
 40
0.0
 40
0.0
 40
0.3333333333333333
 40
0.3333333333333333
 40
0.3333333333333333
 40
0.3333333333333333
 40
1.0
 40
1.0
 40
1.0
 40
1.0
 10
9.8192
 20
-19.0013
 30
0.0
 10
10.4902
 20
-19.5049
 30
0.0
 10
11.2517
 20
-19.7788
 30
0.0
 10
12.0814
 20
-19.8695
 30
0.0
 10
12.0814
 20
-19.8695
 30
0.0
 10
12.6293
 20
-19.9295
 30
0.0
 10
13.1976
 20
-19.8824
 30
0.0
 10
13.7463
 20
-19.8824
 30
0.0
  0
SPLINE
  5
82
330
1F
100
AcDbEntity
  8
ILUSTRACE
100
AcDbSpline
210
0.0
220
0.0
230
1.0
 70
    24
 71
     3
 72
    12
 73
     8
 74
     0
 42
0.0000000001
 43
0.0000000001
 40
0.0
 40
0.0
 40
0.0
 40
0.0
 40
0.3333333333333333
 40
0.3333333333333333
 40
0.3333333333333333
 40
0.3333333333333333
 40
1.0
 40
1.0
 40
1.0
 40
1.0
 10
12.4233
 20
-19.8824
 30
0.0
 10
12.4233
 20
-19.8824
 30
0.0
 10
13.427
 20
-19.8824
 30
0.0
 10
13.427
 20
-19.8824
 30
0.0
 10
13.427
 20
-19.8824
 30
0.0
 10
13.427
 20
-19.8824
 30
0.0
 10
20.8546
 20
-19.8824
 30
0.0
 10
20.8546
 20
-19.8824
 30
0.0
  0
SPLINE
  5
83
330
1F
100
AcDbEntity
  8
ILUSTRACE
100
AcDbSpline
210
0.0
220
0.0
230
1.0
 70
     8
 71
     3
 72
     8
 73
     4
 74
     0
 42
0.0000000001
 43
0.0000000001
 40
0.0
 40
0.0
 40
0.0
 40
0.0
 40
1.0
 40
1.0
 40
1.0
 40
1.0
 10
20.8546
 20
-19.8824
 30
0.0
 10
21.9816
 20
-19.8824
 30
0.0
 10
23.1056
 20
-19.9082
 30
0.0
 10
24.1657
 20
-19.4691
 30
0.0
  0
SPLINE
  5
84
330
1F
100
AcDbEntity
  8
ILUSTRACE
100
AcDbSpline
210
0.0
220
0.0
230
1.0
 70
     8
 71
     3
 72
     8
 73
     4
 74
     0
 42
0.0000000001
 43
0.0000000001
 40
0.0
 40
0.0
 40
0.0
 40
0.0
 40
1.0
 40
1.0
 40
1.0
 40
1.0
 10
24.1597
 20
-19.4721
 30
0.0
 10
24.6443
 20
-19.2569
 30
0.0
 10
25.0935
 20
-19.01
 30
0.0
 10
25.4947
 20
-18.6598
 30
0.0
  0
SPLINE
  5
85
330
1F
100
AcDbEntity
  8
ILUSTRACE
100
AcDbSpline
210
0.0
220
0.0
230
1.0
 70
     8
 71
     3
 72
    16
 73
    12
 74
     0
 42
0.0000000001
 43
0.0000000001
 40
0.0
 40
0.0
 40
0.0
 40
0.0
 40
0.25
 40
0.25
 40
0.25
 40
0.25
 40
0.5
 40
0.5
 40
0.5
 40
0.5
 40
1.0
 40
1.0
 40
1.0
 40
1.0
 10
25.8849
 20
-18.2663
 30
0.0
 10
26.1878
 20
-17.8952
 30
0.0
 10
26.4545
 20
-17.4919
 30
0.0
 10
26.6141
 20
-17.0367
 30
0.0
 10
26.6141
 20
-17.0367
 30
0.0
 10
26.8659
 20
-16.3173
 30
0.0
 10
26.8727
 20
-15.6532
 30
0.0
 10
26.892
 20
-14.8899
 30
0.0
 10
26.892
 20
-14.8899
 30
0.0
 10
26.903
 20
-14.4462
 30
0.0
 10
26.9127
 20
-14.0041
 30
0.0
 10
26.9205
 20
-13.5592
 30
0.0
  0
SPLINE
  5
86
330
1F
100
AcDbEntity
  8
ILUSTRACE
100
AcDbSpline
210
0.0
220
0.0
230
1.0
 70
     8
 71
     3
 72
    12
 73
     8
 74
     0
 42
0.0000000001
 43
0.0000000001
 40
0.0
 40
0.0
 40
0.0
 40
0.0
 40
0.3333333333333333
 40
0.3333333333333333
 40
0.3333333333333333
 40
0.3333333333333333
 40
1.0
 40
1.0
 40
1.0
 40
1.0
 10
26.9205
 20
-13.5592
 30
0.0
 10
26.9205
 20
-13.5592
 30
0.0
 10
27.1953
 20
2.1917
 30
0.0
 10
27.1953
 20
2.1917
 30
0.0
 10
27.1953
 20
2.1917
 30
0.0
 10
27.1953
 20
2.1917
 30
0.0
 10
27.213
 20
3.195
 30
0.0
 10
27.213
 20
3.195
 30
0.0
  0
SPLINE
  5
87
330
1F
100
AcDbEntity
  8
ILUSTRACE
100
AcDbSpline
210
0.0
220
0.0
230
1.0
 70
     8
 71
     3
 72
     8
 73
     4
 74
     0
 42
0.0000000001
 43
0.0000000001
 40
0.0
 40
0.0
 40
0.0
 40
0.0
 40
1.0
 40
1.0
 40
1.0
 40
1.0
 10
25.4552
 20
-18.6947
 30
0.0
 10
25.6582
 20
-18.518
 30
0.0
 10
25.8401
 20
-18.3249
 30
0.0
 10
26.0083
 20
-18.1152
 30
0.0
  0
SPLINE
  5
88
330
1F
100
AcDbEntity
  8
ILUSTRACE
100
AcDbSpline
210
0.0
220
0.0
230
1.0
 70
    24
 71
     3
 72
    12
 73
     8
 74
     0
 42
0.0000000001
 43
0.0000000001
 40
0.0
 40
0.0
 40
0.0
 40
0.0
 40
0.3333333333333333
 40
0.3333333333333333
 40
0.3333333333333333
 40
0.3333333333333333
 40
1.0
 40
1.0
 40
1.0
 40
1.0
 10
-8.0459
 20
-15.3672
 30
0.0
 10
-8.0459
 20
-15.3672
 30
0.0
 10
-6.4658
 20
-15.3672
 30
0.0
 10
-6.4658
 20
-15.3672
 30
0.0
 10
-6.4658
 20
-15.3672
 30
0.0
 10
-6.4658
 20
-15.3672
 30
0.0
 10
7.3148
 20
-15.3672
 30
0.0
 10
7.3148
 20
-15.3672
 30
0.0
  0
SPLINE
  5
89
330
1F
100
AcDbEntity
  8
ILUSTRACE
100
AcDbSpline
210
0.0
220
0.0
230
1.0
 70
     8
 71
     3
 72
    16
 73
    12
 74
     0
 42
0.0000000001
 43
0.0000000001
 40
0.0
 40
0.0
 40
0.0
 40
0.0
 40
0.25
 40
0.25
 40
0.25
 40
0.25
 40
0.5
 40
0.5
 40
0.5
 40
0.5
 40
1.0
 40
1.0
 40
1.0
 40
1.0
 10
-8.0458
 20
-15.3672
 30
0.0
 10
-8.0458
 20
-15.3672
 30
0.0
 10
-8.0458
 20
-14.8655
 30
0.0
 10
-8.0458
 20
-14.8655
 30
0.0
 10
-8.0458
 20
-14.8655
 30
0.0
 10
-8.0458
 20
-14.8655
 30
0.0
 10
-7.8973
 20
-14.5508
 30
0.0
 10
-7.8973
 20
-14.5508
 30
0.0
 10
-7.8973
 20
-14.5508
 30
0.0
 10
-7.8973
 20
-14.5508
 30
0.0
 10
-7.4513
 20
-13.591
 30
0.0
 10
-7.4513
 20
-13.591
 30
0.0
  0
SPLINE
  5
8A
330
1F
100
AcDbEntity
  8
ILUSTRACE
100
AcDbSpline
210
0.0
220
0.0
230
1.0
 70
     8
 71
     3
 72
     8
 73
     4
 74
     0
 42
0.0000000001
 43
0.0000000001
 40
0.0
 40
0.0
 40
0.0
 40
0.0
 40
1.0
 40
1.0
 40
1.0
 40
1.0
 10
-7.4513
 20
-13.591
 30
0.0
 10
-7.0085
 20
-12.6415
 30
0.0
 10
-6.5708
 20
-11.6893
 30
0.0
 10
-6.123
 20
-10.7423
 30
0.0
  0
SPLINE
  5
8B
330
1F
100
AcDbEntity
  8
ILUSTRACE
100
AcDbSpline
210
0.0
220
0.0
230
1.0
 70
     8
 71
     3
 72
     8
 73
     4
 74
     0
 42
0.0000000001
 43
0.0000000001
 40
0.0
 40
0.0
 40
0.0
 40
0.0
 40
1.0
 40
1.0
 40
1.0
 40
1.0
 10
-6.4255
 20
-11.3933
 30
0.0
 10
-5.2031
 20
-8.7313
 30
0.0
 10
-3.9499
 20
-6.0826
 30
0.0
 10
-2.7121
 20
-3.4278
 30
0.0
  0
SPLINE
  5
8C
330
1F
100
AcDbEntity
  8
ILUSTRACE
100
AcDbSpline
210
0.0
220
0.0
230
1.0
 70
    24
 71
     3
 72
     8
 73
     4
 74
     0
 42
0.0000000001
 43
0.0000000001
 40
0.0
 40
0.0
 40
0.0
 40
0.0
 40
1.0
 40
1.0
 40
1.0
 40
1.0
 10
0.5182
 20
-3.5406
 30
0.0
 10
0.5182
 20
-3.5406
 30
0.0
 10
0.4
 20
-3.336
 30
0.0
 10
0.4
 20
-3.336
 30
0.0
  0
SPLINE
  5
8D
330
1F
100
AcDbEntity
  8
ILUSTRACE
100
AcDbSpline
210
0.0
220
0.0
230
1.0
 70
    11
 71
     3
 72
    28
 73
    24
 74
     0
 42
0.0000000001
 43
0.0000000001
 40
0.0
 40
0.0
 40
0.0
 40
0.0
 40
0.1428571428571428
 40
0.1428571428571428
 40
0.1428571428571428
 40
0.1428571428571428
 40
0.2857142857142857
 40
0.2857142857142857
 40
0.2857142857142857
 40
0.2857142857142857
 40
0.4285714285714285
 40
0.4285714285714285
 40
0.4285714285714285
 40
0.4285714285714285
 40
0.5714285714285714
 40
0.5714285714285714
 40
0.5714285714285714
 40
0.5714285714285714
 40
0.7142857142857143
 40
0.7142857142857143
 40
0.7142857142857143
 40
0.7142857142857143
 40
1.0
 40
1.0
 40
1.0
 40
1.0
 10
-3.4441
 20
-0.8165
 30
0.0
 10
-3.3439
 20
-0.7323
 30
0.0
 10
-3.242
 20
-0.6647
 30
0.0
 10
-3.1156
 20
-0.6264
 30
0.0
 10
-3.1156
 20
-0.6264
 30
0.0
 10
-3.0238
 20
-0.5992
 30
0.0
 10
-2.9273
 20
-0.5877
 30
0.0
 10
-2.8316
 20
-0.5935
 30
0.0
 10
-2.8316
 20
-0.5935
 30
0.0
 10
-2.0824
 20
-0.6371
 30
0.0
 10
-1.7868
 20
-1.6247
 30
0.0
 10
-2.3886
 20
-2.0732
 30
0.0
 10
-2.3886
 20
-2.0732
 30
0.0
 10
-2.5215
 20
-2.1723
 30
0.0
 10
-2.6691
 20
-2.2157
 30
0.0
 10
-2.8316
 20
-2.2348
 30
0.0
 10
-2.8316
 20
-2.2348
 30
0.0
 10
-3.4032
 20
-2.2348
 30
0.0
 10
-3.8602
 20
-1.7051
 30
0.0
 10
-3.6521
 20
-1.1331
 30
0.0
 10
-3.6521
 20
-1.1331
 30
0.0
 10
-3.6071
 20
-1.0089
 30
0.0
 10
-3.5337
 20
-0.9114
 30
0.0
 10
-3.4441
 20
-0.8165
 30
0.0
  0
SPLINE
  5
8E
330
1F
100
AcDbEntity
  8
ILUSTRACE
100
AcDbSpline
210
0.0
220
0.0
230
1.0
 70
     8
 71
     3
 72
     8
 73
     4
 74
     0
 42
0.0000000001
 43
0.0000000001
 40
0.0
 40
0.0
 40
0.0
 40
0.0
 40
1.0
 40
1.0
 40
1.0
 40
1.0
 10
23.8854
 20
-19.5387
 30
0.0
 10
23.4552
 20
-19.6913
 30
0.0
 10
23.0297
 20
-19.785
 30
0.0
 10
22.5772
 20
-19.844
 30
0.0
  0
SPLINE
  5
8F
330
1F
100
AcDbEntity
  8
ILUSTRACE
100
AcDbSpline
210
0.0
220
0.0
230
1.0
 70
     8
 71
     3
 72
     8
 73
     4
 74
     0
 42
0.0000000001
 43
0.0000000001
 40
0.0
 40
0.0
 40
0.0
 40
0.0
 40
1.0
 40
1.0
 40
1.0
 40
1.0
 10
23.63
 20
-19.6511
 30
0.0
 10
23.8096
 20
-19.5999
 30
0.0
 10
23.9854
 20
-19.5385
 30
0.0
 10
24.1597
 20
-19.4721
 30
0.0
  0
SPLINE
  5
90
330
1F
100
AcDbEntity
  8
ILUSTRACE
100
AcDbSpline
210
0.0
220
0.0
230
1.0
 70
     8
 71
     3
 72
     8
 73
     4
 74
     0
 42
0.0000000001
 43
0.0000000001
 40
0.0
 40
0.0
 40
0.0
 40
0.0
 40
1.0
 40
1.0
 40
1.0
 40
1.0
 10
26.8323
 20
-15.6925
 30
0.0
 10
26.8863
 20
-14.1784
 30
0.0
 10
26.9259
 20
-12.6637
 30
0.0
 10
26.9612
 20
-11.1488
 30
0.0
  0
SPLINE
  5
91
330
1F
100
AcDbEntity
  8
ILUSTRACE
100
AcDbSpline
210
0.0
220
0.0
230
1.0
 70
     8
 71
     3
 72
     8
 73
     4
 74
     0
 42
0.0000000001
 43
0.0000000001
 40
0.0
 40
0.0
 40
0.0
 40
0.0
 40
1.0
 40
1.0
 40
1.0
 40
1.0
 10
25.8849
 20
-18.2663
 30
0.0
 10
25.7623
 20
-18.406
 30
0.0
 10
25.6309
 20
-18.5327
 30
0.0
 10
25.4947
 20
-18.6598
 30
0.0
  0
SPLINE
  5
92
330
1F
100
AcDbEntity
  8
ILUSTRACE
100
AcDbSpline
210
0.0
220
0.0
230
1.0
 70
     8
 71
     3
 72
    12
 73
     8
 74
     0
 42
0.0000000001
 43
0.0000000001
 40
0.0
 40
0.0
 40
0.0
 40
0.0
 40
0.3333333333333333
 40
0.3333333333333333
 40
0.3333333333333333
 40
0.3333333333333333
 40
1.0
 40
1.0
 40
1.0
 40
1.0
 10
14.2243
 20
13.4794
 30
0.0
 10
13.6119
 20
15.4731
 30
0.0
 10
11.9738
 20
17.0404
 30
0.0
 10
9.9523
 20
17.5572
 30
0.0
 10
9.9523
 20
17.5572
 30
0.0
 10
9.1301
 20
17.7674
 30
0.0
 10
8.325
 20
17.7436
 30
0.0
 10
7.479
 20
17.7436
 30
0.0
  0
SPLINE
  5
93
330
1F
100
AcDbEntity
  8
ILUSTRACE
100
AcDbSpline
210
0.0
220
0.0
230
1.0
 70
    24
 71
     3
 72
    12
 73
     8
 74
     0
 42
0.0000000001
 43
0.0000000001
 40
0.0
 40
0.0
 40
0.0
 40
0.0
 40
0.3333333333333333
 40
0.3333333333333333
 40
0.3333333333333333
 40
0.3333333333333333
 40
1.0
 40
1.0
 40
1.0
 40
1.0
 10
7.479
 20
17.7436
 30
0.0
 10
7.479
 20
17.7436
 30
0.0
 10
-7.5283
 20
17.7436
 30
0.0
 10
-7.5283
 20
17.7436
 30
0.0
 10
-7.5283
 20
17.7436
 30
0.0
 10
-7.5283
 20
17.7436
 30
0.0
 10
-8.5316
 20
17.7436
 30
0.0
 10
-8.5316
 20
17.7436
 30
0.0
  0
SPLINE
  5
94
330
1F
100
AcDbEntity
  8
ILUSTRACE
100
AcDbSpline
210
0.0
220
0.0
230
1.0
 70
     8
 71
     3
 72
    16
 73
    12
 74
     0
 42
0.0000000001
 43
0.0000000001
 40
0.0
 40
0.0
 40
0.0
 40
0.0
 40
0.25
 40
0.25
 40
0.25
 40
0.25
 40
0.5
 40
0.5
 40
0.5
 40
0.5
 40
1.0
 40
1.0
 40
1.0
 40
1.0
 10
-8.5316
 20
17.7436
 30
0.0
 10
-9.1172
 20
17.6875
 30
0.0
 10
-9.3245
 20
17.7121
 30
0.0
 10
-9.8795
 20
17.4765
 30
0.0
 10
-9.8795
 20
17.4765
 30
0.0
 10
-10.5735
 20
17.1816
 30
0.0
 10
-11.1543
 20
16.6865
 30
0.0
 10
-11.5456
 20
16.041
 30
0.0
 10
-11.5456
 20
16.041
 30
0.0
 10
-11.8031
 20
15.6168
 30
0.0
 10
-12.0224
 20
14.9204
 30
0.0
 10
-12.1792
 20
14.4899
 30
0.0
  0
SPLINE
  5
95
330
1F
100
AcDbEntity
  8
ILUSTRACE
100
AcDbSpline
210
0.0
220
0.0
230
1.0
 70
     8
 71
     3
 72
    12
 73
     8
 74
     0
 42
0.0000000001
 43
0.0000000001
 40
0.0
 40
0.0
 40
0.0
 40
0.0
 40
0.3333333333333333
 40
0.3333333333333333
 40
0.3333333333333333
 40
0.3333333333333333
 40
1.0
 40
1.0
 40
1.0
 40
1.0
 10
-12.1792
 20
14.4899
 30
0.0
 10
-12.1792
 20
14.4899
 30
0.0
 10
-12.8678
 20
12.5975
 30
0.0
 10
-12.8678
 20
12.5975
 30
0.0
 10
-12.8678
 20
12.5975
 30
0.0
 10
-12.8678
 20
12.5975
 30
0.0
 10
-13.2112
 20
11.6547
 30
0.0
 10
-13.2112
 20
11.6547
 30
0.0
  0
SPLINE
  5
96
330
1F
100
AcDbEntity
  8
ILUSTRACE
 62
   250
100
AcDbSpline
210
0.0
220
0.0
230
1.0
 70
    11
 71
     3
 72
    92
 73
    88
 74
     0
 42
0.0000000001
 43
0.0000000001
 40
0.0
 40
0.0
 40
0.0
 40
0.0
 40
0.0434782608695652
 40
0.0434782608695652
 40
0.0434782608695652
 40
0.0434782608695652
 40
0.0869565217391304
 40
0.0869565217391304
 40
0.0869565217391304
 40
0.0869565217391304
 40
0.1304347826086956
 40
0.1304347826086956
 40
0.1304347826086956
 40
0.1304347826086956
 40
0.1739130434782609
 40
0.1739130434782609
 40
0.1739130434782609
 40
0.1739130434782609
 40
0.2173913043478261
 40
0.2173913043478261
 40
0.2173913043478261
 40
0.2173913043478261
 40
0.2608695652173913
 40
0.2608695652173913
 40
0.2608695652173913
 40
0.2608695652173913
 40
0.3043478260869565
 40
0.3043478260869565
 40
0.3043478260869565
 40
0.3043478260869565
 40
0.3478260869565217
 40
0.3478260869565217
 40
0.3478260869565217
 40
0.3478260869565217
 40
0.391304347826087
 40
0.391304347826087
 40
0.391304347826087
 40
0.391304347826087
 40
0.4347826086956522
 40
0.4347826086956522
 40
0.4347826086956522
 40
0.4347826086956522
 40
0.4782608695652174
 40
0.4782608695652174
 40
0.4782608695652174
 40
0.4782608695652174
 40
0.5217391304347826
 40
0.5217391304347826
 40
0.5217391304347826
 40
0.5217391304347826
 40
0.5652173913043478
 40
0.5652173913043478
 40
0.5652173913043478
 40
0.5652173913043478
 40
0.6086956521739131
 40
0.6086956521739131
 40
0.6086956521739131
 40
0.6086956521739131
 40
0.6521739130434783
 40
0.6521739130434783
 40
0.6521739130434783
 40
0.6521739130434783
 40
0.6956521739130435
 40
0.6956521739130435
 40
0.6956521739130435
 40
0.6956521739130435
 40
0.7391304347826086
 40
0.7391304347826086
 40
0.7391304347826086
 40
0.7391304347826086
 40
0.782608695652174
 40
0.782608695652174
 40
0.782608695652174
 40
0.782608695652174
 40
0.8260869565217391
 40
0.8260869565217391
 40
0.8260869565217391
 40
0.8260869565217391
 40
0.8695652173913043
 40
0.8695652173913043
 40
0.8695652173913043
 40
0.8695652173913043
 40
0.9130434782608695
 40
0.9130434782608695
 40
0.9130434782608695
 40
0.9130434782608695
 40
1.0
 40
1.0
 40
1.0
 40
1.0
 10
-23.5405
 20
-7.8714
 30
0.0
 10
-23.5405
 20
-7.8714
 30
0.0
 10
-23.5626
 20
-7.6108
 30
0.0
 10
-23.5626
 20
-7.6108
 30
0.0
 10
-23.5626
 20
-7.6108
 30
0.0
 10
-23.4356
 20
-7.5915
 30
0.0
 10
-23.3406
 20
-7.5468
 30
0.0
 10
-23.2766
 20
-7.4767
 30
0.0
 10
-23.2766
 20
-7.4767
 30
0.0
 10
-23.2126
 20
-7.4062
 30
0.0
 10
-23.1806
 20
-7.3215
 30
0.0
 10
-23.1806
 20
-7.2223
 30
0.0
 10
-23.1806
 20
-7.2223
 30
0.0
 10
-23.1806
 20
-7.1028
 30
0.0
 10
-23.2258
 20
-7.0017
 30
0.0
 10
-23.3156
 20
-6.9194
 30
0.0
 10
-23.3156
 20
-6.9194
 30
0.0
 10
-23.4059
 20
-6.8366
 30
0.0
 10
-23.5254
 20
-6.7952
 30
0.0
 10
-23.674
 20
-6.7952
 30
0.0
 10
-23.674
 20
-6.7952
 30
0.0
 10
-23.8156
 20
-6.7952
 30
0.0
 10
-23.9271
 20
-6.8347
 30
0.0
 10
-24.0089
 20
-6.9142
 30
0.0
 10
-24.0089
 20
-6.9142
 30
0.0
 10
-24.0908
 20
-6.9937
 30
0.0
 10
-24.1317
 20
-7.0976
 30
0.0
 10
-24.1317
 20
-7.2265
 30
0.0
 10
-24.1317
 20
-7.2265
 30
0.0
 10
-24.1317
 20
-7.3065
 30
0.0
 10
-24.1134
 20
-7.3784
 30
0.0
 10
-24.0772
 20
-7.4429
 30
0.0
 10
-24.0772
 20
-7.4429
 30
0.0
 10
-24.0409
 20
-7.5073
 30
0.0
 10
-23.9939
 20
-7.5576
 30
0.0
 10
-23.936
 20
-7.5943
 30
0.0
 10
-23.936
 20
-7.5943
 30
0.0
 10
-23.936
 20
-7.5943
 30
0.0
 10
-23.9661
 20
-7.8272
 30
0.0
 10
-23.9661
 20
-7.8272
 30
0.0
 10
-23.9661
 20
-7.8272
 30
0.0
 10
-23.9661
 20
-7.8272
 30
0.0
 10
-25.0038
 20
-7.6315
 30
0.0
 10
-25.0038
 20
-7.6315
 30
0.0
 10
-25.0038
 20
-7.6315
 30
0.0
 10
-25.0038
 20
-7.6315
 30
0.0
 10
-25.0038
 20
-6.6268
 30
0.0
 10
-25.0038
 20
-6.6268
 30
0.0
 10
-25.0038
 20
-6.6268
 30
0.0
 10
-25.0038
 20
-6.6268
 30
0.0
 10
-24.7667
 20
-6.6268
 30
0.0
 10
-24.7667
 20
-6.6268
 30
0.0
 10
-24.7667
 20
-6.6268
 30
0.0
 10
-24.7667
 20
-6.6268
 30
0.0
 10
-24.7667
 20
-7.433
 30
0.0
 10
-24.7667
 20
-7.433
 30
0.0
 10
-24.7667
 20
-7.433
 30
0.0
 10
-24.7667
 20
-7.433
 30
0.0
 10
-24.2239
 20
-7.5421
 30
0.0
 10
-24.2239
 20
-7.5421
 30
0.0
 10
-24.2239
 20
-7.5421
 30
0.0
 10
-24.3086
 20
-7.4208
 30
0.0
 10
-24.3509
 20
-7.2933
 30
0.0
 10
-24.3509
 20
-7.1602
 30
0.0
 10
-24.3509
 20
-7.1602
 30
0.0
 10
-24.3509
 20
-6.9838
 30
0.0
 10
-24.2898
 20
-6.8352
 30
0.0
 10
-24.1675
 20
-6.7138
 30
0.0
 10
-24.1675
 20
-6.7138
 30
0.0
 10
-24.0452
 20
-6.5925
 30
0.0
 10
-23.8881
 20
-6.5318
 30
0.0
 10
-23.6962
 20
-6.5318
 30
0.0
 10
-23.6962
 20
-6.5318
 30
0.0
 10
-23.5132
 20
-6.5318
 30
0.0
 10
-23.3551
 20
-6.5854
 30
0.0
 10
-23.222
 20
-6.6917
 30
0.0
 10
-23.222
 20
-6.6917
 30
0.0
 10
-23.0588
 20
-6.8215
 30
0.0
 10
-22.977
 20
-6.9984
 30
0.0
 10
-22.977
 20
-7.2223
 30
0.0
 10
-22.977
 20
-7.2223
 30
0.0
 10
-22.977
 20
-7.4062
 30
0.0
 10
-23.0282
 20
-7.5562
 30
0.0
 10
-23.1312
 20
-7.6724
 30
0.0
 10
-23.1312
 20
-7.6724
 30
0.0
 10
-23.2343
 20
-7.7886
 30
0.0
 10
-23.3707
 20
-7.8549
 30
0.0
 10
-23.5405
 20
-7.8714
 30
0.0
  0
SPLINE
  5
97
330
1F
100
AcDbEntity
  8
ILUSTRACE
 62
   250
100
AcDbSpline
210
0.0
220
0.0
230
1.0
 70
    11
 71
     3
 72
    92
 73
    88
 74
     0
 42
0.0000000001
 43
0.0000000001
 40
0.0
 40
0.0
 40
0.0
 40
0.0
 40
0.0434782608695652
 40
0.0434782608695652
 40
0.0434782608695652
 40
0.0434782608695652
 40
0.0869565217391304
 40
0.0869565217391304
 40
0.0869565217391304
 40
0.0869565217391304
 40
0.1304347826086956
 40
0.1304347826086956
 40
0.1304347826086956
 40
0.1304347826086956
 40
0.1739130434782609
 40
0.1739130434782609
 40
0.1739130434782609
 40
0.1739130434782609
 40
0.2173913043478261
 40
0.2173913043478261
 40
0.2173913043478261
 40
0.2173913043478261
 40
0.2608695652173913
 40
0.2608695652173913
 40
0.2608695652173913
 40
0.2608695652173913
 40
0.3043478260869565
 40
0.3043478260869565
 40
0.3043478260869565
 40
0.3043478260869565
 40
0.3478260869565217
 40
0.3478260869565217
 40
0.3478260869565217
 40
0.3478260869565217
 40
0.391304347826087
 40
0.391304347826087
 40
0.391304347826087
 40
0.391304347826087
 40
0.4347826086956522
 40
0.4347826086956522
 40
0.4347826086956522
 40
0.4347826086956522
 40
0.4782608695652174
 40
0.4782608695652174
 40
0.4782608695652174
 40
0.4782608695652174
 40
0.5217391304347826
 40
0.5217391304347826
 40
0.5217391304347826
 40
0.5217391304347826
 40
0.5652173913043478
 40
0.5652173913043478
 40
0.5652173913043478
 40
0.5652173913043478
 40
0.6086956521739131
 40
0.6086956521739131
 40
0.6086956521739131
 40
0.6086956521739131
 40
0.6521739130434783
 40
0.6521739130434783
 40
0.6521739130434783
 40
0.6521739130434783
 40
0.6956521739130435
 40
0.6956521739130435
 40
0.6956521739130435
 40
0.6956521739130435
 40
0.7391304347826086
 40
0.7391304347826086
 40
0.7391304347826086
 40
0.7391304347826086
 40
0.782608695652174
 40
0.782608695652174
 40
0.782608695652174
 40
0.782608695652174
 40
0.8260869565217391
 40
0.8260869565217391
 40
0.8260869565217391
 40
0.8260869565217391
 40
0.8695652173913043
 40
0.8695652173913043
 40
0.8695652173913043
 40
0.8695652173913043
 40
0.9130434782608695
 40
0.9130434782608695
 40
0.9130434782608695
 40
0.9130434782608695
 40
1.0
 40
1.0
 40
1.0
 40
1.0
 10
-23.5405
 20
-6.3018
 30
0.0
 10
-23.5405
 20
-6.3018
 30
0.0
 10
-23.5626
 20
-6.0412
 30
0.0
 10
-23.5626
 20
-6.0412
 30
0.0
 10
-23.5626
 20
-6.0412
 30
0.0
 10
-23.4356
 20
-6.0219
 30
0.0
 10
-23.3406
 20
-5.9772
 30
0.0
 10
-23.2766
 20
-5.9071
 30
0.0
 10
-23.2766
 20
-5.9071
 30
0.0
 10
-23.2126
 20
-5.8366
 30
0.0
 10
-23.1806
 20
-5.7519
 30
0.0
 10
-23.1806
 20
-5.6527
 30
0.0
 10
-23.1806
 20
-5.6527
 30
0.0
 10
-23.1806
 20
-5.5332
 30
0.0
 10
-23.2258
 20
-5.4321
 30
0.0
 10
-23.3156
 20
-5.3498
 30
0.0
 10
-23.3156
 20
-5.3498
 30
0.0
 10
-23.4059
 20
-5.267
 30
0.0
 10
-23.5254
 20
-5.2256
 30
0.0
 10
-23.674
 20
-5.2256
 30
0.0
 10
-23.674
 20
-5.2256
 30
0.0
 10
-23.8156
 20
-5.2256
 30
0.0
 10
-23.9271
 20
-5.2651
 30
0.0
 10
-24.0089
 20
-5.3446
 30
0.0
 10
-24.0089
 20
-5.3446
 30
0.0
 10
-24.0908
 20
-5.4241
 30
0.0
 10
-24.1317
 20
-5.528
 30
0.0
 10
-24.1317
 20
-5.6569
 30
0.0
 10
-24.1317
 20
-5.6569
 30
0.0
 10
-24.1317
 20
-5.7369
 30
0.0
 10
-24.1134
 20
-5.8088
 30
0.0
 10
-24.0772
 20
-5.8733
 30
0.0
 10
-24.0772
 20
-5.8733
 30
0.0
 10
-24.0409
 20
-5.9377
 30
0.0
 10
-23.9939
 20
-5.988
 30
0.0
 10
-23.936
 20
-6.0247
 30
0.0
 10
-23.936
 20
-6.0247
 30
0.0
 10
-23.936
 20
-6.0247
 30
0.0
 10
-23.9661
 20
-6.2576
 30
0.0
 10
-23.9661
 20
-6.2576
 30
0.0
 10
-23.9661
 20
-6.2576
 30
0.0
 10
-23.9661
 20
-6.2576
 30
0.0
 10
-25.0038
 20
-6.0619
 30
0.0
 10
-25.0038
 20
-6.0619
 30
0.0
 10
-25.0038
 20
-6.0619
 30
0.0
 10
-25.0038
 20
-6.0619
 30
0.0
 10
-25.0038
 20
-5.0572
 30
0.0
 10
-25.0038
 20
-5.0572
 30
0.0
 10
-25.0038
 20
-5.0572
 30
0.0
 10
-25.0038
 20
-5.0572
 30
0.0
 10
-24.7667
 20
-5.0572
 30
0.0
 10
-24.7667
 20
-5.0572
 30
0.0
 10
-24.7667
 20
-5.0572
 30
0.0
 10
-24.7667
 20
-5.0572
 30
0.0
 10
-24.7667
 20
-5.8634
 30
0.0
 10
-24.7667
 20
-5.8634
 30
0.0
 10
-24.7667
 20
-5.8634
 30
0.0
 10
-24.7667
 20
-5.8634
 30
0.0
 10
-24.2239
 20
-5.9725
 30
0.0
 10
-24.2239
 20
-5.9725
 30
0.0
 10
-24.2239
 20
-5.9725
 30
0.0
 10
-24.3086
 20
-5.8512
 30
0.0
 10
-24.3509
 20
-5.7237
 30
0.0
 10
-24.3509
 20
-5.5906
 30
0.0
 10
-24.3509
 20
-5.5906
 30
0.0
 10
-24.3509
 20
-5.4142
 30
0.0
 10
-24.2898
 20
-5.2656
 30
0.0
 10
-24.1675
 20
-5.1442
 30
0.0
 10
-24.1675
 20
-5.1442
 30
0.0
 10
-24.0452
 20
-5.0229
 30
0.0
 10
-23.8881
 20
-4.9622
 30
0.0
 10
-23.6962
 20
-4.9622
 30
0.0
 10
-23.6962
 20
-4.9622
 30
0.0
 10
-23.5132
 20
-4.9622
 30
0.0
 10
-23.3551
 20
-5.0158
 30
0.0
 10
-23.222
 20
-5.1221
 30
0.0
 10
-23.222
 20
-5.1221
 30
0.0
 10
-23.0588
 20
-5.2519
 30
0.0
 10
-22.977
 20
-5.4288
 30
0.0
 10
-22.977
 20
-5.6527
 30
0.0
 10
-22.977
 20
-5.6527
 30
0.0
 10
-22.977
 20
-5.8366
 30
0.0
 10
-23.0282
 20
-5.9866
 30
0.0
 10
-23.1312
 20
-6.1028
 30
0.0
 10
-23.1312
 20
-6.1028
 30
0.0
 10
-23.2343
 20
-6.219
 30
0.0
 10
-23.3707
 20
-6.2853
 30
0.0
 10
-23.5405
 20
-6.3018
 30
0.0
  0
SPLINE
  5
98
330
1F
100
AcDbEntity
  8
ILUSTRACE
 62
   250
100
AcDbSpline
210
0.0
220
0.0
230
1.0
 70
    24
 71
     3
 72
     8
 73
     4
 74
     0
 42
0.0000000001
 43
0.0000000001
 40
0.0
 40
0.0
 40
0.0
 40
0.0
 40
1.0
 40
1.0
 40
1.0
 40
1.0
 10
-27.5671
 20
16.8162
 30
0.0
 10
-27.5671
 20
16.8162
 30
0.0
 10
-27.5671
 20
-19.2027
 30
0.0
 10
-27.5671
 20
-19.2027
 30
0.0
  0
SPLINE
  5
99
330
1F
100
AcDbEntity
  8
ILUSTRACE
 62
   250
100
AcDbSpline
210
0.0
220
0.0
230
1.0
 70
    11
 71
     3
 72
    20
 73
    16
 74
     0
 42
0.0000000001
 43
0.0000000001
 40
0.0
 40
0.0
 40
0.0
 40
0.0
 40
0.2
 40
0.2
 40
0.2
 40
0.2
 40
0.4
 40
0.4
 40
0.4
 40
0.4
 40
0.6
 40
0.6
 40
0.6
 40
0.6
 40
1.0
 40
1.0
 40
1.0
 40
1.0
 10
-27.9338
 20
15.1919
 30
0.0
 10
-27.9338
 20
15.1919
 30
0.0
 10
-27.6025
 20
17.5393
 30
0.0
 10
-27.6025
 20
17.5393
 30
0.0
 10
-27.6025
 20
17.5393
 30
0.0
 10
-27.6025
 20
17.5393
 30
0.0
 10
-27.5289
 20
17.5393
 30
0.0
 10
-27.5289
 20
17.5393
 30
0.0
 10
-27.5289
 20
17.5393
 30
0.0
 10
-27.5289
 20
17.5393
 30
0.0
 10
-27.1756
 20
15.1919
 30
0.0
 10
-27.1756
 20
15.1919
 30
0.0
 10
-27.1756
 20
15.1919
 30
0.0
 10
-27.1756
 20
15.1919
 30
0.0
 10
-27.9338
 20
15.1919
 30
0.0
 10
-27.9338
 20
15.1919
 30
0.0
  0
SPLINE
  5
9A
330
1F
100
AcDbEntity
  8
ILUSTRACE
 62
   250
100
AcDbSpline
210
0.0
220
0.0
230
1.0
 70
    11
 71
     3
 72
    20
 73
    16
 74
     0
 42
0.0000000001
 43
0.0000000001
 40
0.0
 40
0.0
 40
0.0
 40
0.0
 40
0.2
 40
0.2
 40
0.2
 40
0.2
 40
0.4
 40
0.4
 40
0.4
 40
0.4
 40
0.6
 40
0.6
 40
0.6
 40
0.6
 40
1.0
 40
1.0
 40
1.0
 40
1.0
 10
-27.2329
 20
-17.2037
 30
0.0
 10
-27.2329
 20
-17.2037
 30
0.0
 10
-27.5642
 20
-19.5511
 30
0.0
 10
-27.5642
 20
-19.5511
 30
0.0
 10
-27.5642
 20
-19.5511
 30
0.0
 10
-27.5642
 20
-19.5511
 30
0.0
 10
-27.6378
 20
-19.5511
 30
0.0
 10
-27.6378
 20
-19.5511
 30
0.0
 10
-27.6378
 20
-19.5511
 30
0.0
 10
-27.6378
 20
-19.5511
 30
0.0
 10
-27.9911
 20
-17.2037
 30
0.0
 10
-27.9911
 20
-17.2037
 30
0.0
 10
-27.9911
 20
-17.2037
 30
0.0
 10
-27.9911
 20
-17.2037
 30
0.0
 10
-27.2329
 20
-17.2037
 30
0.0
 10
-27.2329
 20
-17.2037
 30
0.0
  0
SPLINE
  5
9B
330
1F
100
AcDbEntity
  8
ILUSTRACE
 62
   250
100
AcDbSpline
210
0.0
220
0.0
230
1.0
 70
    11
 71
     3
 72
    48
 73
    44
 74
     0
 42
0.0000000001
 43
0.0000000001
 40
0.0
 40
0.0
 40
0.0
 40
0.0
 40
0.0833333333333333
 40
0.0833333333333333
 40
0.0833333333333333
 40
0.0833333333333333
 40
0.1666666666666667
 40
0.1666666666666667
 40
0.1666666666666667
 40
0.1666666666666667
 40
0.25
 40
0.25
 40
0.25
 40
0.25
 40
0.3333333333333333
 40
0.3333333333333333
 40
0.3333333333333333
 40
0.3333333333333333
 40
0.4166666666666667
 40
0.4166666666666667
 40
0.4166666666666667
 40
0.4166666666666667
 40
0.5
 40
0.5
 40
0.5
 40
0.5
 40
0.5833333333333334
 40
0.5833333333333334
 40
0.5833333333333334
 40
0.5833333333333334
 40
0.6666666666666666
 40
0.6666666666666666
 40
0.6666666666666666
 40
0.6666666666666666
 40
0.75
 40
0.75
 40
0.75
 40
0.75
 40
0.8333333333333334
 40
0.8333333333333334
 40
0.8333333333333334
 40
0.8333333333333334
 40
1.0
 40
1.0
 40
1.0
 40
1.0
 10
-29.8467
 20
-2.0757
 30
0.0
 10
-29.8467
 20
-2.0757
 30
0.0
 10
-30.0852
 20
-2.0757
 30
0.0
 10
-30.0852
 20
-2.0757
 30
0.0
 10
-30.0852
 20
-2.0757
 30
0.0
 10
-30.0852
 20
-2.0757
 30
0.0
 10
-30.0852
 20
-0.7681
 30
0.0
 10
-30.0852
 20
-0.7681
 30
0.0
 10
-30.0852
 20
-0.7681
 30
0.0
 10
-30.0852
 20
-0.7681
 30
0.0
 10
-29.8923
 20
-0.7681
 30
0.0
 10
-29.8923
 20
-0.7681
 30
0.0
 10
-29.8923
 20
-0.7681
 30
0.0
 10
-29.7555
 20
-0.8965
 30
0.0
 10
-29.5734
 20
-1.024
 30
0.0
 10
-29.3467
 20
-1.1505
 30
0.0
 10
-29.3467
 20
-1.1505
 30
0.0
 10
-29.12
 20
-1.2766
 30
0.0
 10
-28.8862
 20
-1.3744
 30
0.0
 10
-28.6468
 20
-1.4431
 30
0.0
 10
-28.6468
 20
-1.4431
 30
0.0
 10
-28.4775
 20
-1.4929
 30
0.0
 10
-28.2926
 20
-1.5244
 30
0.0
 10
-28.0913
 20
-1.5381
 30
0.0
 10
-28.0913
 20
-1.5381
 30
0.0
 10
-28.0913
 20
-1.5381
 30
0.0
 10
-28.0913
 20
-1.793
 30
0.0
 10
-28.0913
 20
-1.793
 30
0.0
 10
-28.0913
 20
-1.793
 30
0.0
 10
-28.2503
 20
-1.7902
 30
0.0
 10
-28.4422
 20
-1.7592
 30
0.0
 10
-28.6675
 20
-1.6994
 30
0.0
 10
-28.6675
 20
-1.6994
 30
0.0
 10
-28.8923
 20
-1.6397
 30
0.0
 10
-29.1096
 20
-1.5541
 30
0.0
 10
-29.3185
 20
-1.4426
 30
0.0
 10
-29.3185
 20
-1.4426
 30
0.0
 10
-29.5273
 20
-1.3307
 30
0.0
 10
-29.7037
 20
-1.2121
 30
0.0
 10
-29.8467
 20
-1.0861
 30
0.0
 10
-29.8467
 20
-1.0861
 30
0.0
 10
-29.8467
 20
-1.0861
 30
0.0
 10
-29.8467
 20
-2.0757
 30
0.0
 10
-29.8467
 20
-2.0757
 30
0.0
  0
SPLINE
  5
9C
330
1F
100
AcDbEntity
  8
ILUSTRACE
 62
   250
100
AcDbSpline
210
0.0
220
0.0
230
1.0
 70
    11
 71
     3
 72
    92
 73
    88
 74
     0
 42
0.0000000001
 43
0.0000000001
 40
0.0
 40
0.0
 40
0.0
 40
0.0
 40
0.0434782608695652
 40
0.0434782608695652
 40
0.0434782608695652
 40
0.0434782608695652
 40
0.0869565217391304
 40
0.0869565217391304
 40
0.0869565217391304
 40
0.0869565217391304
 40
0.1304347826086956
 40
0.1304347826086956
 40
0.1304347826086956
 40
0.1304347826086956
 40
0.1739130434782609
 40
0.1739130434782609
 40
0.1739130434782609
 40
0.1739130434782609
 40
0.2173913043478261
 40
0.2173913043478261
 40
0.2173913043478261
 40
0.2173913043478261
 40
0.2608695652173913
 40
0.2608695652173913
 40
0.2608695652173913
 40
0.2608695652173913
 40
0.3043478260869565
 40
0.3043478260869565
 40
0.3043478260869565
 40
0.3043478260869565
 40
0.3478260869565217
 40
0.3478260869565217
 40
0.3478260869565217
 40
0.3478260869565217
 40
0.391304347826087
 40
0.391304347826087
 40
0.391304347826087
 40
0.391304347826087
 40
0.4347826086956522
 40
0.4347826086956522
 40
0.4347826086956522
 40
0.4347826086956522
 40
0.4782608695652174
 40
0.4782608695652174
 40
0.4782608695652174
 40
0.4782608695652174
 40
0.5217391304347826
 40
0.5217391304347826
 40
0.5217391304347826
 40
0.5217391304347826
 40
0.5652173913043478
 40
0.5652173913043478
 40
0.5652173913043478
 40
0.5652173913043478
 40
0.6086956521739131
 40
0.6086956521739131
 40
0.6086956521739131
 40
0.6086956521739131
 40
0.6521739130434783
 40
0.6521739130434783
 40
0.6521739130434783
 40
0.6521739130434783
 40
0.6956521739130435
 40
0.6956521739130435
 40
0.6956521739130435
 40
0.6956521739130435
 40
0.7391304347826086
 40
0.7391304347826086
 40
0.7391304347826086
 40
0.7391304347826086
 40
0.782608695652174
 40
0.782608695652174
 40
0.782608695652174
 40
0.782608695652174
 40
0.8260869565217391
 40
0.8260869565217391
 40
0.8260869565217391
 40
0.8260869565217391
 40
0.8695652173913043
 40
0.8695652173913043
 40
0.8695652173913043
 40
0.8695652173913043
 40
0.9130434782608695
 40
0.9130434782608695
 40
0.9130434782608695
 40
0.9130434782608695
 40
1.0
 40
1.0
 40
1.0
 40
1.0
 10
-28.6205
 20
-0.5226
 30
0.0
 10
-28.6205
 20
-0.5226
 30
0.0
 10
-28.6426
 20
-0.262
 30
0.0
 10
-28.6426
 20
-0.262
 30
0.0
 10
-28.6426
 20
-0.262
 30
0.0
 10
-28.5156
 20
-0.2427
 30
0.0
 10
-28.4206
 20
-0.198
 30
0.0
 10
-28.3566
 20
-0.1279
 30
0.0
 10
-28.3566
 20
-0.1279
 30
0.0
 10
-28.2926
 20
-0.0574
 30
0.0
 10
-28.2606
 20
0.0273
 30
0.0
 10
-28.2606
 20
0.1265
 30
0.0
 10
-28.2606
 20
0.1265
 30
0.0
 10
-28.2606
 20
0.246
 30
0.0
 10
-28.3058
 20
0.3471
 30
0.0
 10
-28.3956
 20
0.4294
 30
0.0
 10
-28.3956
 20
0.4294
 30
0.0
 10
-28.4859
 20
0.5122
 30
0.0
 10
-28.6054
 20
0.5536
 30
0.0
 10
-28.754
 20
0.5536
 30
0.0
 10
-28.754
 20
0.5536
 30
0.0
 10
-28.8956
 20
0.5536
 30
0.0
 10
-29.0071
 20
0.5141
 30
0.0
 10
-29.0889
 20
0.4346
 30
0.0
 10
-29.0889
 20
0.4346
 30
0.0
 10
-29.1708
 20
0.3551
 30
0.0
 10
-29.2117
 20
0.2512
 30
0.0
 10
-29.2117
 20
0.1223
 30
0.0
 10
-29.2117
 20
0.1223
 30
0.0
 10
-29.2117
 20
0.0423
 30
0.0
 10
-29.1934
 20
-0.0296
 30
0.0
 10
-29.1572
 20
-0.0941
 30
0.0
 10
-29.1572
 20
-0.0941
 30
0.0
 10
-29.1209
 20
-0.1585
 30
0.0
 10
-29.0739
 20
-0.2088
 30
0.0
 10
-29.016
 20
-0.2455
 30
0.0
 10
-29.016
 20
-0.2455
 30
0.0
 10
-29.016
 20
-0.2455
 30
0.0
 10
-29.0461
 20
-0.4784
 30
0.0
 10
-29.0461
 20
-0.4784
 30
0.0
 10
-29.0461
 20
-0.4784
 30
0.0
 10
-29.0461
 20
-0.4784
 30
0.0
 10
-30.0838
 20
-0.2827
 30
0.0
 10
-30.0838
 20
-0.2827
 30
0.0
 10
-30.0838
 20
-0.2827
 30
0.0
 10
-30.0838
 20
-0.2827
 30
0.0
 10
-30.0838
 20
0.722
 30
0.0
 10
-30.0838
 20
0.722
 30
0.0
 10
-30.0838
 20
0.722
 30
0.0
 10
-30.0838
 20
0.722
 30
0.0
 10
-29.8467
 20
0.722
 30
0.0
 10
-29.8467
 20
0.722
 30
0.0
 10
-29.8467
 20
0.722
 30
0.0
 10
-29.8467
 20
0.722
 30
0.0
 10
-29.8467
 20
-0.0842
 30
0.0
 10
-29.8467
 20
-0.0842
 30
0.0
 10
-29.8467
 20
-0.0842
 30
0.0
 10
-29.8467
 20
-0.0842
 30
0.0
 10
-29.3039
 20
-0.1933
 30
0.0
 10
-29.3039
 20
-0.1933
 30
0.0
 10
-29.3039
 20
-0.1933
 30
0.0
 10
-29.3886
 20
-0.072
 30
0.0
 10
-29.4309
 20
0.0555
 30
0.0
 10
-29.4309
 20
0.1886
 30
0.0
 10
-29.4309
 20
0.1886
 30
0.0
 10
-29.4309
 20
0.365
 30
0.0
 10
-29.3698
 20
0.5136
 30
0.0
 10
-29.2475
 20
0.635
 30
0.0
 10
-29.2475
 20
0.635
 30
0.0
 10
-29.1252
 20
0.7563
 30
0.0
 10
-28.9681
 20
0.817
 30
0.0
 10
-28.7762
 20
0.817
 30
0.0
 10
-28.7762
 20
0.817
 30
0.0
 10
-28.5932
 20
0.817
 30
0.0
 10
-28.4351
 20
0.7634
 30
0.0
 10
-28.302
 20
0.6571
 30
0.0
 10
-28.302
 20
0.6571
 30
0.0
 10
-28.1388
 20
0.5273
 30
0.0
 10
-28.057
 20
0.3504
 30
0.0
 10
-28.057
 20
0.1265
 30
0.0
 10
-28.057
 20
0.1265
 30
0.0
 10
-28.057
 20
-0.0574
 30
0.0
 10
-28.1082
 20
-0.2074
 30
0.0
 10
-28.2112
 20
-0.3236
 30
0.0
 10
-28.2112
 20
-0.3236
 30
0.0
 10
-28.3143
 20
-0.4398
 30
0.0
 10
-28.4507
 20
-0.5061
 30
0.0
 10
-28.6205
 20
-0.5226
 30
0.0
  0
SPLINE
  5
9D
330
1F
100
AcDbEntity
  8
ILUSTRACE
 62
   250
100
AcDbSpline
210
0.0
220
0.0
230
1.0
 70
    11
 71
     3
 72
    44
 73
    40
 74
     0
 42
0.0000000001
 43
0.0000000001
 40
0.0
 40
0.0
 40
0.0
 40
0.0
 40
0.0909090909090909
 40
0.0909090909090909
 40
0.0909090909090909
 40
0.0909090909090909
 40
0.1818181818181818
 40
0.1818181818181818
 40
0.1818181818181818
 40
0.1818181818181818
 40
0.2727272727272727
 40
0.2727272727272727
 40
0.2727272727272727
 40
0.2727272727272727
 40
0.3636363636363636
 40
0.3636363636363636
 40
0.3636363636363636
 40
0.3636363636363636
 40
0.4545454545454545
 40
0.4545454545454545
 40
0.4545454545454545
 40
0.4545454545454545
 40
0.5454545454545454
 40
0.5454545454545454
 40
0.5454545454545454
 40
0.5454545454545454
 40
0.6363636363636364
 40
0.6363636363636364
 40
0.6363636363636364
 40
0.6363636363636364
 40
0.7272727272727273
 40
0.7272727272727273
 40
0.7272727272727273
 40
0.7272727272727273
 40
0.8181818181818182
 40
0.8181818181818182
 40
0.8181818181818182
 40
0.8181818181818182
 40
1.0
 40
1.0
 40
1.0
 40
1.0
 10
2.4872
 20
23.4743
 30
0.0
 10
2.3503
 20
23.647
 30
0.0
 10
2.2346
 20
23.8492
 30
0.0
 10
2.1401
 20
24.0806
 30
0.0
 10
2.1401
 20
24.0806
 30
0.0
 10
2.0456
 20
24.3125
 30
0.0
 10
1.998
 20
24.5519
 30
0.0
 10
1.998
 20
24.8003
 30
0.0
 10
1.998
 20
24.8003
 30
0.0
 10
1.998
 20
25.019
 30
0.0
 10
2.0333
 20
25.2283
 30
0.0
 10
2.1043
 20
25.4287
 30
0.0
 10
2.1043
 20
25.4287
 30
0.0
 10
2.1871
 20
25.6611
 30
0.0
 10
2.3146
 20
25.8925
 30
0.0
 10
2.4872
 20
26.123
 30
0.0
 10
2.4872
 20
26.123
 30
0.0
 10
2.4872
 20
26.123
 30
0.0
 10
2.665
 20
26.123
 30
0.0
 10
2.665
 20
26.123
 30
0.0
 10
2.665
 20
26.123
 30
0.0
 10
2.554
 20
25.932
 30
0.0
 10
2.4806
 20
25.7956
 30
0.0
 10
2.4449
 20
25.7137
 30
0.0
 10
2.4449
 20
25.7137
 30
0.0
 10
2.3884
 20
25.5872
 30
0.0
 10
2.3447
 20
25.4546
 30
0.0
 10
2.3122
 20
25.3168
 30
0.0
 10
2.3122
 20
25.3168
 30
0.0
 10
2.2727
 20
25.1451
 30
0.0
 10
2.253
 20
24.9724
 30
0.0
 10
2.253
 20
24.7989
 30
0.0
 10
2.253
 20
24.7989
 30
0.0
 10
2.253
 20
24.3567
 30
0.0
 10
2.3903
 20
23.9155
 30
0.0
 10
2.665
 20
23.4743
 30
0.0
 10
2.665
 20
23.4743
 30
0.0
 10
2.665
 20
23.4743
 30
0.0
 10
2.4872
 20
23.4743
 30
0.0
 10
2.4872
 20
23.4743
 30
0.0
  0
SPLINE
  5
9E
330
1F
100
AcDbEntity
  8
ILUSTRACE
 62
   250
100
AcDbSpline
210
0.0
220
0.0
230
1.0
 70
    11
 71
     3
 72
    84
 73
    80
 74
     0
 42
0.0000000001
 43
0.0000000001
 40
0.0
 40
0.0
 40
0.0
 40
0.0
 40
0.0476190476190476
 40
0.0476190476190476
 40
0.0476190476190476
 40
0.0476190476190476
 40
0.0952380952380952
 40
0.0952380952380952
 40
0.0952380952380952
 40
0.0952380952380952
 40
0.1428571428571428
 40
0.1428571428571428
 40
0.1428571428571428
 40
0.1428571428571428
 40
0.1904761904761905
 40
0.1904761904761905
 40
0.1904761904761905
 40
0.1904761904761905
 40
0.2380952380952381
 40
0.2380952380952381
 40
0.2380952380952381
 40
0.2380952380952381
 40
0.2857142857142857
 40
0.2857142857142857
 40
0.2857142857142857
 40
0.2857142857142857
 40
0.3333333333333333
 40
0.3333333333333333
 40
0.3333333333333333
 40
0.3333333333333333
 40
0.3809523809523809
 40
0.3809523809523809
 40
0.3809523809523809
 40
0.3809523809523809
 40
0.4285714285714285
 40
0.4285714285714285
 40
0.4285714285714285
 40
0.4285714285714285
 40
0.4761904761904762
 40
0.4761904761904762
 40
0.4761904761904762
 40
0.4761904761904762
 40
0.5238095238095238
 40
0.5238095238095238
 40
0.5238095238095238
 40
0.5238095238095238
 40
0.5714285714285714
 40
0.5714285714285714
 40
0.5714285714285714
 40
0.5714285714285714
 40
0.6190476190476191
 40
0.6190476190476191
 40
0.6190476190476191
 40
0.6190476190476191
 40
0.6666666666666666
 40
0.6666666666666666
 40
0.6666666666666666
 40
0.6666666666666666
 40
0.7142857142857143
 40
0.7142857142857143
 40
0.7142857142857143
 40
0.7142857142857143
 40
0.7619047619047619
 40
0.7619047619047619
 40
0.7619047619047619
 40
0.7619047619047619
 40
0.8095238095238095
 40
0.8095238095238095
 40
0.8095238095238095
 40
0.8095238095238095
 40
0.8571428571428571
 40
0.8571428571428571
 40
0.8571428571428571
 40
0.8571428571428571
 40
0.9047619047619048
 40
0.9047619047619048
 40
0.9047619047619048
 40
0.9047619047619048
 40
1.0
 40
1.0
 40
1.0
 40
1.0
 10
5.2737
 20
25.9038
 30
0.0
 10
5.2737
 20
25.9038
 30
0.0
 10
5.5051
 20
26.1629
 30
0.0
 10
5.5051
 20
26.1629
 30
0.0
 10
5.5051
 20
26.1629
 30
0.0
 10
5.5051
 20
26.1629
 30
0.0
 10
5.6415
 20
26.0472
 30
0.0
 10
5.6415
 20
26.0472
 30
0.0
 10
5.6415
 20
26.0472
 30
0.0
 10
5.6415
 20
26.0472
 30
0.0
 10
5.3993
 20
25.7744
 30
0.0
 10
5.3993
 20
25.7744
 30
0.0
 10
5.3993
 20
25.7744
 30
0.0
 10
5.4783
 20
25.6568
 30
0.0
 10
5.5314
 20
25.5538
 30
0.0
 10
5.5592
 20
25.4659
 30
0.0
 10
5.5592
 20
25.4659
 30
0.0
 10
5.5959
 20
25.3501
 30
0.0
 10
5.6142
 20
25.2203
 30
0.0
 10
5.6142
 20
25.0773
 30
0.0
 10
5.6142
 20
25.0773
 30
0.0
 10
5.6142
 20
24.8704
 30
0.0
 10
5.5724
 20
24.686
 30
0.0
 10
5.4886
 20
24.5247
 30
0.0
 10
5.4886
 20
24.5247
 30
0.0
 10
5.4049
 20
24.3628
 30
0.0
 10
5.2878
 20
24.2406
 30
0.0
 10
5.1368
 20
24.1578
 30
0.0
 10
5.1368
 20
24.1578
 30
0.0
 10
4.9853
 20
24.0755
 30
0.0
 10
4.825
 20
24.0341
 30
0.0
 10
4.6552
 20
24.0341
 30
0.0
 10
4.6552
 20
24.0341
 30
0.0
 10
4.5282
 20
24.0341
 30
0.0
 10
4.4134
 20
24.0519
 30
0.0
 10
4.3104
 20
24.0877
 30
0.0
 10
4.3104
 20
24.0877
 30
0.0
 10
4.2314
 20
24.1154
 30
0.0
 10
4.1392
 20
24.1681
 30
0.0
 10
4.0333
 20
24.2462
 30
0.0
 10
4.0333
 20
24.2462
 30
0.0
 10
4.0333
 20
24.2462
 30
0.0
 10
3.8019
 20
23.987
 30
0.0
 10
3.8019
 20
23.987
 30
0.0
 10
3.8019
 20
23.987
 30
0.0
 10
3.8019
 20
23.987
 30
0.0
 10
3.6655
 20
24.1027
 30
0.0
 10
3.6655
 20
24.1027
 30
0.0
 10
3.6655
 20
24.1027
 30
0.0
 10
3.6655
 20
24.1027
 30
0.0
 10
3.9082
 20
24.3741
 30
0.0
 10
3.9082
 20
24.3741
 30
0.0
 10
3.9082
 20
24.3741
 30
0.0
 10
3.8179
 20
24.511
 30
0.0
 10
3.7577
 20
24.6281
 30
0.0
 10
3.7276
 20
24.725
 30
0.0
 10
3.7276
 20
24.725
 30
0.0
 10
3.6975
 20
24.8219
 30
0.0
 10
3.682
 20
24.9386
 30
0.0
 10
3.682
 20
25.0745
 30
0.0
 10
3.682
 20
25.0745
 30
0.0
 10
3.682
 20
25.2819
 30
0.0
 10
3.7234
 20
25.4668
 30
0.0
 10
3.8061
 20
25.6291
 30
0.0
 10
3.8061
 20
25.6291
 30
0.0
 10
3.8889
 20
25.7914
 30
0.0
 10
4.0046
 20
25.9141
 30
0.0
 10
4.1542
 20
25.9978
 30
0.0
 10
4.1542
 20
25.9978
 30
0.0
 10
4.3033
 20
26.0811
 30
0.0
 10
4.4694
 20
26.123
 30
0.0
 10
4.6523
 20
26.123
 30
0.0
 10
4.6523
 20
26.123
 30
0.0
 10
4.7756
 20
26.123
 30
0.0
 10
4.8833
 20
26.107
 30
0.0
 10
4.9755
 20
26.074
 30
0.0
 10
4.9755
 20
26.074
 30
0.0
 10
5.0677
 20
26.0416
 30
0.0
 10
5.1674
 20
25.9847
 30
0.0
 10
5.2737
 20
25.9038
 30
0.0
  0
SPLINE
  5
9F
330
1F
100
AcDbEntity
  8
ILUSTRACE
 62
   250
100
AcDbSpline
210
0.0
220
0.0
230
1.0
 70
    11
 71
     3
 72
    32
 73
    28
 74
     0
 42
0.0000000001
 43
0.0000000001
 40
0.0
 40
0.0
 40
0.0
 40
0.0
 40
0.125
 40
0.125
 40
0.125
 40
0.125
 40
0.25
 40
0.25
 40
0.25
 40
0.25
 40
0.375
 40
0.375
 40
0.375
 40
0.375
 40
0.5
 40
0.5
 40
0.5
 40
0.5
 40
0.625
 40
0.625
 40
0.625
 40
0.625
 40
0.75
 40
0.75
 40
0.75
 40
0.75
 40
1.0
 40
1.0
 40
1.0
 40
1.0
 10
5.1086
 20
25.718
 30
0.0
 10
5.022
 20
25.7857
 30
0.0
 10
4.9463
 20
25.8323
 30
0.0
 10
4.8819
 20
25.8572
 30
0.0
 10
4.8819
 20
25.8572
 30
0.0
 10
4.817
 20
25.8817
 30
0.0
 10
4.7408
 20
25.8944
 30
0.0
 10
4.6537
 20
25.8944
 30
0.0
 10
4.6537
 20
25.8944
 30
0.0
 10
4.4524
 20
25.8944
 30
0.0
 10
4.2864
 20
25.8262
 30
0.0
 10
4.1547
 20
25.6898
 30
0.0
 10
4.1547
 20
25.6898
 30
0.0
 10
4.0234
 20
25.5533
 30
0.0
 10
3.9576
 20
25.3497
 30
0.0
 10
3.9576
 20
25.0783
 30
0.0
 10
3.9576
 20
25.0783
 30
0.0
 10
3.9576
 20
24.972
 30
0.0
 10
3.9679
 20
24.8774
 30
0.0
 10
3.9882
 20
24.7946
 30
0.0
 10
3.9882
 20
24.7946
 30
0.0
 10
4.0028
 20
24.733
 30
0.0
 10
4.0333
 20
24.6573
 30
0.0
 10
4.0804
 20
24.5675
 30
0.0
 10
4.0804
 20
24.5675
 30
0.0
 10
4.0804
 20
24.5675
 30
0.0
 10
5.1086
 20
25.718
 30
0.0
 10
5.1086
 20
25.718
 30
0.0
  0
SPLINE
  5
A0
330
1F
100
AcDbEntity
  8
ILUSTRACE
 62
   250
100
AcDbSpline
210
0.0
220
0.0
230
1.0
 70
    11
 71
     3
 72
    28
 73
    24
 74
     0
 42
0.0000000001
 43
0.0000000001
 40
0.0
 40
0.0
 40
0.0
 40
0.0
 40
0.1428571428571428
 40
0.1428571428571428
 40
0.1428571428571428
 40
0.1428571428571428
 40
0.2857142857142857
 40
0.2857142857142857
 40
0.2857142857142857
 40
0.2857142857142857
 40
0.4285714285714285
 40
0.4285714285714285
 40
0.4285714285714285
 40
0.4285714285714285
 40
0.5714285714285714
 40
0.5714285714285714
 40
0.5714285714285714
 40
0.5714285714285714
 40
0.7142857142857143
 40
0.7142857142857143
 40
0.7142857142857143
 40
0.7142857142857143
 40
1.0
 40
1.0
 40
1.0
 40
1.0
 10
5.2215
 20
25.5759
 30
0.0
 10
5.2215
 20
25.5759
 30
0.0
 10
4.1975
 20
24.4296
 30
0.0
 10
4.1975
 20
24.4296
 30
0.0
 10
4.1975
 20
24.4296
 30
0.0
 10
4.268
 20
24.3718
 30
0.0
 10
4.3334
 20
24.3313
 30
0.0
 10
4.3932
 20
24.3083
 30
0.0
 10
4.3932
 20
24.3083
 30
0.0
 10
4.4712
 20
24.2777
 30
0.0
 10
4.5559
 20
24.2627
 30
0.0
 10
4.6467
 20
24.2627
 30
0.0
 10
4.6467
 20
24.2627
 30
0.0
 10
4.8471
 20
24.2627
 30
0.0
 10
5.0122
 20
24.3332
 30
0.0
 10
5.1429
 20
24.4748
 30
0.0
 10
5.1429
 20
24.4748
 30
0.0
 10
5.2732
 20
24.6164
 30
0.0
 10
5.3386
 20
24.8149
 30
0.0
 10
5.3386
 20
25.0703
 30
0.0
 10
5.3386
 20
25.0703
 30
0.0
 10
5.3386
 20
25.2612
 30
0.0
 10
5.2996
 20
25.4301
 30
0.0
 10
5.2215
 20
25.5759
 30
0.0
  0
SPLINE
  5
A1
330
1F
100
AcDbEntity
  8
ILUSTRACE
 62
   250
100
AcDbSpline
210
0.0
220
0.0
230
1.0
 70
    11
 71
     3
 72
    92
 73
    88
 74
     0
 42
0.0000000001
 43
0.0000000001
 40
0.0
 40
0.0
 40
0.0
 40
0.0
 40
0.0434782608695652
 40
0.0434782608695652
 40
0.0434782608695652
 40
0.0434782608695652
 40
0.0869565217391304
 40
0.0869565217391304
 40
0.0869565217391304
 40
0.0869565217391304
 40
0.1304347826086956
 40
0.1304347826086956
 40
0.1304347826086956
 40
0.1304347826086956
 40
0.1739130434782609
 40
0.1739130434782609
 40
0.1739130434782609
 40
0.1739130434782609
 40
0.2173913043478261
 40
0.2173913043478261
 40
0.2173913043478261
 40
0.2173913043478261
 40
0.2608695652173913
 40
0.2608695652173913
 40
0.2608695652173913
 40
0.2608695652173913
 40
0.3043478260869565
 40
0.3043478260869565
 40
0.3043478260869565
 40
0.3043478260869565
 40
0.3478260869565217
 40
0.3478260869565217
 40
0.3478260869565217
 40
0.3478260869565217
 40
0.391304347826087
 40
0.391304347826087
 40
0.391304347826087
 40
0.391304347826087
 40
0.4347826086956522
 40
0.4347826086956522
 40
0.4347826086956522
 40
0.4347826086956522
 40
0.4782608695652174
 40
0.4782608695652174
 40
0.4782608695652174
 40
0.4782608695652174
 40
0.5217391304347826
 40
0.5217391304347826
 40
0.5217391304347826
 40
0.5217391304347826
 40
0.5652173913043478
 40
0.5652173913043478
 40
0.5652173913043478
 40
0.5652173913043478
 40
0.6086956521739131
 40
0.6086956521739131
 40
0.6086956521739131
 40
0.6086956521739131
 40
0.6521739130434783
 40
0.6521739130434783
 40
0.6521739130434783
 40
0.6521739130434783
 40
0.6956521739130435
 40
0.6956521739130435
 40
0.6956521739130435
 40
0.6956521739130435
 40
0.7391304347826086
 40
0.7391304347826086
 40
0.7391304347826086
 40
0.7391304347826086
 40
0.782608695652174
 40
0.782608695652174
 40
0.782608695652174
 40
0.782608695652174
 40
0.8260869565217391
 40
0.8260869565217391
 40
0.8260869565217391
 40
0.8260869565217391
 40
0.8695652173913043
 40
0.8695652173913043
 40
0.8695652173913043
 40
0.8695652173913043
 40
0.9130434782608695
 40
0.9130434782608695
 40
0.9130434782608695
 40
0.9130434782608695
 40
1.0
 40
1.0
 40
1.0
 40
1.0
 10
5.9007
 20
24.5355
 30
0.0
 10
5.9007
 20
24.5355
 30
0.0
 10
6.1392
 20
24.5576
 30
0.0
 10
6.1392
 20
24.5576
 30
0.0
 10
6.1392
 20
24.5576
 30
0.0
 10
6.1594
 20
24.4456
 30
0.0
 10
6.198
 20
24.3643
 30
0.0
 10
6.2549
 20
24.3135
 30
0.0
 10
6.2549
 20
24.3135
 30
0.0
 10
6.3118
 20
24.2631
 30
0.0
 10
6.3847
 20
24.2377
 30
0.0
 10
6.4741
 20
24.2377
 30
0.0
 10
6.4741
 20
24.2377
 30
0.0
 10
6.5503
 20
24.2377
 30
0.0
 10
6.617
 20
24.2551
 30
0.0
 10
6.6744
 20
24.2904
 30
0.0
 10
6.6744
 20
24.2904
 30
0.0
 10
6.7318
 20
24.3252
 30
0.0
 10
6.7789
 20
24.3718
 30
0.0
 10
6.8155
 20
24.4301
 30
0.0
 10
6.8155
 20
24.4301
 30
0.0
 10
6.8527
 20
24.4884
 30
0.0
 10
6.8833
 20
24.5675
 30
0.0
 10
6.9082
 20
24.6662
 30
0.0
 10
6.9082
 20
24.6662
 30
0.0
 10
6.9327
 20
24.7655
 30
0.0
 10
6.9454
 20
24.8666
 30
0.0
 10
6.9454
 20
24.9696
 30
0.0
 10
6.9454
 20
24.9696
 30
0.0
 10
6.9454
 20
24.9804
 30
0.0
 10
6.9449
 20
24.9974
 30
0.0
 10
6.944
 20
25.019
 30
0.0
 10
6.944
 20
25.019
 30
0.0
 10
6.8941
 20
24.9405
 30
0.0
 10
6.8264
 20
24.876
 30
0.0
 10
6.7408
 20
24.8271
 30
0.0
 10
6.7408
 20
24.8271
 30
0.0
 10
6.6547
 20
24.7777
 30
0.0
 10
6.5615
 20
24.7533
 30
0.0
 10
6.4618
 20
24.7533
 30
0.0
 10
6.4618
 20
24.7533
 30
0.0
 10
6.2944
 20
24.7533
 30
0.0
 10
6.1528
 20
24.8139
 30
0.0
 10
6.0371
 20
24.9353
 30
0.0
 10
6.0371
 20
24.9353
 30
0.0
 10
5.9214
 20
25.0566
 30
0.0
 10
5.8635
 20
25.2161
 30
0.0
 10
5.8635
 20
25.4146
 30
0.0
 10
5.8635
 20
25.4146
 30
0.0
 10
5.8635
 20
25.6197
 30
0.0
 10
5.9237
 20
25.7843
 30
0.0
 10
6.0446
 20
25.9094
 30
0.0
 10
6.0446
 20
25.9094
 30
0.0
 10
6.1655
 20
26.0345
 30
0.0
 10
6.317
 20
26.0971
 30
0.0
 10
6.499
 20
26.0971
 30
0.0
 10
6.499
 20
26.0971
 30
0.0
 10
6.6302
 20
26.0971
 30
0.0
 10
6.7502
 20
26.0613
 30
0.0
 10
6.8593
 20
25.9908
 30
0.0
 10
6.8593
 20
25.9908
 30
0.0
 10
6.9679
 20
25.9202
 30
0.0
 10
7.0507
 20
25.8191
 30
0.0
 10
7.1072
 20
25.6883
 30
0.0
 10
7.1072
 20
25.6883
 30
0.0
 10
7.1636
 20
25.5576
 30
0.0
 10
7.1918
 20
25.368
 30
0.0
 10
7.1918
 20
25.1197
 30
0.0
 10
7.1918
 20
25.1197
 30
0.0
 10
7.1918
 20
24.8619
 30
0.0
 10
7.1641
 20
24.6564
 30
0.0
 10
7.1081
 20
24.503
 30
0.0
 10
7.1081
 20
24.503
 30
0.0
 10
7.0517
 20
24.3501
 30
0.0
 10
6.9684
 20
24.234
 30
0.0
 10
6.8579
 20
24.154
 30
0.0
 10
6.8579
 20
24.154
 30
0.0
 10
6.7469
 20
24.074
 30
0.0
 10
6.6175
 20
24.0341
 30
0.0
 10
6.4684
 20
24.0341
 30
0.0
 10
6.4684
 20
24.0341
 30
0.0
 10
6.3104
 20
24.0341
 30
0.0
 10
6.1815
 20
24.0778
 30
0.0
 10
6.0813
 20
24.1658
 30
0.0
 10
6.0813
 20
24.1658
 30
0.0
 10
5.9811
 20
24.2533
 30
0.0
 10
5.9209
 20
24.3765
 30
0.0
 10
5.9007
 20
24.5355
 30
0.0
  0
SPLINE
  5
A2
330
1F
100
AcDbEntity
  8
ILUSTRACE
 62
   250
100
AcDbSpline
210
0.0
220
0.0
230
1.0
 70
    11
 71
     3
 72
    36
 73
    32
 74
     0
 42
0.0000000001
 43
0.0000000001
 40
0.0
 40
0.0
 40
0.0
 40
0.0
 40
0.1111111111111111
 40
0.1111111111111111
 40
0.1111111111111111
 40
0.1111111111111111
 40
0.2222222222222222
 40
0.2222222222222222
 40
0.2222222222222222
 40
0.2222222222222222
 40
0.3333333333333333
 40
0.3333333333333333
 40
0.3333333333333333
 40
0.3333333333333333
 40
0.4444444444444444
 40
0.4444444444444444
 40
0.4444444444444444
 40
0.4444444444444444
 40
0.5555555555555556
 40
0.5555555555555556
 40
0.5555555555555556
 40
0.5555555555555556
 40
0.6666666666666666
 40
0.6666666666666666
 40
0.6666666666666666
 40
0.6666666666666666
 40
0.7777777777777778
 40
0.7777777777777778
 40
0.7777777777777778
 40
0.7777777777777778
 40
1.0
 40
1.0
 40
1.0
 40
1.0
 10
6.9162
 20
25.4273
 30
0.0
 10
6.9162
 20
25.5693
 30
0.0
 10
6.8786
 20
25.6827
 30
0.0
 10
6.8028
 20
25.766
 30
0.0
 10
6.8028
 20
25.766
 30
0.0
 10
6.7266
 20
25.8497
 30
0.0
 10
6.6359
 20
25.8915
 30
0.0
 10
6.5291
 20
25.8915
 30
0.0
 10
6.5291
 20
25.8915
 30
0.0
 10
6.419
 20
25.8915
 30
0.0
 10
6.3231
 20
25.8464
 30
0.0
 10
6.2412
 20
25.7565
 30
0.0
 10
6.2412
 20
25.7565
 30
0.0
 10
6.1594
 20
25.6662
 30
0.0
 10
6.1185
 20
25.5496
 30
0.0
 10
6.1185
 20
25.4066
 30
0.0
 10
6.1185
 20
25.4066
 30
0.0
 10
6.1185
 20
25.2777
 30
0.0
 10
6.1575
 20
25.1733
 30
0.0
 10
6.2351
 20
25.0929
 30
0.0
 10
6.2351
 20
25.0929
 30
0.0
 10
6.3127
 20
25.0124
 30
0.0
 10
6.4082
 20
24.9724
 30
0.0
 10
6.522
 20
24.9724
 30
0.0
 10
6.522
 20
24.9724
 30
0.0
 10
6.6373
 20
24.9724
 30
0.0
 10
6.7313
 20
25.0124
 30
0.0
 10
6.8052
 20
25.0929
 30
0.0
 10
6.8052
 20
25.0929
 30
0.0
 10
6.8795
 20
25.1733
 30
0.0
 10
6.9162
 20
25.2848
 30
0.0
 10
6.9162
 20
25.4273
 30
0.0
  0
SPLINE
  5
A3
330
1F
100
AcDbEntity
  8
ILUSTRACE
 62
   250
100
AcDbSpline
210
0.0
220
0.0
230
1.0
 70
    11
 71
     3
 72
    48
 73
    44
 74
     0
 42
0.0000000001
 43
0.0000000001
 40
0.0
 40
0.0
 40
0.0
 40
0.0
 40
0.0833333333333333
 40
0.0833333333333333
 40
0.0833333333333333
 40
0.0833333333333333
 40
0.1666666666666667
 40
0.1666666666666667
 40
0.1666666666666667
 40
0.1666666666666667
 40
0.25
 40
0.25
 40
0.25
 40
0.25
 40
0.3333333333333333
 40
0.3333333333333333
 40
0.3333333333333333
 40
0.3333333333333333
 40
0.4166666666666667
 40
0.4166666666666667
 40
0.4166666666666667
 40
0.4166666666666667
 40
0.5
 40
0.5
 40
0.5
 40
0.5
 40
0.5833333333333334
 40
0.5833333333333334
 40
0.5833333333333334
 40
0.5833333333333334
 40
0.6666666666666666
 40
0.6666666666666666
 40
0.6666666666666666
 40
0.6666666666666666
 40
0.75
 40
0.75
 40
0.75
 40
0.75
 40
0.8333333333333334
 40
0.8333333333333334
 40
0.8333333333333334
 40
0.8333333333333334
 40
1.0
 40
1.0
 40
1.0
 40
1.0
 10
7.4496
 20
25.8238
 30
0.0
 10
7.4496
 20
25.8238
 30
0.0
 10
7.4496
 20
26.0623
 30
0.0
 10
7.4496
 20
26.0623
 30
0.0
 10
7.4496
 20
26.0623
 30
0.0
 10
7.4496
 20
26.0623
 30
0.0
 10
8.7572
 20
26.0623
 30
0.0
 10
8.7572
 20
26.0623
 30
0.0
 10
8.7572
 20
26.0623
 30
0.0
 10
8.7572
 20
26.0623
 30
0.0
 10
8.7572
 20
25.8694
 30
0.0
 10
8.7572
 20
25.8694
 30
0.0
 10
8.7572
 20
25.8694
 30
0.0
 10
8.6288
 20
25.7326
 30
0.0
 10
8.5013
 20
25.5505
 30
0.0
 10
8.3748
 20
25.3238
 30
0.0
 10
8.3748
 20
25.3238
 30
0.0
 10
8.2487
 20
25.0971
 30
0.0
 10
8.1509
 20
24.8633
 30
0.0
 10
8.0822
 20
24.6239
 30
0.0
 10
8.0822
 20
24.6239
 30
0.0
 10
8.0324
 20
24.4546
 30
0.0
 10
8.0009
 20
24.2697
 30
0.0
 10
7.9872
 20
24.0684
 30
0.0
 10
7.9872
 20
24.0684
 30
0.0
 10
7.9872
 20
24.0684
 30
0.0
 10
7.7323
 20
24.0684
 30
0.0
 10
7.7323
 20
24.0684
 30
0.0
 10
7.7323
 20
24.0684
 30
0.0
 10
7.7351
 20
24.2274
 30
0.0
 10
7.7661
 20
24.4193
 30
0.0
 10
7.8259
 20
24.6446
 30
0.0
 10
7.8259
 20
24.6446
 30
0.0
 10
7.8856
 20
24.8694
 30
0.0
 10
7.9712
 20
25.0867
 30
0.0
 10
8.0827
 20
25.2956
 30
0.0
 10
8.0827
 20
25.2956
 30
0.0
 10
8.1946
 20
25.5044
 30
0.0
 10
8.3132
 20
25.6808
 30
0.0
 10
8.4392
 20
25.8238
 30
0.0
 10
8.4392
 20
25.8238
 30
0.0
 10
8.4392
 20
25.8238
 30
0.0
 10
7.4496
 20
25.8238
 30
0.0
 10
7.4496
 20
25.8238
 30
0.0
  0
SPLINE
  5
A4
330
1F
100
AcDbEntity
  8
ILUSTRACE
 62
   250
100
AcDbSpline
210
0.0
220
0.0
230
1.0
 70
    11
 71
     3
 72
    44
 73
    40
 74
     0
 42
0.0000000001
 43
0.0000000001
 40
0.0
 40
0.0
 40
0.0
 40
0.0
 40
0.0909090909090909
 40
0.0909090909090909
 40
0.0909090909090909
 40
0.0909090909090909
 40
0.1818181818181818
 40
0.1818181818181818
 40
0.1818181818181818
 40
0.1818181818181818
 40
0.2727272727272727
 40
0.2727272727272727
 40
0.2727272727272727
 40
0.2727272727272727
 40
0.3636363636363636
 40
0.3636363636363636
 40
0.3636363636363636
 40
0.3636363636363636
 40
0.4545454545454545
 40
0.4545454545454545
 40
0.4545454545454545
 40
0.4545454545454545
 40
0.5454545454545454
 40
0.5454545454545454
 40
0.5454545454545454
 40
0.5454545454545454
 40
0.6363636363636364
 40
0.6363636363636364
 40
0.6363636363636364
 40
0.6363636363636364
 40
0.7272727272727273
 40
0.7272727272727273
 40
0.7272727272727273
 40
0.7272727272727273
 40
0.8181818181818182
 40
0.8181818181818182
 40
0.8181818181818182
 40
0.8181818181818182
 40
1.0
 40
1.0
 40
1.0
 40
1.0
 10
10.0182
 20
23.4743
 30
0.0
 10
10.0182
 20
23.4743
 30
0.0
 10
9.8404
 20
23.4743
 30
0.0
 10
9.8404
 20
23.4743
 30
0.0
 10
9.8404
 20
23.4743
 30
0.0
 10
10.1151
 20
23.9155
 30
0.0
 10
10.2525
 20
24.3567
 30
0.0
 10
10.2525
 20
24.7989
 30
0.0
 10
10.2525
 20
24.7989
 30
0.0
 10
10.2525
 20
24.9715
 30
0.0
 10
10.2327
 20
25.1427
 30
0.0
 10
10.1932
 20
25.313
 30
0.0
 10
10.1932
 20
25.313
 30
0.0
 10
10.1622
 20
25.4503
 30
0.0
 10
10.1184
 20
25.583
 30
0.0
 10
10.0625
 20
25.7095
 30
0.0
 10
10.0625
 20
25.7095
 30
0.0
 10
10.0267
 20
25.7923
 30
0.0
 10
9.9529
 20
25.9301
 30
0.0
 10
9.8404
 20
26.123
 30
0.0
 10
9.8404
 20
26.123
 30
0.0
 10
9.8404
 20
26.123
 30
0.0
 10
10.0182
 20
26.123
 30
0.0
 10
10.0182
 20
26.123
 30
0.0
 10
10.0182
 20
26.123
 30
0.0
 10
10.1909
 20
25.8925
 30
0.0
 10
10.3188
 20
25.6611
 30
0.0
 10
10.4016
 20
25.4287
 30
0.0
 10
10.4016
 20
25.4287
 30
0.0
 10
10.4721
 20
25.2283
 30
0.0
 10
10.5074
 20
25.019
 30
0.0
 10
10.5074
 20
24.8003
 30
0.0
 10
10.5074
 20
24.8003
 30
0.0
 10
10.5074
 20
24.5519
 30
0.0
 10
10.4599
 20
24.3125
 30
0.0
 10
10.3649
 20
24.0806
 30
0.0
 10
10.3649
 20
24.0806
 30
0.0
 10
10.2699
 20
23.8492
 30
0.0
 10
10.1542
 20
23.647
 30
0.0
 10
10.0182
 20
23.4743
 30
0.0
  0
SPLINE
  5
A5
330
1F
100
AcDbEntity
  8
ILUSTRACE
 62
   250
100
AcDbSpline
210
0.0
220
0.0
230
1.0
 70
    24
 71
     3
 72
     8
 73
     4
 74
     0
 42
0.0000000001
 43
0.0000000001
 40
0.0
 40
0.0
 40
0.0
 40
0.0
 40
1.0
 40
1.0
 40
1.0
 40
1.0
 10
-17.5191
 20
2.2747
 30
0.0
 10
-17.5191
 20
2.2747
 30
0.0
 10
-17.5191
 20
-26.1024
 30
0.0
 10
-17.5191
 20
-26.1024
 30
0.0
  0
SPLINE
  5
A6
330
1F
100
AcDbEntity
  8
ILUSTRACE
 62
   250
100
AcDbSpline
210
0.0
220
0.0
230
1.0
 70
    24
 71
     3
 72
     8
 73
     4
 74
     0
 42
0.0000000001
 43
0.0000000001
 40
0.0
 40
0.0
 40
0.0
 40
0.0
 40
1.0
 40
1.0
 40
1.0
 40
1.0
 10
29.0428
 20
2.8421
 30
0.0
 10
29.0428
 20
2.8421
 30
0.0
 10
29.0428
 20
-26.163
 30
0.0
 10
29.0428
 20
-26.163
 30
0.0
  0
SPLINE
  5
A7
330
1F
100
AcDbEntity
  8
ILUSTRACE
 62
   250
100
AcDbSpline
210
0.0
220
0.0
230
1.0
 70
    11
 71
     3
 72
    20
 73
    16
 74
     0
 42
0.0000000001
 43
0.0000000001
 40
0.0
 40
0.0
 40
0.0
 40
0.0
 40
0.2
 40
0.2
 40
0.2
 40
0.2
 40
0.4
 40
0.4
 40
0.4
 40
0.4
 40
0.6
 40
0.6
 40
0.6
 40
0.6
 40
1.0
 40
1.0
 40
1.0
 40
1.0
 10
26.617
 20
-25.1907
 30
0.0
 10
26.617
 20
-25.1907
 30
0.0
 10
28.9644
 20
-25.522
 30
0.0
 10
28.9644
 20
-25.522
 30
0.0
 10
28.9644
 20
-25.522
 30
0.0
 10
28.9644
 20
-25.522
 30
0.0
 10
28.9644
 20
-25.5956
 30
0.0
 10
28.9644
 20
-25.5956
 30
0.0
 10
28.9644
 20
-25.5956
 30
0.0
 10
28.9644
 20
-25.5956
 30
0.0
 10
26.617
 20
-25.9489
 30
0.0
 10
26.617
 20
-25.9489
 30
0.0
 10
26.617
 20
-25.9489
 30
0.0
 10
26.617
 20
-25.9489
 30
0.0
 10
26.617
 20
-25.1907
 30
0.0
 10
26.617
 20
-25.1907
 30
0.0
  0
SPLINE
  5
A8
330
1F
100
AcDbEntity
  8
ILUSTRACE
 62
   250
100
AcDbSpline
210
0.0
220
0.0
230
1.0
 70
    11
 71
     3
 72
    20
 73
    16
 74
     0
 42
0.0000000001
 43
0.0000000001
 40
0.0
 40
0.0
 40
0.0
 40
0.0
 40
0.2
 40
0.2
 40
0.2
 40
0.2
 40
0.4
 40
0.4
 40
0.4
 40
0.4
 40
0.6
 40
0.6
 40
0.6
 40
0.6
 40
1.0
 40
1.0
 40
1.0
 40
1.0
 10
-15.0575
 20
-25.9099
 30
0.0
 10
-15.0575
 20
-25.9099
 30
0.0
 10
-17.405
 20
-25.5786
 30
0.0
 10
-17.405
 20
-25.5786
 30
0.0
 10
-17.405
 20
-25.5786
 30
0.0
 10
-17.405
 20
-25.5786
 30
0.0
 10
-17.405
 20
-25.505
 30
0.0
 10
-17.405
 20
-25.505
 30
0.0
 10
-17.405
 20
-25.505
 30
0.0
 10
-17.405
 20
-25.505
 30
0.0
 10
-15.0575
 20
-25.1517
 30
0.0
 10
-15.0575
 20
-25.1517
 30
0.0
 10
-15.0575
 20
-25.1517
 30
0.0
 10
-15.0575
 20
-25.1517
 30
0.0
 10
-15.0575
 20
-25.9099
 30
0.0
 10
-15.0575
 20
-25.9099
 30
0.0
  0
SPLINE
  5
A9
330
1F
100
AcDbEntity
  8
ILUSTRACE
 62
   250
100
AcDbSpline
210
0.0
220
0.0
230
1.0
 70
    24
 71
     3
 72
     8
 73
     4
 74
     0
 42
0.0000000001
 43
0.0000000001
 40
0.0
 40
0.0
 40
0.0
 40
0.0
 40
1.0
 40
1.0
 40
1.0
 40
1.0
 10
28.1222
 20
-25.5802
 30
0.0
 10
28.1222
 20
-25.5802
 30
0.0
 10
-16.404
 20
-25.5802
 30
0.0
 10
-16.404
 20
-25.5802
 30
0.0
  0
SPLINE
  5
AA
330
1F
100
AcDbEntity
  8
ILUSTRACE
 62
   250
100
AcDbSpline
210
0.0
220
0.0
230
1.0
 70
    11
 71
     3
 72
    84
 73
    80
 74
     0
 42
0.0000000001
 43
0.0000000001
 40
0.0
 40
0.0
 40
0.0
 40
0.0
 40
0.0476190476190476
 40
0.0476190476190476
 40
0.0476190476190476
 40
0.0476190476190476
 40
0.0952380952380952
 40
0.0952380952380952
 40
0.0952380952380952
 40
0.0952380952380952
 40
0.1428571428571428
 40
0.1428571428571428
 40
0.1428571428571428
 40
0.1428571428571428
 40
0.1904761904761905
 40
0.1904761904761905
 40
0.1904761904761905
 40
0.1904761904761905
 40
0.2380952380952381
 40
0.2380952380952381
 40
0.2380952380952381
 40
0.2380952380952381
 40
0.2857142857142857
 40
0.2857142857142857
 40
0.2857142857142857
 40
0.2857142857142857
 40
0.3333333333333333
 40
0.3333333333333333
 40
0.3333333333333333
 40
0.3333333333333333
 40
0.3809523809523809
 40
0.3809523809523809
 40
0.3809523809523809
 40
0.3809523809523809
 40
0.4285714285714285
 40
0.4285714285714285
 40
0.4285714285714285
 40
0.4285714285714285
 40
0.4761904761904762
 40
0.4761904761904762
 40
0.4761904761904762
 40
0.4761904761904762
 40
0.5238095238095238
 40
0.5238095238095238
 40
0.5238095238095238
 40
0.5238095238095238
 40
0.5714285714285714
 40
0.5714285714285714
 40
0.5714285714285714
 40
0.5714285714285714
 40
0.6190476190476191
 40
0.6190476190476191
 40
0.6190476190476191
 40
0.6190476190476191
 40
0.6666666666666666
 40
0.6666666666666666
 40
0.6666666666666666
 40
0.6666666666666666
 40
0.7142857142857143
 40
0.7142857142857143
 40
0.7142857142857143
 40
0.7142857142857143
 40
0.7619047619047619
 40
0.7619047619047619
 40
0.7619047619047619
 40
0.7619047619047619
 40
0.8095238095238095
 40
0.8095238095238095
 40
0.8095238095238095
 40
0.8095238095238095
 40
0.8571428571428571
 40
0.8571428571428571
 40
0.8571428571428571
 40
0.8571428571428571
 40
0.9047619047619048
 40
0.9047619047619048
 40
0.9047619047619048
 40
0.9047619047619048
 40
1.0
 40
1.0
 40
1.0
 40
1.0
 10
4.2575
 20
-22.8535
 30
0.0
 10
4.2575
 20
-22.8535
 30
0.0
 10
4.4889
 20
-22.5944
 30
0.0
 10
4.4889
 20
-22.5944
 30
0.0
 10
4.4889
 20
-22.5944
 30
0.0
 10
4.4889
 20
-22.5944
 30
0.0
 10
4.6253
 20
-22.7101
 30
0.0
 10
4.6253
 20
-22.7101
 30
0.0
 10
4.6253
 20
-22.7101
 30
0.0
 10
4.6253
 20
-22.7101
 30
0.0
 10
4.3831
 20
-22.9829
 30
0.0
 10
4.3831
 20
-22.9829
 30
0.0
 10
4.3831
 20
-22.9829
 30
0.0
 10
4.4621
 20
-23.1005
 30
0.0
 10
4.5152
 20
-23.2035
 30
0.0
 10
4.543
 20
-23.2914
 30
0.0
 10
4.543
 20
-23.2914
 30
0.0
 10
4.5797
 20
-23.4072
 30
0.0
 10
4.598
 20
-23.537
 30
0.0
 10
4.598
 20
-23.68
 30
0.0
 10
4.598
 20
-23.68
 30
0.0
 10
4.598
 20
-23.8869
 30
0.0
 10
4.5562
 20
-24.0713
 30
0.0
 10
4.4724
 20
-24.2326
 30
0.0
 10
4.4724
 20
-24.2326
 30
0.0
 10
4.3887
 20
-24.3945
 30
0.0
 10
4.2716
 20
-24.5167
 30
0.0
 10
4.1206
 20
-24.5995
 30
0.0
 10
4.1206
 20
-24.5995
 30
0.0
 10
3.9691
 20
-24.6818
 30
0.0
 10
3.8088
 20
-24.7232
 30
0.0
 10
3.639
 20
-24.7232
 30
0.0
 10
3.639
 20
-24.7232
 30
0.0
 10
3.512
 20
-24.7232
 30
0.0
 10
3.3972
 20
-24.7054
 30
0.0
 10
3.2942
 20
-24.6696
 30
0.0
 10
3.2942
 20
-24.6696
 30
0.0
 10
3.2152
 20
-24.6419
 30
0.0
 10
3.123
 20
-24.5892
 30
0.0
 10
3.0171
 20
-24.5111
 30
0.0
 10
3.0171
 20
-24.5111
 30
0.0
 10
3.0171
 20
-24.5111
 30
0.0
 10
2.7857
 20
-24.7703
 30
0.0
 10
2.7857
 20
-24.7703
 30
0.0
 10
2.7857
 20
-24.7703
 30
0.0
 10
2.7857
 20
-24.7703
 30
0.0
 10
2.6493
 20
-24.6546
 30
0.0
 10
2.6493
 20
-24.6546
 30
0.0
 10
2.6493
 20
-24.6546
 30
0.0
 10
2.6493
 20
-24.6546
 30
0.0
 10
2.892
 20
-24.3832
 30
0.0
 10
2.892
 20
-24.3832
 30
0.0
 10
2.892
 20
-24.3832
 30
0.0
 10
2.8017
 20
-24.2463
 30
0.0
 10
2.7415
 20
-24.1292
 30
0.0
 10
2.7114
 20
-24.0323
 30
0.0
 10
2.7114
 20
-24.0323
 30
0.0
 10
2.6813
 20
-23.9354
 30
0.0
 10
2.6658
 20
-23.8187
 30
0.0
 10
2.6658
 20
-23.6828
 30
0.0
 10
2.6658
 20
-23.6828
 30
0.0
 10
2.6658
 20
-23.4754
 30
0.0
 10
2.7072
 20
-23.2905
 30
0.0
 10
2.7899
 20
-23.1282
 30
0.0
 10
2.7899
 20
-23.1282
 30
0.0
 10
2.8727
 20
-22.9659
 30
0.0
 10
2.9884
 20
-22.8432
 30
0.0
 10
3.138
 20
-22.7595
 30
0.0
 10
3.138
 20
-22.7595
 30
0.0
 10
3.2871
 20
-22.6762
 30
0.0
 10
3.4532
 20
-22.6343
 30
0.0
 10
3.6361
 20
-22.6343
 30
0.0
 10
3.6361
 20
-22.6343
 30
0.0
 10
3.7594
 20
-22.6343
 30
0.0
 10
3.8671
 20
-22.6503
 30
0.0
 10
3.9593
 20
-22.6833
 30
0.0
 10
3.9593
 20
-22.6833
 30
0.0
 10
4.0515
 20
-22.7157
 30
0.0
 10
4.1512
 20
-22.7726
 30
0.0
 10
4.2575
 20
-22.8535
 30
0.0
  0
SPLINE
  5
AB
330
1F
100
AcDbEntity
  8
ILUSTRACE
 62
   250
100
AcDbSpline
210
0.0
220
0.0
230
1.0
 70
    11
 71
     3
 72
    32
 73
    28
 74
     0
 42
0.0000000001
 43
0.0000000001
 40
0.0
 40
0.0
 40
0.0
 40
0.0
 40
0.125
 40
0.125
 40
0.125
 40
0.125
 40
0.25
 40
0.25
 40
0.25
 40
0.25
 40
0.375
 40
0.375
 40
0.375
 40
0.375
 40
0.5
 40
0.5
 40
0.5
 40
0.5
 40
0.625
 40
0.625
 40
0.625
 40
0.625
 40
0.75
 40
0.75
 40
0.75
 40
0.75
 40
1.0
 40
1.0
 40
1.0
 40
1.0
 10
4.0924
 20
-23.0393
 30
0.0
 10
4.0058
 20
-22.9716
 30
0.0
 10
3.9301
 20
-22.925
 30
0.0
 10
3.8657
 20
-22.9001
 30
0.0
 10
3.8657
 20
-22.9001
 30
0.0
 10
3.8008
 20
-22.8756
 30
0.0
 10
3.7246
 20
-22.8629
 30
0.0
 10
3.6375
 20
-22.8629
 30
0.0
 10
3.6375
 20
-22.8629
 30
0.0
 10
3.4362
 20
-22.8629
 30
0.0
 10
3.2702
 20
-22.9311
 30
0.0
 10
3.1385
 20
-23.0675
 30
0.0
 10
3.1385
 20
-23.0675
 30
0.0
 10
3.0072
 20
-23.204
 30
0.0
 10
2.9414
 20
-23.4076
 30
0.0
 10
2.9414
 20
-23.679
 30
0.0
 10
2.9414
 20
-23.679
 30
0.0
 10
2.9414
 20
-23.7853
 30
0.0
 10
2.9517
 20
-23.8799
 30
0.0
 10
2.972
 20
-23.9627
 30
0.0
 10
2.972
 20
-23.9627
 30
0.0
 10
2.9866
 20
-24.0243
 30
0.0
 10
3.0171
 20
-24.1
 30
0.0
 10
3.0642
 20
-24.1898
 30
0.0
 10
3.0642
 20
-24.1898
 30
0.0
 10
3.0642
 20
-24.1898
 30
0.0
 10
4.0924
 20
-23.0393
 30
0.0
 10
4.0924
 20
-23.0393
 30
0.0
  0
SPLINE
  5
AC
330
1F
100
AcDbEntity
  8
ILUSTRACE
 62
   250
100
AcDbSpline
210
0.0
220
0.0
230
1.0
 70
    11
 71
     3
 72
    28
 73
    24
 74
     0
 42
0.0000000001
 43
0.0000000001
 40
0.0
 40
0.0
 40
0.0
 40
0.0
 40
0.1428571428571428
 40
0.1428571428571428
 40
0.1428571428571428
 40
0.1428571428571428
 40
0.2857142857142857
 40
0.2857142857142857
 40
0.2857142857142857
 40
0.2857142857142857
 40
0.4285714285714285
 40
0.4285714285714285
 40
0.4285714285714285
 40
0.4285714285714285
 40
0.5714285714285714
 40
0.5714285714285714
 40
0.5714285714285714
 40
0.5714285714285714
 40
0.7142857142857143
 40
0.7142857142857143
 40
0.7142857142857143
 40
0.7142857142857143
 40
1.0
 40
1.0
 40
1.0
 40
1.0
 10
4.2053
 20
-23.1814
 30
0.0
 10
4.2053
 20
-23.1814
 30
0.0
 10
3.1813
 20
-24.3277
 30
0.0
 10
3.1813
 20
-24.3277
 30
0.0
 10
3.1813
 20
-24.3277
 30
0.0
 10
3.2518
 20
-24.3855
 30
0.0
 10
3.3172
 20
-24.426
 30
0.0
 10
3.377
 20
-24.449
 30
0.0
 10
3.377
 20
-24.449
 30
0.0
 10
3.455
 20
-24.4796
 30
0.0
 10
3.5397
 20
-24.4946
 30
0.0
 10
3.6305
 20
-24.4946
 30
0.0
 10
3.6305
 20
-24.4946
 30
0.0
 10
3.8309
 20
-24.4946
 30
0.0
 10
3.996
 20
-24.4241
 30
0.0
 10
4.1267
 20
-24.2825
 30
0.0
 10
4.1267
 20
-24.2825
 30
0.0
 10
4.257
 20
-24.1409
 30
0.0
 10
4.3224
 20
-23.9424
 30
0.0
 10
4.3224
 20
-23.687
 30
0.0
 10
4.3224
 20
-23.687
 30
0.0
 10
4.3224
 20
-23.4961
 30
0.0
 10
4.2834
 20
-23.3272
 30
0.0
 10
4.2053
 20
-23.1814
 30
0.0
  0
SPLINE
  5
AD
330
1F
100
AcDbEntity
  8
ILUSTRACE
 62
   250
100
AcDbSpline
210
0.0
220
0.0
230
1.0
 70
    11
 71
     3
 72
    92
 73
    88
 74
     0
 42
0.0000000001
 43
0.0000000001
 40
0.0
 40
0.0
 40
0.0
 40
0.0
 40
0.0434782608695652
 40
0.0434782608695652
 40
0.0434782608695652
 40
0.0434782608695652
 40
0.0869565217391304
 40
0.0869565217391304
 40
0.0869565217391304
 40
0.0869565217391304
 40
0.1304347826086956
 40
0.1304347826086956
 40
0.1304347826086956
 40
0.1304347826086956
 40
0.1739130434782609
 40
0.1739130434782609
 40
0.1739130434782609
 40
0.1739130434782609
 40
0.2173913043478261
 40
0.2173913043478261
 40
0.2173913043478261
 40
0.2173913043478261
 40
0.2608695652173913
 40
0.2608695652173913
 40
0.2608695652173913
 40
0.2608695652173913
 40
0.3043478260869565
 40
0.3043478260869565
 40
0.3043478260869565
 40
0.3043478260869565
 40
0.3478260869565217
 40
0.3478260869565217
 40
0.3478260869565217
 40
0.3478260869565217
 40
0.391304347826087
 40
0.391304347826087
 40
0.391304347826087
 40
0.391304347826087
 40
0.4347826086956522
 40
0.4347826086956522
 40
0.4347826086956522
 40
0.4347826086956522
 40
0.4782608695652174
 40
0.4782608695652174
 40
0.4782608695652174
 40
0.4782608695652174
 40
0.5217391304347826
 40
0.5217391304347826
 40
0.5217391304347826
 40
0.5217391304347826
 40
0.5652173913043478
 40
0.5652173913043478
 40
0.5652173913043478
 40
0.5652173913043478
 40
0.6086956521739131
 40
0.6086956521739131
 40
0.6086956521739131
 40
0.6086956521739131
 40
0.6521739130434783
 40
0.6521739130434783
 40
0.6521739130434783
 40
0.6521739130434783
 40
0.6956521739130435
 40
0.6956521739130435
 40
0.6956521739130435
 40
0.6956521739130435
 40
0.7391304347826086
 40
0.7391304347826086
 40
0.7391304347826086
 40
0.7391304347826086
 40
0.782608695652174
 40
0.782608695652174
 40
0.782608695652174
 40
0.782608695652174
 40
0.8260869565217391
 40
0.8260869565217391
 40
0.8260869565217391
 40
0.8260869565217391
 40
0.8695652173913043
 40
0.8695652173913043
 40
0.8695652173913043
 40
0.8695652173913043
 40
0.9130434782608695
 40
0.9130434782608695
 40
0.9130434782608695
 40
0.9130434782608695
 40
1.0
 40
1.0
 40
1.0
 40
1.0
 10
4.8845
 20
-24.2218
 30
0.0
 10
4.8845
 20
-24.2218
 30
0.0
 10
5.123
 20
-24.1997
 30
0.0
 10
5.123
 20
-24.1997
 30
0.0
 10
5.123
 20
-24.1997
 30
0.0
 10
5.1432
 20
-24.3117
 30
0.0
 10
5.1818
 20
-24.393
 30
0.0
 10
5.2387
 20
-24.4438
 30
0.0
 10
5.2387
 20
-24.4438
 30
0.0
 10
5.2956
 20
-24.4942
 30
0.0
 10
5.3685
 20
-24.5196
 30
0.0
 10
5.4579
 20
-24.5196
 30
0.0
 10
5.4579
 20
-24.5196
 30
0.0
 10
5.5341
 20
-24.5196
 30
0.0
 10
5.6008
 20
-24.5022
 30
0.0
 10
5.6582
 20
-24.4669
 30
0.0
 10
5.6582
 20
-24.4669
 30
0.0
 10
5.7156
 20
-24.4321
 30
0.0
 10
5.7627
 20
-24.3855
 30
0.0
 10
5.7993
 20
-24.3272
 30
0.0
 10
5.7993
 20
-24.3272
 30
0.0
 10
5.8365
 20
-24.2689
 30
0.0
 10
5.8671
 20
-24.1898
 30
0.0
 10
5.892
 20
-24.0911
 30
0.0
 10
5.892
 20
-24.0911
 30
0.0
 10
5.9165
 20
-23.9918
 30
0.0
 10
5.9292
 20
-23.8907
 30
0.0
 10
5.9292
 20
-23.7877
 30
0.0
 10
5.9292
 20
-23.7877
 30
0.0
 10
5.9292
 20
-23.7769
 30
0.0
 10
5.9287
 20
-23.7599
 30
0.0
 10
5.9278
 20
-23.7383
 30
0.0
 10
5.9278
 20
-23.7383
 30
0.0
 10
5.8779
 20
-23.8168
 30
0.0
 10
5.8102
 20
-23.8813
 30
0.0
 10
5.7246
 20
-23.9302
 30
0.0
 10
5.7246
 20
-23.9302
 30
0.0
 10
5.6385
 20
-23.9796
 30
0.0
 10
5.5453
 20
-24.004
 30
0.0
 10
5.4456
 20
-24.004
 30
0.0
 10
5.4456
 20
-24.004
 30
0.0
 10
5.2782
 20
-24.004
 30
0.0
 10
5.1366
 20
-23.9434
 30
0.0
 10
5.0209
 20
-23.822
 30
0.0
 10
5.0209
 20
-23.822
 30
0.0
 10
4.9052
 20
-23.7007
 30
0.0
 10
4.8473
 20
-23.5412
 30
0.0
 10
4.8473
 20
-23.3427
 30
0.0
 10
4.8473
 20
-23.3427
 30
0.0
 10
4.8473
 20
-23.1376
 30
0.0
 10
4.9075
 20
-22.973
 30
0.0
 10
5.0284
 20
-22.8479
 30
0.0
 10
5.0284
 20
-22.8479
 30
0.0
 10
5.1493
 20
-22.7228
 30
0.0
 10
5.3008
 20
-22.6602
 30
0.0
 10
5.4828
 20
-22.6602
 30
0.0
 10
5.4828
 20
-22.6602
 30
0.0
 10
5.614
 20
-22.6602
 30
0.0
 10
5.734
 20
-22.696
 30
0.0
 10
5.8431
 20
-22.7665
 30
0.0
 10
5.8431
 20
-22.7665
 30
0.0
 10
5.9517
 20
-22.8371
 30
0.0
 10
6.0345
 20
-22.9382
 30
0.0
 10
6.091
 20
-23.069
 30
0.0
 10
6.091
 20
-23.069
 30
0.0
 10
6.1474
 20
-23.1997
 30
0.0
 10
6.1756
 20
-23.3893
 30
0.0
 10
6.1756
 20
-23.6376
 30
0.0
 10
6.1756
 20
-23.6376
 30
0.0
 10
6.1756
 20
-23.8954
 30
0.0
 10
6.1479
 20
-24.1009
 30
0.0
 10
6.0919
 20
-24.2543
 30
0.0
 10
6.0919
 20
-24.2543
 30
0.0
 10
6.0355
 20
-24.4072
 30
0.0
 10
5.9522
 20
-24.5233
 30
0.0
 10
5.8417
 20
-24.6033
 30
0.0
 10
5.8417
 20
-24.6033
 30
0.0
 10
5.7307
 20
-24.6833
 30
0.0
 10
5.6013
 20
-24.7232
 30
0.0
 10
5.4522
 20
-24.7232
 30
0.0
 10
5.4522
 20
-24.7232
 30
0.0
 10
5.2942
 20
-24.7232
 30
0.0
 10
5.1653
 20
-24.6795
 30
0.0
 10
5.0651
 20
-24.5915
 30
0.0
 10
5.0651
 20
-24.5915
 30
0.0
 10
4.9649
 20
-24.504
 30
0.0
 10
4.9047
 20
-24.3808
 30
0.0
 10
4.8845
 20
-24.2218
 30
0.0
  0
SPLINE
  5
AE
330
1F
100
AcDbEntity
  8
ILUSTRACE
 62
   250
100
AcDbSpline
210
0.0
220
0.0
230
1.0
 70
    11
 71
     3
 72
    36
 73
    32
 74
     0
 42
0.0000000001
 43
0.0000000001
 40
0.0
 40
0.0
 40
0.0
 40
0.0
 40
0.1111111111111111
 40
0.1111111111111111
 40
0.1111111111111111
 40
0.1111111111111111
 40
0.2222222222222222
 40
0.2222222222222222
 40
0.2222222222222222
 40
0.2222222222222222
 40
0.3333333333333333
 40
0.3333333333333333
 40
0.3333333333333333
 40
0.3333333333333333
 40
0.4444444444444444
 40
0.4444444444444444
 40
0.4444444444444444
 40
0.4444444444444444
 40
0.5555555555555556
 40
0.5555555555555556
 40
0.5555555555555556
 40
0.5555555555555556
 40
0.6666666666666666
 40
0.6666666666666666
 40
0.6666666666666666
 40
0.6666666666666666
 40
0.7777777777777778
 40
0.7777777777777778
 40
0.7777777777777778
 40
0.7777777777777778
 40
1.0
 40
1.0
 40
1.0
 40
1.0
 10
5.9
 20
-23.33
 30
0.0
 10
5.9
 20
-23.188
 30
0.0
 10
5.8624
 20
-23.0746
 30
0.0
 10
5.7866
 20
-22.9913
 30
0.0
 10
5.7866
 20
-22.9913
 30
0.0
 10
5.7104
 20
-22.9076
 30
0.0
 10
5.6197
 20
-22.8658
 30
0.0
 10
5.5129
 20
-22.8658
 30
0.0
 10
5.5129
 20
-22.8658
 30
0.0
 10
5.4028
 20
-22.8658
 30
0.0
 10
5.3069
 20
-22.9109
 30
0.0
 10
5.225
 20
-23.0008
 30
0.0
 10
5.225
 20
-23.0008
 30
0.0
 10
5.1432
 20
-23.0911
 30
0.0
 10
5.1023
 20
-23.2077
 30
0.0
 10
5.1023
 20
-23.3507
 30
0.0
 10
5.1023
 20
-23.3507
 30
0.0
 10
5.1023
 20
-23.4796
 30
0.0
 10
5.1413
 20
-23.584
 30
0.0
 10
5.2189
 20
-23.6644
 30
0.0
 10
5.2189
 20
-23.6644
 30
0.0
 10
5.2965
 20
-23.7449
 30
0.0
 10
5.392
 20
-23.7849
 30
0.0
 10
5.5058
 20
-23.7849
 30
0.0
 10
5.5058
 20
-23.7849
 30
0.0
 10
5.6211
 20
-23.7849
 30
0.0
 10
5.7151
 20
-23.7449
 30
0.0
 10
5.789
 20
-23.6644
 30
0.0
 10
5.789
 20
-23.6644
 30
0.0
 10
5.8633
 20
-23.584
 30
0.0
 10
5.9
 20
-23.4725
 30
0.0
 10
5.9
 20
-23.33
 30
0.0
  0
SPLINE
  5
AF
330
1F
100
AcDbEntity
  8
ILUSTRACE
 62
   250
100
AcDbSpline
210
0.0
220
0.0
230
1.0
 70
    11
 71
     3
 72
   124
 73
   120
 74
     0
 42
0.0000000001
 43
0.0000000001
 40
0.0
 40
0.0
 40
0.0
 40
0.0
 40
0.032258064516129
 40
0.032258064516129
 40
0.032258064516129
 40
0.032258064516129
 40
0.0645161290322581
 40
0.0645161290322581
 40
0.0645161290322581
 40
0.0645161290322581
 40
0.0967741935483871
 40
0.0967741935483871
 40
0.0967741935483871
 40
0.0967741935483871
 40
0.1290322580645161
 40
0.1290322580645161
 40
0.1290322580645161
 40
0.1290322580645161
 40
0.1612903225806452
 40
0.1612903225806452
 40
0.1612903225806452
 40
0.1612903225806452
 40
0.1935483870967742
 40
0.1935483870967742
 40
0.1935483870967742
 40
0.1935483870967742
 40
0.2258064516129032
 40
0.2258064516129032
 40
0.2258064516129032
 40
0.2258064516129032
 40
0.2580645161290323
 40
0.2580645161290323
 40
0.2580645161290323
 40
0.2580645161290323
 40
0.2903225806451613
 40
0.2903225806451613
 40
0.2903225806451613
 40
0.2903225806451613
 40
0.3225806451612903
 40
0.3225806451612903
 40
0.3225806451612903
 40
0.3225806451612903
 40
0.3548387096774194
 40
0.3548387096774194
 40
0.3548387096774194
 40
0.3548387096774194
 40
0.3870967741935484
 40
0.3870967741935484
 40
0.3870967741935484
 40
0.3870967741935484
 40
0.4193548387096774
 40
0.4193548387096774
 40
0.4193548387096774
 40
0.4193548387096774
 40
0.4516129032258064
 40
0.4516129032258064
 40
0.4516129032258064
 40
0.4516129032258064
 40
0.4838709677419355
 40
0.4838709677419355
 40
0.4838709677419355
 40
0.4838709677419355
 40
0.5161290322580645
 40
0.5161290322580645
 40
0.5161290322580645
 40
0.5161290322580645
 40
0.5483870967741935
 40
0.5483870967741935
 40
0.5483870967741935
 40
0.5483870967741935
 40
0.5806451612903226
 40
0.5806451612903226
 40
0.5806451612903226
 40
0.5806451612903226
 40
0.6129032258064516
 40
0.6129032258064516
 40
0.6129032258064516
 40
0.6129032258064516
 40
0.6451612903225806
 40
0.6451612903225806
 40
0.6451612903225806
 40
0.6451612903225806
 40
0.6774193548387096
 40
0.6774193548387096
 40
0.6774193548387096
 40
0.6774193548387096
 40
0.7096774193548387
 40
0.7096774193548387
 40
0.7096774193548387
 40
0.7096774193548387
 40
0.7419354838709677
 40
0.7419354838709677
 40
0.7419354838709677
 40
0.7419354838709677
 40
0.7741935483870968
 40
0.7741935483870968
 40
0.7741935483870968
 40
0.7741935483870968
 40
0.8064516129032258
 40
0.8064516129032258
 40
0.8064516129032258
 40
0.8064516129032258
 40
0.8387096774193549
 40
0.8387096774193549
 40
0.8387096774193549
 40
0.8387096774193549
 40
0.8709677419354839
 40
0.8709677419354839
 40
0.8709677419354839
 40
0.8709677419354839
 40
0.9032258064516129
 40
0.9032258064516129
 40
0.9032258064516129
 40
0.9032258064516129
 40
0.9354838709677419
 40
0.9354838709677419
 40
0.9354838709677419
 40
0.9354838709677419
 40
1.0
 40
1.0
 40
1.0
 40
1.0
 10
6.4183
 20
-24.1555
 30
0.0
 10
6.4183
 20
-24.1555
 30
0.0
 10
6.6662
 20
-24.1226
 30
0.0
 10
6.6662
 20
-24.1226
 30
0.0
 10
6.6662
 20
-24.1226
 30
0.0
 10
6.6949
 20
-24.2632
 30
0.0
 10
6.7434
 20
-24.3643
 30
0.0
 10
6.8116
 20
-24.4264
 30
0.0
 10
6.8116
 20
-24.4264
 30
0.0
 10
6.8802
 20
-24.4885
 30
0.0
 10
6.9635
 20
-24.5196
 30
0.0
 10
7.0618
 20
-24.5196
 30
0.0
 10
7.0618
 20
-24.5196
 30
0.0
 10
7.1784
 20
-24.5196
 30
0.0
 10
7.2772
 20
-24.4791
 30
0.0
 10
7.3577
 20
-24.3982
 30
0.0
 10
7.3577
 20
-24.3982
 30
0.0
 10
7.4376
 20
-24.3173
 30
0.0
 10
7.4781
 20
-24.2171
 30
0.0
 10
7.4781
 20
-24.0976
 30
0.0
 10
7.4781
 20
-24.0976
 30
0.0
 10
7.4781
 20
-23.9838
 30
0.0
 10
7.4409
 20
-23.8897
 30
0.0
 10
7.3666
 20
-23.8159
 30
0.0
 10
7.3666
 20
-23.8159
 30
0.0
 10
7.2918
 20
-23.7421
 30
0.0
 10
7.1973
 20
-23.7049
 30
0.0
 10
7.0825
 20
-23.7049
 30
0.0
 10
7.0825
 20
-23.7049
 30
0.0
 10
7.0355
 20
-23.7049
 30
0.0
 10
6.9771
 20
-23.7143
 30
0.0
 10
6.9075
 20
-23.7326
 30
0.0
 10
6.9075
 20
-23.7326
 30
0.0
 10
6.9075
 20
-23.7326
 30
0.0
 10
6.9353
 20
-23.5149
 30
0.0
 10
6.9353
 20
-23.5149
 30
0.0
 10
6.9353
 20
-23.5149
 30
0.0
 10
6.9517
 20
-23.5167
 30
0.0
 10
6.9649
 20
-23.5177
 30
0.0
 10
6.9752
 20
-23.5177
 30
0.0
 10
6.9752
 20
-23.5177
 30
0.0
 10
7.0806
 20
-23.5177
 30
0.0
 10
7.1756
 20
-23.4899
 30
0.0
 10
7.2603
 20
-23.4349
 30
0.0
 10
7.2603
 20
-23.4349
 30
0.0
 10
7.345
 20
-23.3799
 30
0.0
 10
7.3873
 20
-23.2947
 30
0.0
 10
7.3873
 20
-23.18
 30
0.0
 10
7.3873
 20
-23.18
 30
0.0
 10
7.3873
 20
-23.0892
 30
0.0
 10
7.3562
 20
-23.0135
 30
0.0
 10
7.2946
 20
-22.9542
 30
0.0
 10
7.2946
 20
-22.9542
 30
0.0
 10
7.233
 20
-22.8945
 30
0.0
 10
7.1535
 20
-22.8643
 30
0.0
 10
7.0561
 20
-22.8643
 30
0.0
 10
7.0561
 20
-22.8643
 30
0.0
 10
6.9597
 20
-22.8643
 30
0.0
 10
6.8793
 20
-22.8949
 30
0.0
 10
6.8153
 20
-22.9551
 30
0.0
 10
6.8153
 20
-22.9551
 30
0.0
 10
6.7509
 20
-23.0158
 30
0.0
 10
6.7095
 20
-23.1071
 30
0.0
 10
6.6911
 20
-23.2284
 30
0.0
 10
6.6911
 20
-23.2284
 30
0.0
 10
6.6911
 20
-23.2284
 30
0.0
 10
6.4433
 20
-23.1842
 30
0.0
 10
6.4433
 20
-23.1842
 30
0.0
 10
6.4433
 20
-23.1842
 30
0.0
 10
6.4734
 20
-23.0177
 30
0.0
 10
6.5425
 20
-22.8888
 30
0.0
 10
6.6498
 20
-22.7976
 30
0.0
 10
6.6498
 20
-22.7976
 30
0.0
 10
6.7575
 20
-22.7063
 30
0.0
 10
6.8911
 20
-22.6602
 30
0.0
 10
7.051
 20
-22.6602
 30
0.0
 10
7.051
 20
-22.6602
 30
0.0
 10
7.161
 20
-22.6602
 30
0.0
 10
7.2626
 20
-22.6842
 30
0.0
 10
7.3553
 20
-22.7312
 30
0.0
 10
7.3553
 20
-22.7312
 30
0.0
 10
7.448
 20
-22.7787
 30
0.0
 10
7.519
 20
-22.8432
 30
0.0
 10
7.5684
 20
-22.925
 30
0.0
 10
7.5684
 20
-22.925
 30
0.0
 10
7.6173
 20
-23.0069
 30
0.0
 10
7.6422
 20
-23.0934
 30
0.0
 10
7.6422
 20
-23.1856
 30
0.0
 10
7.6422
 20
-23.1856
 30
0.0
 10
7.6422
 20
-23.2726
 30
0.0
 10
7.6187
 20
-23.3521
 30
0.0
 10
7.5717
 20
-23.4241
 30
0.0
 10
7.5717
 20
-23.4241
 30
0.0
 10
7.5246
 20
-23.4956
 30
0.0
 10
7.4555
 20
-23.5525
 30
0.0
 10
7.3638
 20
-23.5948
 30
0.0
 10
7.3638
 20
-23.5948
 30
0.0
 10
7.4832
 20
-23.6221
 30
0.0
 10
7.5759
 20
-23.6795
 30
0.0
 10
7.6422
 20
-23.7665
 30
0.0
 10
7.6422
 20
-23.7665
 30
0.0
 10
7.7081
 20
-23.8531
 30
0.0
 10
7.741
 20
-23.9617
 30
0.0
 10
7.741
 20
-24.092
 30
0.0
 10
7.741
 20
-24.092
 30
0.0
 10
7.741
 20
-24.2684
 30
0.0
 10
7.677
 20
-24.418
 30
0.0
 10
7.5482
 20
-24.5407
 30
0.0
 10
7.5482
 20
-24.5407
 30
0.0
 10
7.4197
 20
-24.6635
 30
0.0
 10
7.257
 20
-24.7246
 30
0.0
 10
7.0604
 20
-24.7246
 30
0.0
 10
7.0604
 20
-24.7246
 30
0.0
 10
6.8831
 20
-24.7246
 30
0.0
 10
6.7358
 20
-24.672
 30
0.0
 10
6.6187
 20
-24.5661
 30
0.0
 10
6.6187
 20
-24.5661
 30
0.0
 10
6.5016
 20
-24.4608
 30
0.0
 10
6.4348
 20
-24.3239
 30
0.0
 10
6.4183
 20
-24.1555
 30
0.0
  0
ENDSEC
  0
SECTION
  2
OBJECTS
  0
DICTIONARY
  5
C
330
0
100
AcDbDictionary
  3
ACAD_GROUP
350
D
  3
ACAD_LAYOUT
350
1A
  3
ACAD_MATERIAL
350
3B
  3
ACAD_MLEADERSTYLE
350
D2
  3
ACAD_MLINESTYLE
350
17
  3
ACAD_PLOTSETTINGS
350
19
  3
ACAD_VISUALSTYLE
350
2A
  3
ACDBHEADERROUNDTRIPXREC
350
B0
  3
ACDBVARIABLEDICTIONARY
350
D0
  0
DICTIONARY
  5
D
102
{ACAD_REACTORS
330
C
102
}
330
C
100
AcDbDictionary
  0
DICTIONARY
  5
1A
102
{ACAD_REACTORS
330
C
102
}
330
C
100
AcDbDictionary
  0
DICTIONARY
  5
3B
102
{ACAD_REACTORS
330
C
102
}
330
C
100
AcDbDictionary
  3
BYBLOCK
350
3D
  3
BYLAYER
350
3C
  3
GLOBAL
350
3E
  0
DICTIONARY
  5
D2
102
{ACAD_REACTORS
330
C
102
}
330
C
100
AcDbDictionary
  0
DICTIONARY
  5
17
102
{ACAD_REACTORS
330
C
102
}
330
C
100
AcDbDictionary
  3
STANDARD
350
18
  0
DICTIONARY
  5
19
102
{ACAD_REACTORS
330
C
102
}
330
C
100
AcDbDictionary
  0
DICTIONARY
  5
2A
102
{ACAD_REACTORS
330
C
102
}
330
C
100
AcDbDictionary
  3
2DWIREFRAME
350
2F
  3
3D_HIDDEN
350
31
  3
3DWIREFRAME
350
30
  3
BASIC
350
32
  3
BRIGHTEN
350
36
  3
COLORCHANGE
350
3A
  3
CONCEPTUAL
350
34
  3
DIM
350
35
  3
FACEPATTERN
350
39
  3
FLAT
350
2B
  3
FLATWITHEDGES
350
2C
  3
GOURAUD
350
2D
  3
GOURAUDWITHEDGES
350
2E
  3
LINEPATTERN
350
38
  3
REALISTIC
350
33
  3
THICKEN
350
37
  0
DICTIONARY
  5
B0
102
{ACAD_REACTORS
330
C
102
}
330
C
100
AcDbDictionary
  3
CEPSNTYPE
350
B9
  3
DIMSTYLEDATA
350
CF
  3
FINGERPRINTGUID
350
BA
  3
HYPERLINKBASE
350
B3
  3
INSUNITS
350
B8
  3
LAYOUTDICT
350
B5
  3
LWETCUNION
350
B7
  3
PLOTSETDICT
350
B6
  3
PSVPSCALE
350
BC
  3
PUCSBASE
350
BF
  3
PUCSORGBACK
350
C5
  3
PUCSORGBOTTOM
350
C1
  3
PUCSORGFRONT
350
C4
  3
PUCSORGLEFT
350
C2
  3
PUCSORGRIGHT
350
C3
  3
PUCSORGTOP
350
C0
  3
PUCSORTHOREF
350
BD
  3
PUCSORTHOVIEW
350
BE
  3
STYLESHEET
350
B4
  3
TSTACKALIGN
350
B1
  3
TSTACKSIZE
350
B2
  3
UCSBASE
350
C8
  3
UCSORGBACK
350
CE
  3
UCSORGBOTTOM
350
CA
  3
UCSORGFRONT
350
CD
  3
UCSORGLEFT
350
CB
  3
UCSORGRIGHT
350
CC
  3
UCSORGTOP
350
C9
  3
UCSORTHOREF
350
C6
  3
UCSORTHOVIEW
350
C7
  3
VERSIONGUID
350
BB
  0
DICTIONARY
  5
D0
102
{ACAD_REACTORS
330
C
102
}
330
C
100
AcDbDictionary
  3
DIMASSOC
350
D3
  3
HIDETEXT
350
D4
  0
MATERIAL
  5
3D
102
{ACAD_REACTORS
330
3B
102
}
102
{ACAD_XDICTIONARY
360
D7
102
}
330
3B
100
AcDbMaterial
  1
ByBlock
  0
MATERIAL
  5
3C
102
{ACAD_REACTORS
330
3B
102
}
102
{ACAD_XDICTIONARY
360
D5
102
}
330
3B
100
AcDbMaterial
  1
ByLayer
  0
MATERIAL
  5
3E
102
{ACAD_REACTORS
330
3B
102
}
102
{ACAD_XDICTIONARY
360
D9
102
}
330
3B
100
AcDbMaterial
  1
Global
  0
MLINESTYLE
  5
18
102
{ACAD_REACTORS
330
17
102
}
330
17
100
AcDbMlineStyle
  2
Standard
 70
     0
  3

 62
   256
 51
90.0
 52
90.0
 71
     2
 49
0.5
 62
   256
  6
BYLAYER
 49
-0.5
 62
   256
  6
BYLAYER
  0
ACAD_PROXY_OBJECT
  5
2F
102
{ACAD_REACTORS
330
2A
102
}
330
2A
100
AcDbProxyObject
 90
      499
 91
      501
 93
      436
310
42CC9915DA5C99599C985B595049028333333333333E3BF0000000000000FB0107901411070040501600405405064090741402480A0340
1001
ACAD
1000
AcDbSavedByObjectVersion
1070
     0
  0
ACAD_PROXY_OBJECT
  5
31
102
{ACAD_REACTORS
330
2A
102
}
330
2A
100
AcDbProxyObject
 90
      499
 91
      501
 93
      500
310
424CD108121A5919195B90640502408333333333333E3BF0000000000000FB01079024090700405020000000000001110200405405064090740C02480A0340
1001
ACAD
1000
AcDbSavedByObjectVersion
1070
     0
  0
ACAD_PROXY_OBJECT
  5
30
102
{ACAD_REACTORS
330
2A
102
}
330
2A
100
AcDbProxyObject
 90
      499
 91
      501
 93
      436
310
42CCD915DA5C99599C985B595059028333333333333E3BF0000000000000FB0107901411070040501600405405064090741402480A0340
1001
ACAD
1000
AcDbSavedByObjectVersion
1070
     0
  0
ACAD_PROXY_OBJECT
  5
32
102
{ACAD_REACTORS
330
2A
102
}
330
2A
100
AcDbProxyObject
 90
      499
 91
      501
 93
      388
310
4150985CDA58D07406404333333333333E3BF0000000000000FB0107A41107004050150841D405064090741402480A0350
1001
ACAD
1000
AcDbSavedByObjectVersion
1070
     0
  0
ACAD_PROXY_OBJECT
  5
36
102
{ACAD_REACTORS
330
2A
102
}
330
2A
100
AcDbProxyObject
 90
      499
 91
      501
 93
      428
310
42109C9A59DA1D195B90C409028333333333333E3BF0000000000000FB010790141107004050150841D405064090741402480A029950
1001
ACAD
1000
AcDbSavedByObjectVersion
1070
     0
  0
ACAD_PROXY_OBJECT
  5
3A
102
{ACAD_REACTORS
330
2A
102
}
330
2A
100
AcDbProxyObject
 90
      499
 91
      501
 93
      452
310
42D0DBDB1BDC90DA185B99D95104090240C333333333333E3BF0000000000000FB0108901411070040501508421405064090741402480A0350
1001
ACAD
1000
AcDbSavedByObjectVersion
1070
     0
  0
ACAD_PROXY_OBJECT
  5
34
102
{ACAD_REACTORS
330
2A
102
}
330
2A
100
AcDbProxyObject
 90
      499
 91
      501
 93
      500
310
4290DBDB98D95C1D1D585B10940D028333333333333E3BF0000000000000FB0107902409070040501000000000000111010841D405064090740C02480A0340
1001
ACAD
1000
AcDbSavedByObjectVersion
1070
     0
  0
ACAD_PROXY_OBJECT
  5
35
102
{ACAD_REACTORS
330
2A
102
}
330
2A
100
AcDbProxyObject
 90
      499
 91
      501
 93
      412
310
40D11A5B50B409028333333333333E3BF0000000000000FB010790141107004050150841D405064090741402480A02677FFFFFD0
1001
ACAD
1000
AcDbSavedByObjectVersion
1070
     0
  0
ACAD_PROXY_OBJECT
  5
39
102
{ACAD_REACTORS
330
2A
102
}
330
2A
100
AcDbProxyObject
 90
      499
 91
      501
 93
      444
310
42D19858D95C185D1D195C9B90F409028333333333333E3BF0000000000000FB010790141107004050150841D405064090741402480A0350
1001
ACAD
1000
AcDbSavedByObjectVersion
1070
     0
  0
ACAD_PROXY_OBJECT
  5
2B
102
{ACAD_REACTORS
330
2A
102
}
330
2A
100
AcDbProxyObject
 90
      499
 91
      501
 93
      388
310
41119B185D240901404333333333333E3BF0000000000000F9010740A41107004050150841D405064090741402480A1B50
1001
ACAD
1000
AcDbSavedByObjectVersion
1070
     0
  0
ACAD_PROXY_OBJECT
  5
2C
102
{ACAD_REACTORS
330
2A
102
}
330
2A
100
AcDbProxyObject
 90
      499
 91
      501
 93
      476
310
43519B185D15DA5D1A115919D95CD0140901404333333333333E3BF0000000000000F9010740901411070040501600405405064090741402480A1B50
1001
ACAD
1000
AcDbSavedByObjectVersion
1070
     0
  0
ACAD_PROXY_OBJECT
  5
2D
102
{ACAD_REACTORS
330
2A
102
}
330
2A
100
AcDbProxyObject
 90
      499
 91
      501
 93
      412
310
41D1DBDD5C985D5910240902404333333333333E3BF0000000000000F9010740A411070040501641D405064090741402480A1B50
1001
ACAD
1000
AcDbSavedByObjectVersion
1070
     0
  0
ACAD_PROXY_OBJECT
  5
2E
102
{ACAD_REACTORS
330
2A
102
}
330
2A
100
AcDbProxyObject
 90
      499
 91
      501
 93
      500
310
4411DBDD5C985D5915DA5D1A115919D95CD0340902404333333333333E3BF0000000000000F9010740901411070040501600405405064090741402480A1B50
1001
ACAD
1000
AcDbSavedByObjectVersion
1070
     0
  0
ACAD_PROXY_OBJECT
  5
38
102
{ACAD_REACTORS
330
2A
102
}
330
2A
100
AcDbProxyObject
 90
      499
 91
      501
 93
      444
310
42D31A5B995C185D1D195C9B90E409028333333333333E3BF0000000000000FB010790141107004050750841D405064090741402483A0350
1001
ACAD
1000
AcDbSavedByObjectVersion
1070
     0
  0
ACAD_PROXY_OBJECT
  5
33
102
{ACAD_REACTORS
330
2A
102
}
330
2A
100
AcDbProxyObject
 90
      499
 91
      501
 93
      420
310
425499585B1A5CDD1A58D08409028333333333333E3BF0000000000000FB01079019070040501508421405064090741402480A1B40
1001
ACAD
1000
AcDbSavedByObjectVersion
1070
     0
  0
ACAD_PROXY_OBJECT
  5
37
102
{ACAD_REACTORS
330
2A
102
}
330
2A
100
AcDbProxyObject
 90
      499
 91
      501
 93
      412
310
41D51A1A58DAD95B90D409028333333333333E3BF0000000000000FB010790141107004050150C41D405064090741402480A0350
1001
ACAD
1000
AcDbSavedByObjectVersion
1070
     0
  0
XRECORD
  5
B9
102
{ACAD_REACTORS
330
B0
102
}
330
B0
100
AcDbXrecord
 90
        0
  0
XRECORD
  5
CF
102
{ACAD_REACTORS
330
B0
102
}
330
B0
100
AcDbXrecord
1000
DSTYLE
1002
{
1070
   340
340
11
1002
}
  0
XRECORD
  5
BA
102
{ACAD_REACTORS
330
B0
102
}
330
B0
100
AcDbXrecord
  1
{DD7C64C1-20B8-48CF-A43B-1336060DBB10}
  0
XRECORD
  5
B3
102
{ACAD_REACTORS
330
B0
102
}
330
B0
100
AcDbXrecord
  1

  0
XRECORD
  5
B8
102
{ACAD_REACTORS
330
B0
102
}
330
B0
100
AcDbXrecord
 90
        4
  0
XRECORD
  5
B5
102
{ACAD_REACTORS
330
B0
102
}
330
B0
100
AcDbXrecord
340
1A
  0
XRECORD
  5
B7
102
{ACAD_REACTORS
330
B0
102
}
330
B0
100
AcDbXrecord
 90
    10781
  0
XRECORD
  5
B6
102
{ACAD_REACTORS
330
B0
102
}
330
B0
100
AcDbXrecord
340
19
  0
XRECORD
  5
BC
102
{ACAD_REACTORS
330
B0
102
}
330
B0
100
AcDbXrecord
 40
0.0
  0
XRECORD
  5
BF
102
{ACAD_REACTORS
330
B0
102
}
330
B0
100
AcDbXrecord
340
0
  0
XRECORD
  5
C5
102
{ACAD_REACTORS
330
B0
102
}
330
B0
100
AcDbXrecord
 10
0.0
 20
0.0
 30
0.0
  0
XRECORD
  5
C1
102
{ACAD_REACTORS
330
B0
102
}
330
B0
100
AcDbXrecord
 10
0.0
 20
0.0
 30
0.0
  0
XRECORD
  5
C4
102
{ACAD_REACTORS
330
B0
102
}
330
B0
100
AcDbXrecord
 10
0.0
 20
0.0
 30
0.0
  0
XRECORD
  5
C2
102
{ACAD_REACTORS
330
B0
102
}
330
B0
100
AcDbXrecord
 10
0.0
 20
0.0
 30
0.0
  0
XRECORD
  5
C3
102
{ACAD_REACTORS
330
B0
102
}
330
B0
100
AcDbXrecord
 10
0.0
 20
0.0
 30
0.0
  0
XRECORD
  5
C0
102
{ACAD_REACTORS
330
B0
102
}
330
B0
100
AcDbXrecord
 10
0.0
 20
0.0
 30
0.0
  0
XRECORD
  5
BD
102
{ACAD_REACTORS
330
B0
102
}
330
B0
100
AcDbXrecord
340
0
  0
XRECORD
  5
BE
102
{ACAD_REACTORS
330
B0
102
}
330
B0
100
AcDbXrecord
 70
     0
  0
XRECORD
  5
B4
102
{ACAD_REACTORS
330
B0
102
}
330
B0
100
AcDbXrecord
  1

  0
XRECORD
  5
B1
102
{ACAD_REACTORS
330
B0
102
}
330
B0
100
AcDbXrecord
 90
        1
  0
XRECORD
  5
B2
102
{ACAD_REACTORS
330
B0
102
}
330
B0
100
AcDbXrecord
 90
       70
  0
XRECORD
  5
C8
102
{ACAD_REACTORS
330
B0
102
}
330
B0
100
AcDbXrecord
340
0
  0
XRECORD
  5
CE
102
{ACAD_REACTORS
330
B0
102
}
330
B0
100
AcDbXrecord
 10
0.0
 20
0.0
 30
0.0
  0
XRECORD
  5
CA
102
{ACAD_REACTORS
330
B0
102
}
330
B0
100
AcDbXrecord
 10
0.0
 20
0.0
 30
0.0
  0
XRECORD
  5
CD
102
{ACAD_REACTORS
330
B0
102
}
330
B0
100
AcDbXrecord
 10
0.0
 20
0.0
 30
0.0
  0
XRECORD
  5
CB
102
{ACAD_REACTORS
330
B0
102
}
330
B0
100
AcDbXrecord
 10
0.0
 20
0.0
 30
0.0
  0
XRECORD
  5
CC
102
{ACAD_REACTORS
330
B0
102
}
330
B0
100
AcDbXrecord
 10
0.0
 20
0.0
 30
0.0
  0
XRECORD
  5
C9
102
{ACAD_REACTORS
330
B0
102
}
330
B0
100
AcDbXrecord
 10
0.0
 20
0.0
 30
0.0
  0
XRECORD
  5
C6
102
{ACAD_REACTORS
330
B0
102
}
330
B0
100
AcDbXrecord
340
0
  0
XRECORD
  5
C7
102
{ACAD_REACTORS
330
B0
102
}
330
B0
100
AcDbXrecord
 70
     0
  0
XRECORD
  5
BB
102
{ACAD_REACTORS
330
B0
102
}
330
B0
100
AcDbXrecord
  1
{FAEB1C32-E019-11D5-929B-00C0DF256EC4}
  0
DICTIONARYVAR
  5
D3
102
{ACAD_REACTORS
330
D0
102
}
330
D0
100
DictionaryVariables
280
     0
  1
2
  0
DICTIONARYVAR
  5
D4
102
{ACAD_REACTORS
330
D0
102
}
330
D0
100
DictionaryVariables
280
     0
  1
1
  0
DICTIONARY
  5
D7
330
3D
100
AcDbDictionary
280
     1
  3
ACAD_XREC_ROUNDTRIP
360
D8
  0
DICTIONARY
  5
D5
330
3C
100
AcDbDictionary
280
     1
  3
ACAD_XREC_ROUNDTRIP
360
D6
  0
DICTIONARY
  5
D9
330
3E
100
AcDbDictionary
280
     1
  3
ACAD_XREC_ROUNDTRIP
360
DA
  0
XRECORD
  5
D8
102
{ACAD_REACTORS
330
D7
102
}
330
D7
100
AcDbXrecord
102
MATERIAL
148
0.0
149
0.0
149
0.0
 93
        0
 94
      127
282
     0
 72
     1
 77
     1
171
     1
175
     1
179
     1
273
     0
  0
XRECORD
  5
D6
102
{ACAD_REACTORS
330
D5
102
}
330
D5
100
AcDbXrecord
102
MATERIAL
148
0.0
149
0.0
149
0.0
 93
        0
 94
      127
282
     0
 72
     1
 77
     1
171
     1
175
     1
179
     1
273
     0
  0
XRECORD
  5
DA
102
{ACAD_REACTORS
330
D9
102
}
330
D9
100
AcDbXrecord
102
MATERIAL
148
0.0
149
0.0
149
0.0
 93
        0
 94
      127
282
     0
 72
     1
 77
     1
171
     1
175
     1
179
     1
273
     0
  0
ENDSEC
  0
EOF
