  0
SECTION
  2
HEADER
  9
$ACADVER
  1
AC1015
  9
$ACADMAINTVER
 70
     6
  9
$DWGCODEPAGE
  3
ANSI_1250
  9
$INSBASE
 10
0.0
 20
0.0
 30
0.0
  9
$EXTMIN
 10
-34.1602
 20
-19.7898
 30
0.0
  9
$EXTMAX
 10
34.1601
 20
19.7898
 30
0.0
  9
$LIMMIN
 10
0.0
 20
0.0
  9
$LIMMAX
 10
12.0
 20
9.0
  9
$ORTHOMODE
 70
     0
  9
$REGENMODE
 70
     1
  9
$FILLMODE
 70
     1
  9
$QTEXTMODE
 70
     0
  9
$MIRRTEXT
 70
     1
  9
$LTSCALE
 40
1.0
  9
$ATTMODE
 70
     1
  9
$TEXTSIZE
 40
0.2
  9
$TRACEWID
 40
0.05
  9
$TEXTSTYLE
  7
Standard
  9
$CLAYER
  8
0
  9
$CELTYPE
  6
ByLayer
  9
$CECOLOR
 62
   256
  9
$CELTSCALE
 40
1.0
  9
$DISPSILH
 70
     0
  9
$DIMSCALE
 40
1.0
  9
$DIMASZ
 40
0.18
  9
$DIMEXO
 40
0.0625
  9
$DIMDLI
 40
0.38
  9
$DIMRND
 40
0.0
  9
$DIMDLE
 40
0.0
  9
$DIMEXE
 40
0.18
  9
$DIMTP
 40
0.0
  9
$DIMTM
 40
0.0
  9
$DIMTXT
 40
0.18
  9
$DIMCEN
 40
0.09
  9
$DIMTSZ
 40
0.0
  9
$DIMTOL
 70
     0
  9
$DIMLIM
 70
     0
  9
$DIMTIH
 70
     1
  9
$DIMTOH
 70
     1
  9
$DIMSE1
 70
     0
  9
$DIMSE2
 70
     0
  9
$DIMTAD
 70
     0
  9
$DIMZIN
 70
     0
  9
$DIMBLK
  1

  9
$DIMASO
 70
     1
  9
$DIMSHO
 70
     1
  9
$DIMPOST
  1

  9
$DIMAPOST
  1

  9
$DIMALT
 70
     0
  9
$DIMALTD
 70
     2
  9
$DIMALTF
 40
25.4
  9
$DIMLFAC
 40
1.0
  9
$DIMTOFL
 70
     0
  9
$DIMTVP
 40
0.0
  9
$DIMTIX
 70
     0
  9
$DIMSOXD
 70
     0
  9
$DIMSAH
 70
     0
  9
$DIMBLK1
  1

  9
$DIMBLK2
  1

  9
$DIMSTYLE
  2
Standard
  9
$DIMCLRD
 70
     0
  9
$DIMCLRE
 70
     0
  9
$DIMCLRT
 70
     0
  9
$DIMTFAC
 40
1.0
  9
$DIMGAP
 40
0.09
  9
$DIMJUST
 70
     0
  9
$DIMSD1
 70
     0
  9
$DIMSD2
 70
     0
  9
$DIMTOLJ
 70
     1
  9
$DIMTZIN
 70
     0
  9
$DIMALTZ
 70
     0
  9
$DIMALTTZ
 70
     0
  9
$DIMUPT
 70
     0
  9
$DIMDEC
 70
     4
  9
$DIMTDEC
 70
     4
  9
$DIMALTU
 70
     2
  9
$DIMALTTD
 70
     2
  9
$DIMTXSTY
  7
Standard
  9
$DIMAUNIT
 70
     0
  9
$DIMADEC
 70
     0
  9
$DIMALTRND
 40
0.0
  9
$DIMAZIN
 70
     0
  9
$DIMDSEP
 70
    46
  9
$DIMATFIT
 70
     3
  9
$DIMFRAC
 70
     0
  9
$DIMLDRBLK
  1

  9
$DIMLUNIT
 70
     2
  9
$DIMLWD
 70
    -2
  9
$DIMLWE
 70
    -2
  9
$DIMTMOVE
 70
     0
  9
$LUNITS
 70
     2
  9
$LUPREC
 70
     4
  9
$SKETCHINC
 40
0.1
  9
$FILLETRAD
 40
0.5
  9
$AUNITS
 70
     0
  9
$AUPREC
 70
     0
  9
$MENU
  1
.
  9
$ELEVATION
 40
0.0
  9
$PELEVATION
 40
0.0
  9
$THICKNESS
 40
0.0
  9
$LIMCHECK
 70
     0
  9
$CHAMFERA
 40
0.5
  9
$CHAMFERB
 40
0.5
  9
$CHAMFERC
 40
1.0
  9
$CHAMFERD
 40
0.0
  9
$SKPOLY
 70
     0
  9
$TDCREATE
 40
2459388.377337766
  9
$TDUCREATE
 40
2459388.294004433
  9
$TDUPDATE
 40
2459388.377337778
  9
$TDUUPDATE
 40
2459388.294004444
  9
$TDINDWG
 40
0.0000000116
  9
$TDUSRTIMER
 40
0.0000000116
  9
$USRTIMER
 70
     1
  9
$ANGBASE
 50
0.0
  9
$ANGDIR
 70
     0
  9
$PDMODE
 70
     0
  9
$PDSIZE
 40
0.0
  9
$PLINEWID
 40
0.0
  9
$SPLFRAME
 70
     0
  9
$SPLINETYPE
 70
     6
  9
$SPLINESEGS
 70
     8
  9
$HANDSEED
  5
155
  9
$SURFTAB1
 70
     6
  9
$SURFTAB2
 70
     6
  9
$SURFTYPE
 70
     6
  9
$SURFU
 70
     6
  9
$SURFV
 70
     6
  9
$UCSBASE
  2

  9
$UCSNAME
  2

  9
$UCSORG
 10
0.0
 20
0.0
 30
0.0
  9
$UCSXDIR
 10
1.0
 20
0.0
 30
0.0
  9
$UCSYDIR
 10
0.0
 20
1.0
 30
0.0
  9
$UCSORTHOREF
  2

  9
$UCSORTHOVIEW
 70
     0
  9
$UCSORGTOP
 10
0.0
 20
0.0
 30
0.0
  9
$UCSORGBOTTOM
 10
0.0
 20
0.0
 30
0.0
  9
$UCSORGLEFT
 10
0.0
 20
0.0
 30
0.0
  9
$UCSORGRIGHT
 10
0.0
 20
0.0
 30
0.0
  9
$UCSORGFRONT
 10
0.0
 20
0.0
 30
0.0
  9
$UCSORGBACK
 10
0.0
 20
0.0
 30
0.0
  9
$PUCSBASE
  2

  9
$PUCSNAME
  2

  9
$PUCSORG
 10
0.0
 20
0.0
 30
0.0
  9
$PUCSXDIR
 10
1.0
 20
0.0
 30
0.0
  9
$PUCSYDIR
 10
0.0
 20
1.0
 30
0.0
  9
$PUCSORTHOREF
  2

  9
$PUCSORTHOVIEW
 70
     0
  9
$PUCSORGTOP
 10
0.0
 20
0.0
 30
0.0
  9
$PUCSORGBOTTOM
 10
0.0
 20
0.0
 30
0.0
  9
$PUCSORGLEFT
 10
0.0
 20
0.0
 30
0.0
  9
$PUCSORGRIGHT
 10
0.0
 20
0.0
 30
0.0
  9
$PUCSORGFRONT
 10
0.0
 20
0.0
 30
0.0
  9
$PUCSORGBACK
 10
0.0
 20
0.0
 30
0.0
  9
$USERI1
 70
     0
  9
$USERI2
 70
     0
  9
$USERI3
 70
     0
  9
$USERI4
 70
     0
  9
$USERI5
 70
     0
  9
$USERR1
 40
0.0
  9
$USERR2
 40
0.0
  9
$USERR3
 40
0.0
  9
$USERR4
 40
0.0
  9
$USERR5
 40
0.0
  9
$WORLDVIEW
 70
     1
  9
$SHADEDGE
 70
     3
  9
$SHADEDIF
 70
    70
  9
$TILEMODE
 70
     1
  9
$MAXACTVP
 70
    64
  9
$PINSBASE
 10
0.0
 20
0.0
 30
0.0
  9
$PLIMCHECK
 70
     0
  9
$PEXTMIN
 10
1.000000000000000E+20
 20
1.000000000000000E+20
 30
1.000000000000000E+20
  9
$PEXTMAX
 10
-1.000000000000000E+20
 20
-1.000000000000000E+20
 30
-1.000000000000000E+20
  9
$PLIMMIN
 10
0.0
 20
0.0
  9
$PLIMMAX
 10
12.0
 20
9.0
  9
$UNITMODE
 70
     0
  9
$VISRETAIN
 70
     1
  9
$PLINEGEN
 70
     0
  9
$PSLTSCALE
 70
     1
  9
$TREEDEPTH
 70
  3020
  9
$CMLSTYLE
  2
Standard
  9
$CMLJUST
 70
     0
  9
$CMLSCALE
 40
1.0
  9
$PROXYGRAPHICS
 70
     1
  9
$MEASUREMENT
 70
     0
  9
$CELWEIGHT
370
    -1
  9
$ENDCAPS
280
     0
  9
$JOINSTYLE
280
     0
  9
$LWDISPLAY
290
     0
  9
$INSUNITS
 70
     4
  9
$HYPERLINKBASE
  1

  9
$STYLESHEET
  1

  9
$XEDIT
290
     1
  9
$CEPSNTYPE
380
     0
  9
$PSTYLEMODE
290
     1
  9
$FINGERPRINTGUID
  2
{383DB127-EE6C-409A-98F7-D32D418B8D9E}
  9
$VERSIONGUID
  2
{FAEB1C32-E019-11D5-929B-00C0DF256EC4}
  9
$EXTNAMES
290
     1
  9
$PSVPSCALE
 40
0.0
  9
$OLESTARTUP
290
     0
  0
ENDSEC
  0
SECTION
  2
CLASSES
  0
CLASS
  1
ACDBDICTIONARYWDFLT
  2
AcDbDictionaryWithDefault
  3
ObjectDBX Classes
 90
        0
280
     0
281
     0
  0
CLASS
  1
VISUALSTYLE
  2
AcDbVisualStyle
  3
ObjectDBX Classes
 90
     4095
280
     0
281
     0
  0
CLASS
  1
MATERIAL
  2
AcDbMaterial
  3
ObjectDBX Classes
 90
     1153
280
     0
281
     0
  0
CLASS
  1
DICTIONARYVAR
  2
AcDbDictionaryVar
  3
ObjectDBX Classes
 90
        0
280
     0
281
     0
  0
CLASS
  1
ACDBPLACEHOLDER
  2
AcDbPlaceHolder
  3
ObjectDBX Classes
 90
        0
280
     0
281
     0
  0
CLASS
  1
LAYOUT
  2
AcDbLayout
  3
ObjectDBX Classes
 90
        0
280
     0
281
     0
  0
ENDSEC
  0
SECTION
  2
TABLES
  0
TABLE
  2
VPORT
  5
8
330
0
100
AcDbSymbolTable
 70
     1
  0
VPORT
  5
29
330
8
100
AcDbSymbolTableRecord
100
AcDbViewportTableRecord
  2
*Active
 70
     0
 10
0.0
 20
0.0
 11
1.0
 21
1.0
 12
10.42990654205607
 22
4.5
 13
0.0
 23
0.0
 14
0.5
 24
0.5
 15
0.5
 25
0.5
 16
0.0
 26
0.0
 36
1.0
 17
0.0
 27
0.0
 37
0.0
 40
9.0
 41
1.972972972850329
 42
50.0
 43
0.0
 44
0.0
 50
0.0
 51
0.0
 71
     0
 72
   100
 73
     1
 74
     3
 75
     0
 76
     0
 77
     0
 78
     0
281
     0
 65
     1
110
0.0
120
0.0
130
0.0
111
1.0
121
0.0
131
0.0
112
0.0
122
1.0
132
0.0
 79
     0
146
0.0
  0
ENDTAB
  0
TABLE
  2
LTYPE
  5
5
330
0
100
AcDbSymbolTable
 70
     1
  0
LTYPE
  5
14
330
5
100
AcDbSymbolTableRecord
100
AcDbLinetypeTableRecord
  2
ByBlock
 70
     0
  3

 72
    65
 73
     0
 40
0.0
  0
LTYPE
  5
15
330
5
100
AcDbSymbolTableRecord
100
AcDbLinetypeTableRecord
  2
ByLayer
 70
     0
  3

 72
    65
 73
     0
 40
0.0
  0
LTYPE
  5
16
330
5
100
AcDbSymbolTableRecord
100
AcDbLinetypeTableRecord
  2
Continuous
 70
     0
  3
Solid line
 72
    65
 73
     0
 40
0.0
  0
ENDTAB
  0
TABLE
  2
LAYER
  5
2
330
0
100
AcDbSymbolTable
 70
     2
  0
LAYER
  5
10
330
2
100
AcDbSymbolTableRecord
100
AcDbLayerTableRecord
  2
0
 70
     0
 62
     7
  6
Continuous
370
    -3
390
F
  0
LAYER
  5
40
330
2
100
AcDbSymbolTableRecord
100
AcDbLayerTableRecord
  2
Vrstva 1
 70
     0
 62
     7
  6
Continuous
370
    -3
390
F
  0
ENDTAB
  0
TABLE
  2
STYLE
  5
3
330
0
100
AcDbSymbolTable
 70
     1
  0
STYLE
  5
11
330
3
100
AcDbSymbolTableRecord
100
AcDbTextStyleTableRecord
  2
Standard
 70
     0
 40
0.0
 41
1.0
 50
0.0
 71
     0
 42
0.2
  3
txt
  4

  0
ENDTAB
  0
TABLE
  2
VIEW
  5
6
330
0
100
AcDbSymbolTable
 70
     0
  0
ENDTAB
  0
TABLE
  2
UCS
  5
7
330
0
100
AcDbSymbolTable
 70
     0
  0
ENDTAB
  0
TABLE
  2
APPID
  5
9
330
0
100
AcDbSymbolTable
 70
     2
  0
APPID
  5
12
330
9
100
AcDbSymbolTableRecord
100
AcDbRegAppTableRecord
  2
ACAD
 70
     0
  0
APPID
  5
3F
330
9
100
AcDbSymbolTableRecord
100
AcDbRegAppTableRecord
  2
ODA
 70
     0
  0
ENDTAB
  0
TABLE
  2
DIMSTYLE
  5
A
330
0
100
AcDbSymbolTable
 70
     1
100
AcDbDimStyleTable
  0
DIMSTYLE
105
27
330
A
100
AcDbSymbolTableRecord
100
AcDbDimStyleTableRecord
  2
Standard
 70
     0
340
11
  0
ENDTAB
  0
TABLE
  2
BLOCK_RECORD
  5
1
330
0
100
AcDbSymbolTable
 70
     1
  0
BLOCK_RECORD
  5
1F
330
1
100
AcDbSymbolTableRecord
100
AcDbBlockTableRecord
  2
*Model_Space
340
22
  0
BLOCK_RECORD
  5
1B
330
1
100
AcDbSymbolTableRecord
100
AcDbBlockTableRecord
  2
*Paper_Space
340
1E
  0
BLOCK_RECORD
  5
23
330
1
100
AcDbSymbolTableRecord
100
AcDbBlockTableRecord
  2
*Paper_Space0
340
26
  0
ENDTAB
  0
ENDSEC
  0
SECTION
  2
BLOCKS
  0
BLOCK
  5
20
330
1F
100
AcDbEntity
  8
0
100
AcDbBlockBegin
  2
*Model_Space
 70
     0
 10
0.0
 20
0.0
 30
0.0
  3
*Model_Space
  1

  0
ENDBLK
  5
21
330
1F
100
AcDbEntity
  8
0
100
AcDbBlockEnd
  0
BLOCK
  5
1C
330
1B
100
AcDbEntity
 67
     1
  8
0
100
AcDbBlockBegin
  2
*Paper_Space
 70
     0
 10
0.0
 20
0.0
 30
0.0
  3
*Paper_Space
  1

  0
ENDBLK
  5
1D
330
1B
100
AcDbEntity
 67
     1
  8
0
100
AcDbBlockEnd
  0
BLOCK
  5
24
330
23
100
AcDbEntity
  8
0
100
AcDbBlockBegin
  2
*Paper_Space0
 70
     0
 10
0.0
 20
0.0
 30
0.0
  3
*Paper_Space0
  1

  0
ENDBLK
  5
25
330
23
100
AcDbEntity
  8
0
100
AcDbBlockEnd
  0
ENDSEC
  0
SECTION
  2
ENTITIES
  0
SPLINE
  5
41
330
1F
100
AcDbEntity
  8
Vrstva 1
 62
   250
370
    15
100
AcDbSpline
210
0.0
220
0.0
230
1.0
 70
    24
 71
     3
 72
     8
 73
     4
 74
     0
 42
0.0000000001
 43
0.0000000001
 40
0.0
 40
0.0
 40
0.0
 40
0.0
 40
1.0
 40
1.0
 40
1.0
 40
1.0
 10
-18.1416
 20
-9.1581
 30
0.0
 10
-18.1416
 20
-9.1581
 30
0.0
 10
-18.1416
 20
-19.6248
 30
0.0
 10
-18.1416
 20
-19.6248
 30
0.0
  0
SPLINE
  5
42
330
1F
100
AcDbEntity
  8
Vrstva 1
 62
   250
370
    15
100
AcDbSpline
210
0.0
220
0.0
230
1.0
 70
    24
 71
     3
 72
     8
 73
     4
 74
     0
 42
0.0000000001
 43
0.0000000001
 40
0.0
 40
0.0
 40
0.0
 40
0.0
 40
1.0
 40
1.0
 40
1.0
 40
1.0
 10
9.6762
 20
-9.2529
 30
0.0
 10
9.6762
 20
-9.2529
 30
0.0
 10
9.6762
 20
-19.7898
 30
0.0
 10
9.6762
 20
-19.7898
 30
0.0
  0
SPLINE
  5
43
330
1F
100
AcDbEntity
  8
Vrstva 1
 62
   250
370
    15
100
AcDbSpline
210
0.0
220
0.0
230
1.0
 70
    24
 71
     3
 72
     8
 73
     4
 74
     0
 42
0.0000000001
 43
0.0000000001
 40
0.0
 40
0.0
 40
0.0
 40
0.0
 40
1.0
 40
1.0
 40
1.0
 40
1.0
 10
9.2291
 20
-19.2398
 30
0.0
 10
9.2291
 20
-19.2398
 30
0.0
 10
-17.6261
 20
-19.2398
 30
0.0
 10
-17.6261
 20
-19.2398
 30
0.0
  0
SPLINE
  5
44
330
1F
100
AcDbEntity
  8
Vrstva 1
 62
   250
370
    15
100
AcDbSpline
210
0.0
220
0.0
230
1.0
 70
    24
 71
     3
 72
     8
 73
     4
 74
     0
 42
0.0000000001
 43
0.0000000001
 40
0.0
 40
0.0
 40
0.0
 40
0.0
 40
1.0
 40
1.0
 40
1.0
 40
1.0
 10
30.5541
 20
-14.8456
 30
0.0
 10
30.5541
 20
-14.8456
 30
0.0
 10
30.5541
 20
-19.3713
 30
0.0
 10
30.5541
 20
-19.3713
 30
0.0
  0
SPLINE
  5
45
330
1F
100
AcDbEntity
  8
Vrstva 1
 62
   250
370
    15
100
AcDbSpline
210
0.0
220
0.0
230
1.0
 70
    24
 71
     3
 72
     8
 73
     4
 74
     0
 42
0.0000000001
 43
0.0000000001
 40
0.0
 40
0.0
 40
0.0
 40
0.0
 40
1.0
 40
1.0
 40
1.0
 40
1.0
 10
30.5738
 20
16.681
 30
0.0
 10
30.5738
 20
16.681
 30
0.0
 10
30.5738
 20
13.2446
 30
0.0
 10
30.5738
 20
13.2446
 30
0.0
  0
SPLINE
  5
46
330
1F
100
AcDbEntity
  8
Vrstva 1
 62
   250
370
    15
100
AcDbSpline
210
0.0
220
0.0
230
1.0
 70
    24
 71
     3
 72
     8
 73
     4
 74
     0
 42
0.0000000001
 43
0.0000000001
 40
0.0
 40
0.0
 40
0.0
 40
0.0
 40
1.0
 40
1.0
 40
1.0
 40
1.0
 10
31.635
 20
-14.8456
 30
0.0
 10
31.635
 20
-14.8456
 30
0.0
 10
31.635
 20
-19.2161
 30
0.0
 10
31.635
 20
-19.2161
 30
0.0
  0
SPLINE
  5
47
330
1F
100
AcDbEntity
  8
Vrstva 1
 62
   250
370
    15
100
AcDbSpline
210
0.0
220
0.0
230
1.0
 70
    24
 71
     3
 72
     8
 73
     4
 74
     0
 42
0.0000000001
 43
0.0000000001
 40
0.0
 40
0.0
 40
0.0
 40
0.0
 40
1.0
 40
1.0
 40
1.0
 40
1.0
 10
31.7287
 20
16.681
 30
0.0
 10
31.7287
 20
16.681
 30
0.0
 10
31.7287
 20
13.2745
 30
0.0
 10
31.7287
 20
13.2745
 30
0.0
  0
SPLINE
  5
48
330
1F
100
AcDbEntity
  8
Vrstva 1
 62
   250
370
    15
100
AcDbSpline
210
0.0
220
0.0
230
1.0
 70
    24
 71
     3
 72
     8
 73
     4
 74
     0
 42
0.0000000001
 43
0.0000000001
 40
0.0
 40
0.0
 40
0.0
 40
0.0
 40
1.0
 40
1.0
 40
1.0
 40
1.0
 10
34.1601
 20
-18.9781
 30
0.0
 10
34.1601
 20
-18.9781
 30
0.0
 10
24.0824
 20
-18.9781
 30
0.0
 10
24.0824
 20
-18.9781
 30
0.0
  0
SPLINE
  5
49
330
1F
100
AcDbEntity
  8
Vrstva 1
 62
   250
370
    15
100
AcDbSpline
210
0.0
220
0.0
230
1.0
 70
    24
 71
     3
 72
     8
 73
     4
 74
     0
 42
0.0000000001
 43
0.0000000001
 40
0.0
 40
0.0
 40
0.0
 40
0.0
 40
1.0
 40
1.0
 40
1.0
 40
1.0
 10
33.5563
 20
16.2836
 30
0.0
 10
33.5563
 20
16.2836
 30
0.0
 10
23.0719
 20
16.2836
 30
0.0
 10
23.0719
 20
16.2836
 30
0.0
  0
SPLINE
  5
4A
330
1F
100
AcDbEntity
  8
Vrstva 1
 62
   250
100
AcDbSpline
210
0.0
220
0.0
230
1.0
 70
    11
 71
     3
 72
    36
 73
    32
 74
     0
 42
0.0000000001
 43
0.0000000001
 40
0.0
 40
0.0
 40
0.0
 40
0.0
 40
0.1111111111111111
 40
0.1111111111111111
 40
0.1111111111111111
 40
0.1111111111111111
 40
0.2222222222222222
 40
0.2222222222222222
 40
0.2222222222222222
 40
0.2222222222222222
 40
0.3333333333333333
 40
0.3333333333333333
 40
0.3333333333333333
 40
0.3333333333333333
 40
0.4444444444444444
 40
0.4444444444444444
 40
0.4444444444444444
 40
0.4444444444444444
 40
0.5555555555555556
 40
0.5555555555555556
 40
0.5555555555555556
 40
0.5555555555555556
 40
0.6666666666666666
 40
0.6666666666666666
 40
0.6666666666666666
 40
0.6666666666666666
 40
0.7777777777777778
 40
0.7777777777777778
 40
0.7777777777777778
 40
0.7777777777777778
 40
1.0
 40
1.0
 40
1.0
 40
1.0
 10
-6.5106
 20
-18.7334
 30
0.0
 10
-6.5106
 20
-18.7334
 30
0.0
 10
-6.1808
 20
-18.7334
 30
0.0
 10
-6.1808
 20
-18.7334
 30
0.0
 10
-6.1808
 20
-18.7334
 30
0.0
 10
-6.1808
 20
-18.7334
 30
0.0
 10
-6.1808
 20
-16.2111
 30
0.0
 10
-6.1808
 20
-16.2111
 30
0.0
 10
-6.1808
 20
-16.2111
 30
0.0
 10
-6.1808
 20
-16.2111
 30
0.0
 10
-6.4718
 20
-16.2111
 30
0.0
 10
-6.4718
 20
-16.2111
 30
0.0
 10
-6.4718
 20
-16.2111
 30
0.0
 10
-6.4718
 20
-16.2111
 30
0.0
 10
-7.0228
 20
-16.506
 30
0.0
 10
-7.0228
 20
-16.506
 30
0.0
 10
-7.0228
 20
-16.506
 30
0.0
 10
-7.0228
 20
-16.506
 30
0.0
 10
-6.9569
 20
-16.766
 30
0.0
 10
-6.9569
 20
-16.766
 30
0.0
 10
-6.9569
 20
-16.766
 30
0.0
 10
-6.9569
 20
-16.766
 30
0.0
 10
-6.5184
 20
-16.5293
 30
0.0
 10
-6.5184
 20
-16.5293
 30
0.0
 10
-6.5184
 20
-16.5293
 30
0.0
 10
-6.5184
 20
-16.5293
 30
0.0
 10
-6.5106
 20
-16.5293
 30
0.0
 10
-6.5106
 20
-16.5293
 30
0.0
 10
-6.5106
 20
-16.5293
 30
0.0
 10
-6.5106
 20
-16.5293
 30
0.0
 10
-6.5106
 20
-18.7334
 30
0.0
 10
-6.5106
 20
-18.7334
 30
0.0
  0
SPLINE
  5
4B
330
1F
100
AcDbEntity
  8
Vrstva 1
 62
   250
100
AcDbSpline
210
0.0
220
0.0
230
1.0
 70
    11
 71
     3
 72
   124
 73
   120
 74
     0
 42
0.0000000001
 43
0.0000000001
 40
0.0
 40
0.0
 40
0.0
 40
0.0
 40
0.032258064516129
 40
0.032258064516129
 40
0.032258064516129
 40
0.032258064516129
 40
0.0645161290322581
 40
0.0645161290322581
 40
0.0645161290322581
 40
0.0645161290322581
 40
0.0967741935483871
 40
0.0967741935483871
 40
0.0967741935483871
 40
0.0967741935483871
 40
0.1290322580645161
 40
0.1290322580645161
 40
0.1290322580645161
 40
0.1290322580645161
 40
0.1612903225806452
 40
0.1612903225806452
 40
0.1612903225806452
 40
0.1612903225806452
 40
0.1935483870967742
 40
0.1935483870967742
 40
0.1935483870967742
 40
0.1935483870967742
 40
0.2258064516129032
 40
0.2258064516129032
 40
0.2258064516129032
 40
0.2258064516129032
 40
0.2580645161290323
 40
0.2580645161290323
 40
0.2580645161290323
 40
0.2580645161290323
 40
0.2903225806451613
 40
0.2903225806451613
 40
0.2903225806451613
 40
0.2903225806451613
 40
0.3225806451612903
 40
0.3225806451612903
 40
0.3225806451612903
 40
0.3225806451612903
 40
0.3548387096774194
 40
0.3548387096774194
 40
0.3548387096774194
 40
0.3548387096774194
 40
0.3870967741935484
 40
0.3870967741935484
 40
0.3870967741935484
 40
0.3870967741935484
 40
0.4193548387096774
 40
0.4193548387096774
 40
0.4193548387096774
 40
0.4193548387096774
 40
0.4516129032258064
 40
0.4516129032258064
 40
0.4516129032258064
 40
0.4516129032258064
 40
0.4838709677419355
 40
0.4838709677419355
 40
0.4838709677419355
 40
0.4838709677419355
 40
0.5161290322580645
 40
0.5161290322580645
 40
0.5161290322580645
 40
0.5161290322580645
 40
0.5483870967741935
 40
0.5483870967741935
 40
0.5483870967741935
 40
0.5483870967741935
 40
0.5806451612903226
 40
0.5806451612903226
 40
0.5806451612903226
 40
0.5806451612903226
 40
0.6129032258064516
 40
0.6129032258064516
 40
0.6129032258064516
 40
0.6129032258064516
 40
0.6451612903225806
 40
0.6451612903225806
 40
0.6451612903225806
 40
0.6451612903225806
 40
0.6774193548387096
 40
0.6774193548387096
 40
0.6774193548387096
 40
0.6774193548387096
 40
0.7096774193548387
 40
0.7096774193548387
 40
0.7096774193548387
 40
0.7096774193548387
 40
0.7419354838709677
 40
0.7419354838709677
 40
0.7419354838709677
 40
0.7419354838709677
 40
0.7741935483870968
 40
0.7741935483870968
 40
0.7741935483870968
 40
0.7741935483870968
 40
0.8064516129032258
 40
0.8064516129032258
 40
0.8064516129032258
 40
0.8064516129032258
 40
0.8387096774193549
 40
0.8387096774193549
 40
0.8387096774193549
 40
0.8387096774193549
 40
0.8709677419354839
 40
0.8709677419354839
 40
0.8709677419354839
 40
0.8709677419354839
 40
0.9032258064516129
 40
0.9032258064516129
 40
0.9032258064516129
 40
0.9032258064516129
 40
0.9354838709677419
 40
0.9354838709677419
 40
0.9354838709677419
 40
0.9354838709677419
 40
1.0
 40
1.0
 40
1.0
 40
1.0
 10
-3.8214
 20
-16.1723
 30
0.0
 10
-3.8525
 20
-16.1723
 30
0.0
 10
-3.8893
 20
-16.1736
 30
0.0
 10
-3.9307
 20
-16.1762
 30
0.0
 10
-3.9307
 20
-16.1762
 30
0.0
 10
-3.9728
 20
-16.1787
 30
0.0
 10
-4.0193
 20
-16.1839
 30
0.0
 10
-4.0698
 20
-16.1917
 30
0.0
 10
-4.0698
 20
-16.1917
 30
0.0
 10
-4.2295
 20
-16.2111
 30
0.0
 10
-4.3776
 20
-16.2525
 30
0.0
 10
-4.5141
 20
-16.3152
 30
0.0
 10
-4.5141
 20
-16.3152
 30
0.0
 10
-4.6505
 20
-16.3779
 30
0.0
 10
-4.7715
 20
-16.4607
 30
0.0
 10
-4.8769
 20
-16.5642
 30
0.0
 10
-4.8769
 20
-16.5642
 30
0.0
 10
-4.9616
 20
-16.647
 30
0.0
 10
-5.036
 20
-16.7453
 30
0.0
 10
-5.0994
 20
-16.8591
 30
0.0
 10
-5.0994
 20
-16.8591
 30
0.0
 10
-5.1634
 20
-16.9723
 30
0.0
 10
-5.2132
 20
-17.0997
 30
0.0
 10
-5.2494
 20
-17.2407
 30
0.0
 10
-5.2494
 20
-17.2407
 30
0.0
 10
-5.285
 20
-17.3817
 30
0.0
 10
-5.3031
 20
-17.5356
 30
0.0
 10
-5.3038
 20
-17.7012
 30
0.0
 10
-5.3038
 20
-17.7012
 30
0.0
 10
-5.3031
 20
-17.8655
 30
0.0
 10
-5.2818
 20
-18.0136
 30
0.0
 10
-5.2404
 20
-18.1455
 30
0.0
 10
-5.2404
 20
-18.1455
 30
0.0
 10
-5.1983
 20
-18.2781
 30
0.0
 10
-5.1382
 20
-18.3906
 30
0.0
 10
-5.0599
 20
-18.4844
 30
0.0
 10
-5.0599
 20
-18.4844
 30
0.0
 10
-4.9823
 20
-18.5782
 30
0.0
 10
-4.8885
 20
-18.6506
 30
0.0
 10
-4.7799
 20
-18.7004
 30
0.0
 10
-4.7799
 20
-18.7004
 30
0.0
 10
-4.6712
 20
-18.7502
 30
0.0
 10
-4.5497
 20
-18.7754
 30
0.0
 10
-4.4151
 20
-18.7761
 30
0.0
 10
-4.4151
 20
-18.7761
 30
0.0
 10
-4.2832
 20
-18.7748
 30
0.0
 10
-4.1648
 20
-18.7502
 30
0.0
 10
-4.0607
 20
-18.7024
 30
0.0
 10
-4.0607
 20
-18.7024
 30
0.0
 10
-3.9572
 20
-18.6538
 30
0.0
 10
-3.8686
 20
-18.5879
 30
0.0
 10
-3.7962
 20
-18.5045
 30
0.0
 10
-3.7962
 20
-18.5045
 30
0.0
 10
-3.7238
 20
-18.421
 30
0.0
 10
-3.6681
 20
-18.3259
 30
0.0
 10
-3.6306
 20
-18.2192
 30
0.0
 10
-3.6306
 20
-18.2192
 30
0.0
 10
-3.5925
 20
-18.1132
 30
0.0
 10
-3.5731
 20
-18.0013
 30
0.0
 10
-3.5731
 20
-17.8836
 30
0.0
 10
-3.5731
 20
-17.8836
 30
0.0
 10
-3.5737
 20
-17.7607
 30
0.0
 10
-3.5925
 20
-17.6494
 30
0.0
 10
-3.6293
 20
-17.5498
 30
0.0
 10
-3.6293
 20
-17.5498
 30
0.0
 10
-3.6662
 20
-17.4502
 30
0.0
 10
-3.7186
 20
-17.3642
 30
0.0
 10
-3.7858
 20
-17.2924
 30
0.0
 10
-3.7858
 20
-17.2924
 30
0.0
 10
-3.8537
 20
-17.2213
 30
0.0
 10
-3.9339
 20
-17.1657
 30
0.0
 10
-4.0264
 20
-17.1275
 30
0.0
 10
-4.0264
 20
-17.1275
 30
0.0
 10
-4.1189
 20
-17.0887
 30
0.0
 10
-4.2218
 20
-17.0693
 30
0.0
 10
-4.3336
 20
-17.0687
 30
0.0
 10
-4.3336
 20
-17.0687
 30
0.0
 10
-4.4268
 20
-17.0693
 30
0.0
 10
-4.5121
 20
-17.0829
 30
0.0
 10
-4.5898
 20
-17.1088
 30
0.0
 10
-4.5898
 20
-17.1088
 30
0.0
 10
-4.6674
 20
-17.1353
 30
0.0
 10
-4.7366
 20
-17.1702
 30
0.0
 10
-4.7967
 20
-17.2148
 30
0.0
 10
-4.7967
 20
-17.2148
 30
0.0
 10
-4.8562
 20
-17.2588
 30
0.0
 10
-4.9067
 20
-17.3086
 30
0.0
 10
-4.9468
 20
-17.3636
 30
0.0
 10
-4.9468
 20
-17.3636
 30
0.0
 10
-4.9468
 20
-17.3636
 30
0.0
 10
-4.9545
 20
-17.3636
 30
0.0
 10
-4.9545
 20
-17.3636
 30
0.0
 10
-4.9545
 20
-17.3636
 30
0.0
 10
-4.9403
 20
-17.2582
 30
0.0
 10
-4.9118
 20
-17.1566
 30
0.0
 10
-4.8685
 20
-17.059
 30
0.0
 10
-4.8685
 20
-17.059
 30
0.0
 10
-4.8258
 20
-16.962
 30
0.0
 10
-4.7689
 20
-16.8727
 30
0.0
 10
-4.6965
 20
-16.7919
 30
0.0
 10
-4.6965
 20
-16.7919
 30
0.0
 10
-4.624
 20
-16.7117
 30
0.0
 10
-4.5367
 20
-16.6431
 30
0.0
 10
-4.4339
 20
-16.5875
 30
0.0
 10
-4.4339
 20
-16.5875
 30
0.0
 10
-4.3311
 20
-16.5319
 30
0.0
 10
-4.212
 20
-16.4931
 30
0.0
 10
-4.0775
 20
-16.4711
 30
0.0
 10
-4.0775
 20
-16.4711
 30
0.0
 10
-4.029
 20
-16.4633
 30
0.0
 10
-3.9825
 20
-16.4575
 30
0.0
 10
-3.9391
 20
-16.4543
 30
0.0
 10
-3.9391
 20
-16.4543
 30
0.0
 10
-3.8958
 20
-16.4504
 30
0.0
 10
-3.8563
 20
-16.4497
 30
0.0
 10
-3.8214
 20
-16.4517
 30
0.0
 10
-3.8214
 20
-16.4517
 30
0.0
 10
-3.8214
 20
-16.4517
 30
0.0
 10
-3.8214
 20
-16.1723
 30
0.0
 10
-3.8214
 20
-16.1723
 30
0.0
  0
SPLINE
  5
4C
330
1F
100
AcDbEntity
  8
Vrstva 1
 62
   250
100
AcDbSpline
210
0.0
220
0.0
230
1.0
 70
    11
 71
     3
 72
    64
 73
    60
 74
     0
 42
0.0000000001
 43
0.0000000001
 40
0.0
 40
0.0
 40
0.0
 40
0.0
 40
0.0625
 40
0.0625
 40
0.0625
 40
0.0625
 40
0.125
 40
0.125
 40
0.125
 40
0.125
 40
0.1875
 40
0.1875
 40
0.1875
 40
0.1875
 40
0.25
 40
0.25
 40
0.25
 40
0.25
 40
0.3125
 40
0.3125
 40
0.3125
 40
0.3125
 40
0.375
 40
0.375
 40
0.375
 40
0.375
 40
0.4375
 40
0.4375
 40
0.4375
 40
0.4375
 40
0.5
 40
0.5
 40
0.5
 40
0.5
 40
0.5625
 40
0.5625
 40
0.5625
 40
0.5625
 40
0.625
 40
0.625
 40
0.625
 40
0.625
 40
0.6875
 40
0.6875
 40
0.6875
 40
0.6875
 40
0.75
 40
0.75
 40
0.75
 40
0.75
 40
0.8125
 40
0.8125
 40
0.8125
 40
0.8125
 40
0.875
 40
0.875
 40
0.875
 40
0.875
 40
1.0
 40
1.0
 40
1.0
 40
1.0
 10
-4.4074
 20
-18.5122
 30
0.0
 10
-4.4979
 20
-18.5116
 30
0.0
 10
-4.5775
 20
-18.4935
 30
0.0
 10
-4.6467
 20
-18.4572
 30
0.0
 10
-4.6467
 20
-18.4572
 30
0.0
 10
-4.7152
 20
-18.421
 30
0.0
 10
-4.7734
 20
-18.3706
 30
0.0
 10
-4.8206
 20
-18.3053
 30
0.0
 10
-4.8206
 20
-18.3053
 30
0.0
 10
-4.8679
 20
-18.2399
 30
0.0
 10
-4.9034
 20
-18.163
 30
0.0
 10
-4.928
 20
-18.075
 30
0.0
 10
-4.928
 20
-18.075
 30
0.0
 10
-4.9526
 20
-17.9871
 30
0.0
 10
-4.9649
 20
-17.8907
 30
0.0
 10
-4.9662
 20
-17.7866
 30
0.0
 10
-4.9662
 20
-17.7866
 30
0.0
 10
-4.9662
 20
-17.7555
 30
0.0
 10
-4.9623
 20
-17.7284
 30
0.0
 10
-4.9558
 20
-17.7038
 30
0.0
 10
-4.9558
 20
-17.7038
 30
0.0
 10
-4.9493
 20
-17.6798
 30
0.0
 10
-4.9409
 20
-17.6585
 30
0.0
 10
-4.9312
 20
-17.6391
 30
0.0
 10
-4.9312
 20
-17.6391
 30
0.0
 10
-4.8995
 20
-17.5764
 30
0.0
 10
-4.8588
 20
-17.522
 30
0.0
 10
-4.8077
 20
-17.4755
 30
0.0
 10
-4.8077
 20
-17.4755
 30
0.0
 10
-4.7573
 20
-17.4296
 30
0.0
 10
-4.7003
 20
-17.3933
 30
0.0
 10
-4.637
 20
-17.3675
 30
0.0
 10
-4.637
 20
-17.3675
 30
0.0
 10
-4.5736
 20
-17.3422
 30
0.0
 10
-4.5076
 20
-17.3287
 30
0.0
 10
-4.4384
 20
-17.3287
 30
0.0
 10
-4.4384
 20
-17.3287
 30
0.0
 10
-4.333
 20
-17.3293
 30
0.0
 10
-4.2418
 20
-17.3526
 30
0.0
 10
-4.1635
 20
-17.3985
 30
0.0
 10
-4.1635
 20
-17.3985
 30
0.0
 10
-4.0859
 20
-17.4444
 30
0.0
 10
-4.0258
 20
-17.5104
 30
0.0
 10
-3.9831
 20
-17.5964
 30
0.0
 10
-3.9831
 20
-17.5964
 30
0.0
 10
-3.9404
 20
-17.6824
 30
0.0
 10
-3.9191
 20
-17.7859
 30
0.0
 10
-3.9184
 20
-17.9069
 30
0.0
 10
-3.9184
 20
-17.9069
 30
0.0
 10
-3.9191
 20
-18.0278
 30
0.0
 10
-3.9398
 20
-18.1339
 30
0.0
 10
-3.9805
 20
-18.2244
 30
0.0
 10
-3.9805
 20
-18.2244
 30
0.0
 10
-4.0213
 20
-18.315
 30
0.0
 10
-4.0782
 20
-18.3848
 30
0.0
 10
-4.1513
 20
-18.4352
 30
0.0
 10
-4.1513
 20
-18.4352
 30
0.0
 10
-4.2243
 20
-18.4857
 30
0.0
 10
-4.3097
 20
-18.5116
 30
0.0
 10
-4.4074
 20
-18.5122
 30
0.0
  0
SPLINE
  5
4D
330
1F
100
AcDbEntity
  8
Vrstva 1
 62
   250
100
AcDbSpline
210
0.0
220
0.0
230
1.0
 70
    11
 71
     3
 72
    36
 73
    32
 74
     0
 42
0.0000000001
 43
0.0000000001
 40
0.0
 40
0.0
 40
0.0
 40
0.0
 40
0.1111111111111111
 40
0.1111111111111111
 40
0.1111111111111111
 40
0.1111111111111111
 40
0.2222222222222222
 40
0.2222222222222222
 40
0.2222222222222222
 40
0.2222222222222222
 40
0.3333333333333333
 40
0.3333333333333333
 40
0.3333333333333333
 40
0.3333333333333333
 40
0.4444444444444444
 40
0.4444444444444444
 40
0.4444444444444444
 40
0.4444444444444444
 40
0.5555555555555556
 40
0.5555555555555556
 40
0.5555555555555556
 40
0.5555555555555556
 40
0.6666666666666666
 40
0.6666666666666666
 40
0.6666666666666666
 40
0.6666666666666666
 40
0.7777777777777778
 40
0.7777777777777778
 40
0.7777777777777778
 40
0.7777777777777778
 40
1.0
 40
1.0
 40
1.0
 40
1.0
 10
-3.2238
 20
-16.2111
 30
0.0
 10
-3.2238
 20
-16.2111
 30
0.0
 10
-3.2238
 20
-16.4944
 30
0.0
 10
-3.2238
 20
-16.4944
 30
0.0
 10
-3.2238
 20
-16.4944
 30
0.0
 10
-3.2238
 20
-16.4944
 30
0.0
 10
-1.9898
 20
-16.4944
 30
0.0
 10
-1.9898
 20
-16.4944
 30
0.0
 10
-1.9898
 20
-16.4944
 30
0.0
 10
-1.9898
 20
-16.4944
 30
0.0
 10
-1.9898
 20
-16.5021
 30
0.0
 10
-1.9898
 20
-16.5021
 30
0.0
 10
-1.9898
 20
-16.5021
 30
0.0
 10
-1.9898
 20
-16.5021
 30
0.0
 10
-3.0841
 20
-18.7334
 30
0.0
 10
-3.0841
 20
-18.7334
 30
0.0
 10
-3.0841
 20
-18.7334
 30
0.0
 10
-3.0841
 20
-18.7334
 30
0.0
 10
-2.731
 20
-18.7334
 30
0.0
 10
-2.731
 20
-18.7334
 30
0.0
 10
-2.731
 20
-18.7334
 30
0.0
 10
-2.731
 20
-18.7334
 30
0.0
 10
-1.6328
 20
-16.4361
 30
0.0
 10
-1.6328
 20
-16.4361
 30
0.0
 10
-1.6328
 20
-16.4361
 30
0.0
 10
-1.6328
 20
-16.4361
 30
0.0
 10
-1.6328
 20
-16.2111
 30
0.0
 10
-1.6328
 20
-16.2111
 30
0.0
 10
-1.6328
 20
-16.2111
 30
0.0
 10
-1.6328
 20
-16.2111
 30
0.0
 10
-3.2238
 20
-16.2111
 30
0.0
 10
-3.2238
 20
-16.2111
 30
0.0
  0
SPLINE
  5
4E
330
1F
100
AcDbEntity
  8
Vrstva 1
 62
   250
100
AcDbSpline
210
0.0
220
0.0
230
1.0
 70
    11
 71
     3
 72
   132
 73
   128
 74
     0
 42
0.0000000001
 43
0.0000000001
 40
0.0
 40
0.0
 40
0.0
 40
0.0
 40
0.0303030303030303
 40
0.0303030303030303
 40
0.0303030303030303
 40
0.0303030303030303
 40
0.0606060606060606
 40
0.0606060606060606
 40
0.0606060606060606
 40
0.0606060606060606
 40
0.0909090909090909
 40
0.0909090909090909
 40
0.0909090909090909
 40
0.0909090909090909
 40
0.1212121212121212
 40
0.1212121212121212
 40
0.1212121212121212
 40
0.1212121212121212
 40
0.1515151515151515
 40
0.1515151515151515
 40
0.1515151515151515
 40
0.1515151515151515
 40
0.1818181818181818
 40
0.1818181818181818
 40
0.1818181818181818
 40
0.1818181818181818
 40
0.2121212121212121
 40
0.2121212121212121
 40
0.2121212121212121
 40
0.2121212121212121
 40
0.2424242424242424
 40
0.2424242424242424
 40
0.2424242424242424
 40
0.2424242424242424
 40
0.2727272727272727
 40
0.2727272727272727
 40
0.2727272727272727
 40
0.2727272727272727
 40
0.303030303030303
 40
0.303030303030303
 40
0.303030303030303
 40
0.303030303030303
 40
0.3333333333333333
 40
0.3333333333333333
 40
0.3333333333333333
 40
0.3333333333333333
 40
0.3636363636363636
 40
0.3636363636363636
 40
0.3636363636363636
 40
0.3636363636363636
 40
0.3939393939393939
 40
0.3939393939393939
 40
0.3939393939393939
 40
0.3939393939393939
 40
0.4242424242424243
 40
0.4242424242424243
 40
0.4242424242424243
 40
0.4242424242424243
 40
0.4545454545454545
 40
0.4545454545454545
 40
0.4545454545454545
 40
0.4545454545454545
 40
0.4848484848484849
 40
0.4848484848484849
 40
0.4848484848484849
 40
0.4848484848484849
 40
0.5151515151515151
 40
0.5151515151515151
 40
0.5151515151515151
 40
0.5151515151515151
 40
0.5454545454545454
 40
0.5454545454545454
 40
0.5454545454545454
 40
0.5454545454545454
 40
0.5757575757575758
 40
0.5757575757575758
 40
0.5757575757575758
 40
0.5757575757575758
 40
0.6060606060606061
 40
0.6060606060606061
 40
0.6060606060606061
 40
0.6060606060606061
 40
0.6363636363636364
 40
0.6363636363636364
 40
0.6363636363636364
 40
0.6363636363636364
 40
0.6666666666666666
 40
0.6666666666666666
 40
0.6666666666666666
 40
0.6666666666666666
 40
0.696969696969697
 40
0.696969696969697
 40
0.696969696969697
 40
0.696969696969697
 40
0.7272727272727273
 40
0.7272727272727273
 40
0.7272727272727273
 40
0.7272727272727273
 40
0.7575757575757576
 40
0.7575757575757576
 40
0.7575757575757576
 40
0.7575757575757576
 40
0.7878787878787878
 40
0.7878787878787878
 40
0.7878787878787878
 40
0.7878787878787878
 40
0.8181818181818182
 40
0.8181818181818182
 40
0.8181818181818182
 40
0.8181818181818182
 40
0.8484848484848485
 40
0.8484848484848485
 40
0.8484848484848485
 40
0.8484848484848485
 40
0.8787878787878788
 40
0.8787878787878788
 40
0.8787878787878788
 40
0.8787878787878788
 40
0.9090909090909091
 40
0.9090909090909091
 40
0.9090909090909091
 40
0.9090909090909091
 40
0.9393939393939394
 40
0.9393939393939394
 40
0.9393939393939394
 40
0.9393939393939394
 40
1.0
 40
1.0
 40
1.0
 40
1.0
 10
26.275
 20
-15.6097
 30
0.0
 10
26.275
 20
-15.6097
 30
0.0
 10
25.0681
 20
-15.6097
 30
0.0
 10
25.0681
 20
-15.6097
 30
0.0
 10
25.0681
 20
-15.6097
 30
0.0
 10
25.0681
 20
-15.6097
 30
0.0
 10
24.9051
 20
-16.8204
 30
0.0
 10
24.9051
 20
-16.8204
 30
0.0
 10
24.9051
 20
-16.8204
 30
0.0
 10
24.9517
 20
-16.8139
 30
0.0
 10
25.0034
 20
-16.8087
 30
0.0
 10
25.0617
 20
-16.8042
 30
0.0
 10
25.0617
 20
-16.8042
 30
0.0
 10
25.1192
 20
-16.7997
 30
0.0
 10
25.1852
 20
-16.7971
 30
0.0
 10
25.2583
 20
-16.7971
 30
0.0
 10
25.2583
 20
-16.7971
 30
0.0
 10
25.4251
 20
-16.7978
 30
0.0
 10
25.5616
 20
-16.8217
 30
0.0
 10
25.6677
 20
-16.8683
 30
0.0
 10
25.6677
 20
-16.8683
 30
0.0
 10
25.7744
 20
-16.9155
 30
0.0
 10
25.8533
 20
-16.9801
 30
0.0
 10
25.9044
 20
-17.0629
 30
0.0
 10
25.9044
 20
-17.0629
 30
0.0
 10
25.9555
 20
-17.1464
 30
0.0
 10
25.9807
 20
-17.2427
 30
0.0
 10
25.98
 20
-17.352
 30
0.0
 10
25.98
 20
-17.352
 30
0.0
 10
25.9807
 20
-17.4367
 30
0.0
 10
25.9652
 20
-17.5124
 30
0.0
 10
25.9335
 20
-17.5797
 30
0.0
 10
25.9335
 20
-17.5797
 30
0.0
 10
25.9024
 20
-17.6476
 30
0.0
 10
25.8591
 20
-17.7045
 30
0.0
 10
25.8041
 20
-17.7524
 30
0.0
 10
25.8041
 20
-17.7524
 30
0.0
 10
25.7491
 20
-17.7996
 30
0.0
 10
25.6858
 20
-17.8358
 30
0.0
 10
25.614
 20
-17.861
 30
0.0
 10
25.614
 20
-17.861
 30
0.0
 10
25.5422
 20
-17.8862
 30
0.0
 10
25.4665
 20
-17.8992
 30
0.0
 10
25.3863
 20
-17.8992
 30
0.0
 10
25.3863
 20
-17.8992
 30
0.0
 10
25.3081
 20
-17.8985
 30
0.0
 10
25.2343
 20
-17.8914
 30
0.0
 10
25.1651
 20
-17.8765
 30
0.0
 10
25.1651
 20
-17.8765
 30
0.0
 10
25.0959
 20
-17.8623
 30
0.0
 10
25.0338
 20
-17.8448
 30
0.0
 10
24.9789
 20
-17.8235
 30
0.0
 10
24.9789
 20
-17.8235
 30
0.0
 10
24.9239
 20
-17.8022
 30
0.0
 10
24.8786
 20
-17.7808
 30
0.0
 10
24.8431
 20
-17.7595
 30
0.0
 10
24.8431
 20
-17.7595
 30
0.0
 10
24.8431
 20
-17.7595
 30
0.0
 10
24.7577
 20
-18.0195
 30
0.0
 10
24.7577
 20
-18.0195
 30
0.0
 10
24.7577
 20
-18.0195
 30
0.0
 10
24.7997
 20
-18.046
 30
0.0
 10
24.8521
 20
-18.0706
 30
0.0
 10
24.9148
 20
-18.0945
 30
0.0
 10
24.9148
 20
-18.0945
 30
0.0
 10
24.9776
 20
-18.1178
 30
0.0
 10
25.0487
 20
-18.1365
 30
0.0
 10
25.1283
 20
-18.1514
 30
0.0
 10
25.1283
 20
-18.1514
 30
0.0
 10
25.2085
 20
-18.1663
 30
0.0
 10
25.2945
 20
-18.174
 30
0.0
 10
25.3863
 20
-18.1747
 30
0.0
 10
25.3863
 20
-18.1747
 30
0.0
 10
25.5241
 20
-18.174
 30
0.0
 10
25.6495
 20
-18.152
 30
0.0
 10
25.764
 20
-18.1094
 30
0.0
 10
25.764
 20
-18.1094
 30
0.0
 10
25.8785
 20
-18.0667
 30
0.0
 10
25.9775
 20
-18.0065
 30
0.0
 10
26.0609
 20
-17.9289
 30
0.0
 10
26.0609
 20
-17.9289
 30
0.0
 10
26.145
 20
-17.8513
 30
0.0
 10
26.2096
 20
-17.7601
 30
0.0
 10
26.2556
 20
-17.656
 30
0.0
 10
26.2556
 20
-17.656
 30
0.0
 10
26.3015
 20
-17.5512
 30
0.0
 10
26.3248
 20
-17.4367
 30
0.0
 10
26.3254
 20
-17.3132
 30
0.0
 10
26.3254
 20
-17.3132
 30
0.0
 10
26.3248
 20
-17.2084
 30
0.0
 10
26.3079
 20
-17.114
 30
0.0
 10
26.2756
 20
-17.0306
 30
0.0
 10
26.2756
 20
-17.0306
 30
0.0
 10
26.2433
 20
-16.9472
 30
0.0
 10
26.2006
 20
-16.8754
 30
0.0
 10
26.1463
 20
-16.8146
 30
0.0
 10
26.1463
 20
-16.8146
 30
0.0
 10
26.0919
 20
-16.7538
 30
0.0
 10
26.0311
 20
-16.7053
 30
0.0
 10
25.9645
 20
-16.6691
 30
0.0
 10
25.9645
 20
-16.6691
 30
0.0
 10
25.8863
 20
-16.6212
 30
0.0
 10
25.8015
 20
-16.5863
 30
0.0
 10
25.7091
 20
-16.5649
 30
0.0
 10
25.7091
 20
-16.5649
 30
0.0
 10
25.6166
 20
-16.5436
 30
0.0
 10
25.5208
 20
-16.5326
 30
0.0
 10
25.4212
 20
-16.5332
 30
0.0
 10
25.4212
 20
-16.5332
 30
0.0
 10
25.376
 20
-16.5332
 30
0.0
 10
25.3372
 20
-16.5339
 30
0.0
 10
25.3055
 20
-16.5358
 30
0.0
 10
25.3055
 20
-16.5358
 30
0.0
 10
25.2738
 20
-16.5378
 30
0.0
 10
25.244
 20
-16.541
 30
0.0
 10
25.2156
 20
-16.5449
 30
0.0
 10
25.2156
 20
-16.5449
 30
0.0
 10
25.2156
 20
-16.5449
 30
0.0
 10
25.3126
 20
-15.8968
 30
0.0
 10
25.3126
 20
-15.8968
 30
0.0
 10
25.3126
 20
-15.8968
 30
0.0
 10
25.3126
 20
-15.8968
 30
0.0
 10
26.275
 20
-15.8968
 30
0.0
 10
26.275
 20
-15.8968
 30
0.0
 10
26.275
 20
-15.8968
 30
0.0
 10
26.275
 20
-15.8968
 30
0.0
 10
26.275
 20
-15.6097
 30
0.0
 10
26.275
 20
-15.6097
 30
0.0
  0
SPLINE
  5
4F
330
1F
100
AcDbEntity
  8
Vrstva 1
 62
   250
100
AcDbSpline
210
0.0
220
0.0
230
1.0
 70
    11
 71
     3
 72
    44
 73
    40
 74
     0
 42
0.0000000001
 43
0.0000000001
 40
0.0
 40
0.0
 40
0.0
 40
0.0
 40
0.0909090909090909
 40
0.0909090909090909
 40
0.0909090909090909
 40
0.0909090909090909
 40
0.1818181818181818
 40
0.1818181818181818
 40
0.1818181818181818
 40
0.1818181818181818
 40
0.2727272727272727
 40
0.2727272727272727
 40
0.2727272727272727
 40
0.2727272727272727
 40
0.3636363636363636
 40
0.3636363636363636
 40
0.3636363636363636
 40
0.3636363636363636
 40
0.4545454545454545
 40
0.4545454545454545
 40
0.4545454545454545
 40
0.4545454545454545
 40
0.5454545454545454
 40
0.5454545454545454
 40
0.5454545454545454
 40
0.5454545454545454
 40
0.6363636363636364
 40
0.6363636363636364
 40
0.6363636363636364
 40
0.6363636363636364
 40
0.7272727272727273
 40
0.7272727272727273
 40
0.7272727272727273
 40
0.7272727272727273
 40
0.8181818181818182
 40
0.8181818181818182
 40
0.8181818181818182
 40
0.8181818181818182
 40
1.0
 40
1.0
 40
1.0
 40
1.0
 10
26.8881
 20
-18.586
 30
0.0
 10
26.9159
 20
-18.5395
 30
0.0
 10
26.9456
 20
-18.48
 30
0.0
 10
26.9793
 20
-18.4082
 30
0.0
 10
26.9793
 20
-18.4082
 30
0.0
 10
27.0123
 20
-18.3357
 30
0.0
 10
27.0459
 20
-18.2568
 30
0.0
 10
27.0802
 20
-18.1695
 30
0.0
 10
27.0802
 20
-18.1695
 30
0.0
 10
27.1144
 20
-18.0828
 30
0.0
 10
27.1474
 20
-17.9942
 30
0.0
 10
27.1785
 20
-17.9037
 30
0.0
 10
27.1785
 20
-17.9037
 30
0.0
 10
27.2095
 20
-17.8132
 30
0.0
 10
27.2367
 20
-17.7265
 30
0.0
 10
27.2606
 20
-17.6431
 30
0.0
 10
27.2606
 20
-17.6431
 30
0.0
 10
27.2606
 20
-17.6431
 30
0.0
 10
26.8803
 20
-17.6819
 30
0.0
 10
26.8803
 20
-17.6819
 30
0.0
 10
26.8803
 20
-17.6819
 30
0.0
 10
26.8693
 20
-17.7537
 30
0.0
 10
26.8551
 20
-17.8306
 30
0.0
 10
26.8383
 20
-17.914
 30
0.0
 10
26.8383
 20
-17.914
 30
0.0
 10
26.8208
 20
-17.9975
 30
0.0
 10
26.8014
 20
-18.0816
 30
0.0
 10
26.7801
 20
-18.1663
 30
0.0
 10
26.7801
 20
-18.1663
 30
0.0
 10
26.7587
 20
-18.2516
 30
0.0
 10
26.7367
 20
-18.3325
 30
0.0
 10
26.7141
 20
-18.4095
 30
0.0
 10
26.7141
 20
-18.4095
 30
0.0
 10
26.6915
 20
-18.4864
 30
0.0
 10
26.6688
 20
-18.5543
 30
0.0
 10
26.6475
 20
-18.6132
 30
0.0
 10
26.6475
 20
-18.6132
 30
0.0
 10
26.6475
 20
-18.6132
 30
0.0
 10
26.8881
 20
-18.586
 30
0.0
 10
26.8881
 20
-18.586
 30
0.0
  0
SPLINE
  5
50
330
1F
100
AcDbEntity
  8
Vrstva 1
 62
   250
100
AcDbSpline
210
0.0
220
0.0
230
1.0
 70
    11
 71
     3
 72
   132
 73
   128
 74
     0
 42
0.0000000001
 43
0.0000000001
 40
0.0
 40
0.0
 40
0.0
 40
0.0
 40
0.0303030303030303
 40
0.0303030303030303
 40
0.0303030303030303
 40
0.0303030303030303
 40
0.0606060606060606
 40
0.0606060606060606
 40
0.0606060606060606
 40
0.0606060606060606
 40
0.0909090909090909
 40
0.0909090909090909
 40
0.0909090909090909
 40
0.0909090909090909
 40
0.1212121212121212
 40
0.1212121212121212
 40
0.1212121212121212
 40
0.1212121212121212
 40
0.1515151515151515
 40
0.1515151515151515
 40
0.1515151515151515
 40
0.1515151515151515
 40
0.1818181818181818
 40
0.1818181818181818
 40
0.1818181818181818
 40
0.1818181818181818
 40
0.2121212121212121
 40
0.2121212121212121
 40
0.2121212121212121
 40
0.2121212121212121
 40
0.2424242424242424
 40
0.2424242424242424
 40
0.2424242424242424
 40
0.2424242424242424
 40
0.2727272727272727
 40
0.2727272727272727
 40
0.2727272727272727
 40
0.2727272727272727
 40
0.303030303030303
 40
0.303030303030303
 40
0.303030303030303
 40
0.303030303030303
 40
0.3333333333333333
 40
0.3333333333333333
 40
0.3333333333333333
 40
0.3333333333333333
 40
0.3636363636363636
 40
0.3636363636363636
 40
0.3636363636363636
 40
0.3636363636363636
 40
0.3939393939393939
 40
0.3939393939393939
 40
0.3939393939393939
 40
0.3939393939393939
 40
0.4242424242424243
 40
0.4242424242424243
 40
0.4242424242424243
 40
0.4242424242424243
 40
0.4545454545454545
 40
0.4545454545454545
 40
0.4545454545454545
 40
0.4545454545454545
 40
0.4848484848484849
 40
0.4848484848484849
 40
0.4848484848484849
 40
0.4848484848484849
 40
0.5151515151515151
 40
0.5151515151515151
 40
0.5151515151515151
 40
0.5151515151515151
 40
0.5454545454545454
 40
0.5454545454545454
 40
0.5454545454545454
 40
0.5454545454545454
 40
0.5757575757575758
 40
0.5757575757575758
 40
0.5757575757575758
 40
0.5757575757575758
 40
0.6060606060606061
 40
0.6060606060606061
 40
0.6060606060606061
 40
0.6060606060606061
 40
0.6363636363636364
 40
0.6363636363636364
 40
0.6363636363636364
 40
0.6363636363636364
 40
0.6666666666666666
 40
0.6666666666666666
 40
0.6666666666666666
 40
0.6666666666666666
 40
0.696969696969697
 40
0.696969696969697
 40
0.696969696969697
 40
0.696969696969697
 40
0.7272727272727273
 40
0.7272727272727273
 40
0.7272727272727273
 40
0.7272727272727273
 40
0.7575757575757576
 40
0.7575757575757576
 40
0.7575757575757576
 40
0.7575757575757576
 40
0.7878787878787878
 40
0.7878787878787878
 40
0.7878787878787878
 40
0.7878787878787878
 40
0.8181818181818182
 40
0.8181818181818182
 40
0.8181818181818182
 40
0.8181818181818182
 40
0.8484848484848485
 40
0.8484848484848485
 40
0.8484848484848485
 40
0.8484848484848485
 40
0.8787878787878788
 40
0.8787878787878788
 40
0.8787878787878788
 40
0.8787878787878788
 40
0.9090909090909091
 40
0.9090909090909091
 40
0.9090909090909091
 40
0.9090909090909091
 40
0.9393939393939394
 40
0.9393939393939394
 40
0.9393939393939394
 40
0.9393939393939394
 40
1.0
 40
1.0
 40
1.0
 40
1.0
 10
29.069
 20
-15.6097
 30
0.0
 10
29.069
 20
-15.6097
 30
0.0
 10
27.8621
 20
-15.6097
 30
0.0
 10
27.8621
 20
-15.6097
 30
0.0
 10
27.8621
 20
-15.6097
 30
0.0
 10
27.8621
 20
-15.6097
 30
0.0
 10
27.6991
 20
-16.8204
 30
0.0
 10
27.6991
 20
-16.8204
 30
0.0
 10
27.6991
 20
-16.8204
 30
0.0
 10
27.7457
 20
-16.8139
 30
0.0
 10
27.7974
 20
-16.8087
 30
0.0
 10
27.8557
 20
-16.8042
 30
0.0
 10
27.8557
 20
-16.8042
 30
0.0
 10
27.9132
 20
-16.7997
 30
0.0
 10
27.9792
 20
-16.7971
 30
0.0
 10
28.0523
 20
-16.7971
 30
0.0
 10
28.0523
 20
-16.7971
 30
0.0
 10
28.2191
 20
-16.7978
 30
0.0
 10
28.3556
 20
-16.8217
 30
0.0
 10
28.4617
 20
-16.8683
 30
0.0
 10
28.4617
 20
-16.8683
 30
0.0
 10
28.5684
 20
-16.9155
 30
0.0
 10
28.6473
 20
-16.9801
 30
0.0
 10
28.6984
 20
-17.0629
 30
0.0
 10
28.6984
 20
-17.0629
 30
0.0
 10
28.7495
 20
-17.1464
 30
0.0
 10
28.7747
 20
-17.2427
 30
0.0
 10
28.774
 20
-17.352
 30
0.0
 10
28.774
 20
-17.352
 30
0.0
 10
28.7747
 20
-17.4367
 30
0.0
 10
28.7592
 20
-17.5124
 30
0.0
 10
28.7275
 20
-17.5797
 30
0.0
 10
28.7275
 20
-17.5797
 30
0.0
 10
28.6964
 20
-17.6476
 30
0.0
 10
28.6531
 20
-17.7045
 30
0.0
 10
28.5981
 20
-17.7524
 30
0.0
 10
28.5981
 20
-17.7524
 30
0.0
 10
28.5431
 20
-17.7996
 30
0.0
 10
28.4798
 20
-17.8358
 30
0.0
 10
28.408
 20
-17.861
 30
0.0
 10
28.408
 20
-17.861
 30
0.0
 10
28.3362
 20
-17.8862
 30
0.0
 10
28.2605
 20
-17.8992
 30
0.0
 10
28.1803
 20
-17.8992
 30
0.0
 10
28.1803
 20
-17.8992
 30
0.0
 10
28.1021
 20
-17.8985
 30
0.0
 10
28.0283
 20
-17.8914
 30
0.0
 10
27.9591
 20
-17.8765
 30
0.0
 10
27.9591
 20
-17.8765
 30
0.0
 10
27.8899
 20
-17.8623
 30
0.0
 10
27.8278
 20
-17.8448
 30
0.0
 10
27.7729
 20
-17.8235
 30
0.0
 10
27.7729
 20
-17.8235
 30
0.0
 10
27.7179
 20
-17.8022
 30
0.0
 10
27.6726
 20
-17.7808
 30
0.0
 10
27.6371
 20
-17.7595
 30
0.0
 10
27.6371
 20
-17.7595
 30
0.0
 10
27.6371
 20
-17.7595
 30
0.0
 10
27.5517
 20
-18.0195
 30
0.0
 10
27.5517
 20
-18.0195
 30
0.0
 10
27.5517
 20
-18.0195
 30
0.0
 10
27.5937
 20
-18.046
 30
0.0
 10
27.6461
 20
-18.0706
 30
0.0
 10
27.7088
 20
-18.0945
 30
0.0
 10
27.7088
 20
-18.0945
 30
0.0
 10
27.7716
 20
-18.1178
 30
0.0
 10
27.8427
 20
-18.1365
 30
0.0
 10
27.9223
 20
-18.1514
 30
0.0
 10
27.9223
 20
-18.1514
 30
0.0
 10
28.0025
 20
-18.1663
 30
0.0
 10
28.0885
 20
-18.174
 30
0.0
 10
28.1803
 20
-18.1747
 30
0.0
 10
28.1803
 20
-18.1747
 30
0.0
 10
28.3181
 20
-18.174
 30
0.0
 10
28.4435
 20
-18.152
 30
0.0
 10
28.558
 20
-18.1094
 30
0.0
 10
28.558
 20
-18.1094
 30
0.0
 10
28.6725
 20
-18.0667
 30
0.0
 10
28.7715
 20
-18.0065
 30
0.0
 10
28.8549
 20
-17.9289
 30
0.0
 10
28.8549
 20
-17.9289
 30
0.0
 10
28.939
 20
-17.8513
 30
0.0
 10
29.0036
 20
-17.7601
 30
0.0
 10
29.0496
 20
-17.656
 30
0.0
 10
29.0496
 20
-17.656
 30
0.0
 10
29.0955
 20
-17.5512
 30
0.0
 10
29.1188
 20
-17.4367
 30
0.0
 10
29.1194
 20
-17.3132
 30
0.0
 10
29.1194
 20
-17.3132
 30
0.0
 10
29.1188
 20
-17.2084
 30
0.0
 10
29.1019
 20
-17.114
 30
0.0
 10
29.0696
 20
-17.0306
 30
0.0
 10
29.0696
 20
-17.0306
 30
0.0
 10
29.0373
 20
-16.9472
 30
0.0
 10
28.9946
 20
-16.8754
 30
0.0
 10
28.9403
 20
-16.8146
 30
0.0
 10
28.9403
 20
-16.8146
 30
0.0
 10
28.8859
 20
-16.7538
 30
0.0
 10
28.8251
 20
-16.7053
 30
0.0
 10
28.7585
 20
-16.6691
 30
0.0
 10
28.7585
 20
-16.6691
 30
0.0
 10
28.6803
 20
-16.6212
 30
0.0
 10
28.5955
 20
-16.5863
 30
0.0
 10
28.5031
 20
-16.5649
 30
0.0
 10
28.5031
 20
-16.5649
 30
0.0
 10
28.4106
 20
-16.5436
 30
0.0
 10
28.3148
 20
-16.5326
 30
0.0
 10
28.2152
 20
-16.5332
 30
0.0
 10
28.2152
 20
-16.5332
 30
0.0
 10
28.17
 20
-16.5332
 30
0.0
 10
28.1312
 20
-16.5339
 30
0.0
 10
28.0995
 20
-16.5358
 30
0.0
 10
28.0995
 20
-16.5358
 30
0.0
 10
28.0678
 20
-16.5378
 30
0.0
 10
28.038
 20
-16.541
 30
0.0
 10
28.0096
 20
-16.5449
 30
0.0
 10
28.0096
 20
-16.5449
 30
0.0
 10
28.0096
 20
-16.5449
 30
0.0
 10
28.1066
 20
-15.8968
 30
0.0
 10
28.1066
 20
-15.8968
 30
0.0
 10
28.1066
 20
-15.8968
 30
0.0
 10
28.1066
 20
-15.8968
 30
0.0
 10
29.069
 20
-15.8968
 30
0.0
 10
29.069
 20
-15.8968
 30
0.0
 10
29.069
 20
-15.8968
 30
0.0
 10
29.069
 20
-15.8968
 30
0.0
 10
29.069
 20
-15.6097
 30
0.0
 10
29.069
 20
-15.6097
 30
0.0
  0
SPLINE
  5
51
330
1F
100
AcDbEntity
  8
Vrstva 1
 62
   250
100
AcDbSpline
210
0.0
220
0.0
230
1.0
 70
    11
 71
     3
 72
    68
 73
    64
 74
     0
 42
0.0000000001
 43
0.0000000001
 40
0.0
 40
0.0
 40
0.0
 40
0.0
 40
0.0588235294117647
 40
0.0588235294117647
 40
0.0588235294117647
 40
0.0588235294117647
 40
0.1176470588235294
 40
0.1176470588235294
 40
0.1176470588235294
 40
0.1176470588235294
 40
0.1764705882352941
 40
0.1764705882352941
 40
0.1764705882352941
 40
0.1764705882352941
 40
0.2352941176470588
 40
0.2352941176470588
 40
0.2352941176470588
 40
0.2352941176470588
 40
0.2941176470588235
 40
0.2941176470588235
 40
0.2941176470588235
 40
0.2941176470588235
 40
0.3529411764705883
 40
0.3529411764705883
 40
0.3529411764705883
 40
0.3529411764705883
 40
0.4117647058823529
 40
0.4117647058823529
 40
0.4117647058823529
 40
0.4117647058823529
 40
0.4705882352941176
 40
0.4705882352941176
 40
0.4705882352941176
 40
0.4705882352941176
 40
0.5294117647058824
 40
0.5294117647058824
 40
0.5294117647058824
 40
0.5294117647058824
 40
0.5882352941176471
 40
0.5882352941176471
 40
0.5882352941176471
 40
0.5882352941176471
 40
0.6470588235294118
 40
0.6470588235294118
 40
0.6470588235294118
 40
0.6470588235294118
 40
0.7058823529411765
 40
0.7058823529411765
 40
0.7058823529411765
 40
0.7058823529411765
 40
0.7647058823529411
 40
0.7647058823529411
 40
0.7647058823529411
 40
0.7647058823529411
 40
0.8235294117647058
 40
0.8235294117647058
 40
0.8235294117647058
 40
0.8235294117647058
 40
0.8823529411764706
 40
0.8823529411764706
 40
0.8823529411764706
 40
0.8823529411764706
 40
1.0
 40
1.0
 40
1.0
 40
1.0
 10
23.7418
 20
19.7898
 30
0.0
 10
23.6797
 20
19.7083
 30
0.0
 10
23.6196
 20
19.6158
 30
0.0
 10
23.5601
 20
19.511
 30
0.0
 10
23.5601
 20
19.511
 30
0.0
 10
23.5006
 20
19.4069
 30
0.0
 10
23.4462
 20
19.2892
 30
0.0
 10
23.3977
 20
19.1592
 30
0.0
 10
23.3977
 20
19.1592
 30
0.0
 10
23.3486
 20
19.0292
 30
0.0
 10
23.3098
 20
18.8843
 30
0.0
 10
23.28
 20
18.7259
 30
0.0
 10
23.28
 20
18.7259
 30
0.0
 10
23.2509
 20
18.5668
 30
0.0
 10
23.2354
 20
18.3928
 30
0.0
 10
23.2335
 20
18.2026
 30
0.0
 10
23.2335
 20
18.2026
 30
0.0
 10
23.2341
 20
18.0138
 30
0.0
 10
23.249
 20
17.8405
 30
0.0
 10
23.2787
 20
17.6827
 30
0.0
 10
23.2787
 20
17.6827
 30
0.0
 10
23.3078
 20
17.5248
 30
0.0
 10
23.3473
 20
17.3813
 30
0.0
 10
23.3958
 20
17.2519
 30
0.0
 10
23.3958
 20
17.2519
 30
0.0
 10
23.4449
 20
17.1226
 30
0.0
 10
23.4993
 20
17.0062
 30
0.0
 10
23.5594
 20
16.9027
 30
0.0
 10
23.5594
 20
16.9027
 30
0.0
 10
23.6189
 20
16.7992
 30
0.0
 10
23.6797
 20
16.7074
 30
0.0
 10
23.7418
 20
16.6272
 30
0.0
 10
23.7418
 20
16.6272
 30
0.0
 10
23.7418
 20
16.6272
 30
0.0
 10
24.0057
 20
16.6272
 30
0.0
 10
24.0057
 20
16.6272
 30
0.0
 10
24.0057
 20
16.6272
 30
0.0
 10
23.9138
 20
16.7559
 30
0.0
 10
23.8317
 20
16.8981
 30
0.0
 10
23.7593
 20
17.0534
 30
0.0
 10
23.7593
 20
17.0534
 30
0.0
 10
23.6862
 20
17.2092
 30
0.0
 10
23.6286
 20
17.3813
 30
0.0
 10
23.5859
 20
17.5708
 30
0.0
 10
23.5859
 20
17.5708
 30
0.0
 10
23.5432
 20
17.7596
 30
0.0
 10
23.5213
 20
17.9692
 30
0.0
 10
23.5206
 20
18.1988
 30
0.0
 10
23.5206
 20
18.1988
 30
0.0
 10
23.5213
 20
18.4335
 30
0.0
 10
23.542
 20
18.6476
 30
0.0
 10
23.5833
 20
18.8397
 30
0.0
 10
23.5833
 20
18.8397
 30
0.0
 10
23.6247
 20
19.0324
 30
0.0
 10
23.6816
 20
19.207
 30
0.0
 10
23.7541
 20
19.3636
 30
0.0
 10
23.7541
 20
19.3636
 30
0.0
 10
23.8265
 20
19.5201
 30
0.0
 10
23.9106
 20
19.6624
 30
0.0
 10
24.0057
 20
19.7898
 30
0.0
 10
24.0057
 20
19.7898
 30
0.0
 10
24.0057
 20
19.7898
 30
0.0
 10
23.7418
 20
19.7898
 30
0.0
 10
23.7418
 20
19.7898
 30
0.0
  0
SPLINE
  5
52
330
1F
100
AcDbEntity
  8
Vrstva 1
 62
   250
100
AcDbSpline
210
0.0
220
0.0
230
1.0
 70
    11
 71
     3
 72
    36
 73
    32
 74
     0
 42
0.0000000001
 43
0.0000000001
 40
0.0
 40
0.0
 40
0.0
 40
0.0
 40
0.1111111111111111
 40
0.1111111111111111
 40
0.1111111111111111
 40
0.1111111111111111
 40
0.2222222222222222
 40
0.2222222222222222
 40
0.2222222222222222
 40
0.2222222222222222
 40
0.3333333333333333
 40
0.3333333333333333
 40
0.3333333333333333
 40
0.3333333333333333
 40
0.4444444444444444
 40
0.4444444444444444
 40
0.4444444444444444
 40
0.4444444444444444
 40
0.5555555555555556
 40
0.5555555555555556
 40
0.5555555555555556
 40
0.5555555555555556
 40
0.6666666666666666
 40
0.6666666666666666
 40
0.6666666666666666
 40
0.6666666666666666
 40
0.7777777777777778
 40
0.7777777777777778
 40
0.7777777777777778
 40
0.7777777777777778
 40
1.0
 40
1.0
 40
1.0
 40
1.0
 10
25.003
 20
17.0967
 30
0.0
 10
25.003
 20
17.0967
 30
0.0
 10
25.3328
 20
17.0967
 30
0.0
 10
25.3328
 20
17.0967
 30
0.0
 10
25.3328
 20
17.0967
 30
0.0
 10
25.3328
 20
17.0967
 30
0.0
 10
25.3328
 20
19.619
 30
0.0
 10
25.3328
 20
19.619
 30
0.0
 10
25.3328
 20
19.619
 30
0.0
 10
25.3328
 20
19.619
 30
0.0
 10
25.0418
 20
19.619
 30
0.0
 10
25.0418
 20
19.619
 30
0.0
 10
25.0418
 20
19.619
 30
0.0
 10
25.0418
 20
19.619
 30
0.0
 10
24.4908
 20
19.3241
 30
0.0
 10
24.4908
 20
19.3241
 30
0.0
 10
24.4908
 20
19.3241
 30
0.0
 10
24.4908
 20
19.3241
 30
0.0
 10
24.5567
 20
19.0641
 30
0.0
 10
24.5567
 20
19.0641
 30
0.0
 10
24.5567
 20
19.0641
 30
0.0
 10
24.5567
 20
19.0641
 30
0.0
 10
24.9952
 20
19.3008
 30
0.0
 10
24.9952
 20
19.3008
 30
0.0
 10
24.9952
 20
19.3008
 30
0.0
 10
24.9952
 20
19.3008
 30
0.0
 10
25.003
 20
19.3008
 30
0.0
 10
25.003
 20
19.3008
 30
0.0
 10
25.003
 20
19.3008
 30
0.0
 10
25.003
 20
19.3008
 30
0.0
 10
25.003
 20
17.0967
 30
0.0
 10
25.003
 20
17.0967
 30
0.0
  0
SPLINE
  5
53
330
1F
100
AcDbEntity
  8
Vrstva 1
 62
   250
100
AcDbSpline
210
0.0
220
0.0
230
1.0
 70
    11
 71
     3
 72
   132
 73
   128
 74
     0
 42
0.0000000001
 43
0.0000000001
 40
0.0
 40
0.0
 40
0.0
 40
0.0
 40
0.0303030303030303
 40
0.0303030303030303
 40
0.0303030303030303
 40
0.0303030303030303
 40
0.0606060606060606
 40
0.0606060606060606
 40
0.0606060606060606
 40
0.0606060606060606
 40
0.0909090909090909
 40
0.0909090909090909
 40
0.0909090909090909
 40
0.0909090909090909
 40
0.1212121212121212
 40
0.1212121212121212
 40
0.1212121212121212
 40
0.1212121212121212
 40
0.1515151515151515
 40
0.1515151515151515
 40
0.1515151515151515
 40
0.1515151515151515
 40
0.1818181818181818
 40
0.1818181818181818
 40
0.1818181818181818
 40
0.1818181818181818
 40
0.2121212121212121
 40
0.2121212121212121
 40
0.2121212121212121
 40
0.2121212121212121
 40
0.2424242424242424
 40
0.2424242424242424
 40
0.2424242424242424
 40
0.2424242424242424
 40
0.2727272727272727
 40
0.2727272727272727
 40
0.2727272727272727
 40
0.2727272727272727
 40
0.303030303030303
 40
0.303030303030303
 40
0.303030303030303
 40
0.303030303030303
 40
0.3333333333333333
 40
0.3333333333333333
 40
0.3333333333333333
 40
0.3333333333333333
 40
0.3636363636363636
 40
0.3636363636363636
 40
0.3636363636363636
 40
0.3636363636363636
 40
0.3939393939393939
 40
0.3939393939393939
 40
0.3939393939393939
 40
0.3939393939393939
 40
0.4242424242424243
 40
0.4242424242424243
 40
0.4242424242424243
 40
0.4242424242424243
 40
0.4545454545454545
 40
0.4545454545454545
 40
0.4545454545454545
 40
0.4545454545454545
 40
0.4848484848484849
 40
0.4848484848484849
 40
0.4848484848484849
 40
0.4848484848484849
 40
0.5151515151515151
 40
0.5151515151515151
 40
0.5151515151515151
 40
0.5151515151515151
 40
0.5454545454545454
 40
0.5454545454545454
 40
0.5454545454545454
 40
0.5454545454545454
 40
0.5757575757575758
 40
0.5757575757575758
 40
0.5757575757575758
 40
0.5757575757575758
 40
0.6060606060606061
 40
0.6060606060606061
 40
0.6060606060606061
 40
0.6060606060606061
 40
0.6363636363636364
 40
0.6363636363636364
 40
0.6363636363636364
 40
0.6363636363636364
 40
0.6666666666666666
 40
0.6666666666666666
 40
0.6666666666666666
 40
0.6666666666666666
 40
0.696969696969697
 40
0.696969696969697
 40
0.696969696969697
 40
0.696969696969697
 40
0.7272727272727273
 40
0.7272727272727273
 40
0.7272727272727273
 40
0.7272727272727273
 40
0.7575757575757576
 40
0.7575757575757576
 40
0.7575757575757576
 40
0.7575757575757576
 40
0.7878787878787878
 40
0.7878787878787878
 40
0.7878787878787878
 40
0.7878787878787878
 40
0.8181818181818182
 40
0.8181818181818182
 40
0.8181818181818182
 40
0.8181818181818182
 40
0.8484848484848485
 40
0.8484848484848485
 40
0.8484848484848485
 40
0.8484848484848485
 40
0.8787878787878788
 40
0.8787878787878788
 40
0.8787878787878788
 40
0.8787878787878788
 40
0.9090909090909091
 40
0.9090909090909091
 40
0.9090909090909091
 40
0.9090909090909091
 40
0.9393939393939394
 40
0.9393939393939394
 40
0.9393939393939394
 40
0.9393939393939394
 40
1.0
 40
1.0
 40
1.0
 40
1.0
 10
27.7582
 20
19.619
 30
0.0
 10
27.7582
 20
19.619
 30
0.0
 10
26.5513
 20
19.619
 30
0.0
 10
26.5513
 20
19.619
 30
0.0
 10
26.5513
 20
19.619
 30
0.0
 10
26.5513
 20
19.619
 30
0.0
 10
26.3883
 20
18.4083
 30
0.0
 10
26.3883
 20
18.4083
 30
0.0
 10
26.3883
 20
18.4083
 30
0.0
 10
26.4349
 20
18.4148
 30
0.0
 10
26.4866
 20
18.42
 30
0.0
 10
26.5449
 20
18.4245
 30
0.0
 10
26.5449
 20
18.4245
 30
0.0
 10
26.6024
 20
18.429
 30
0.0
 10
26.6684
 20
18.4316
 30
0.0
 10
26.7415
 20
18.4316
 30
0.0
 10
26.7415
 20
18.4316
 30
0.0
 10
26.9083
 20
18.4309
 30
0.0
 10
27.0448
 20
18.407
 30
0.0
 10
27.1509
 20
18.3604
 30
0.0
 10
27.1509
 20
18.3604
 30
0.0
 10
27.2576
 20
18.3132
 30
0.0
 10
27.3365
 20
18.2486
 30
0.0
 10
27.3876
 20
18.1658
 30
0.0
 10
27.3876
 20
18.1658
 30
0.0
 10
27.4387
 20
18.0823
 30
0.0
 10
27.4639
 20
17.986
 30
0.0
 10
27.4632
 20
17.8767
 30
0.0
 10
27.4632
 20
17.8767
 30
0.0
 10
27.4639
 20
17.792
 30
0.0
 10
27.4484
 20
17.7163
 30
0.0
 10
27.4167
 20
17.649
 30
0.0
 10
27.4167
 20
17.649
 30
0.0
 10
27.3856
 20
17.5811
 30
0.0
 10
27.3423
 20
17.5242
 30
0.0
 10
27.2873
 20
17.4763
 30
0.0
 10
27.2873
 20
17.4763
 30
0.0
 10
27.2323
 20
17.4291
 30
0.0
 10
27.169
 20
17.3929
 30
0.0
 10
27.0972
 20
17.3677
 30
0.0
 10
27.0972
 20
17.3677
 30
0.0
 10
27.0254
 20
17.3425
 30
0.0
 10
26.9497
 20
17.3295
 30
0.0
 10
26.8695
 20
17.3295
 30
0.0
 10
26.8695
 20
17.3295
 30
0.0
 10
26.7913
 20
17.3302
 30
0.0
 10
26.7175
 20
17.3373
 30
0.0
 10
26.6483
 20
17.3522
 30
0.0
 10
26.6483
 20
17.3522
 30
0.0
 10
26.5791
 20
17.3664
 30
0.0
 10
26.517
 20
17.3839
 30
0.0
 10
26.4621
 20
17.4052
 30
0.0
 10
26.4621
 20
17.4052
 30
0.0
 10
26.4071
 20
17.4265
 30
0.0
 10
26.3618
 20
17.4479
 30
0.0
 10
26.3263
 20
17.4692
 30
0.0
 10
26.3263
 20
17.4692
 30
0.0
 10
26.3263
 20
17.4692
 30
0.0
 10
26.2409
 20
17.2092
 30
0.0
 10
26.2409
 20
17.2092
 30
0.0
 10
26.2409
 20
17.2092
 30
0.0
 10
26.2829
 20
17.1827
 30
0.0
 10
26.3353
 20
17.1581
 30
0.0
 10
26.398
 20
17.1342
 30
0.0
 10
26.398
 20
17.1342
 30
0.0
 10
26.4608
 20
17.1109
 30
0.0
 10
26.5319
 20
17.0922
 30
0.0
 10
26.6115
 20
17.0773
 30
0.0
 10
26.6115
 20
17.0773
 30
0.0
 10
26.6917
 20
17.0624
 30
0.0
 10
26.7777
 20
17.0547
 30
0.0
 10
26.8695
 20
17.054
 30
0.0
 10
26.8695
 20
17.054
 30
0.0
 10
27.0073
 20
17.0547
 30
0.0
 10
27.1327
 20
17.0767
 30
0.0
 10
27.2472
 20
17.1193
 30
0.0
 10
27.2472
 20
17.1193
 30
0.0
 10
27.3617
 20
17.162
 30
0.0
 10
27.4607
 20
17.2222
 30
0.0
 10
27.5441
 20
17.2998
 30
0.0
 10
27.5441
 20
17.2998
 30
0.0
 10
27.6282
 20
17.3774
 30
0.0
 10
27.6928
 20
17.4686
 30
0.0
 10
27.7388
 20
17.5727
 30
0.0
 10
27.7388
 20
17.5727
 30
0.0
 10
27.7847
 20
17.6775
 30
0.0
 10
27.808
 20
17.792
 30
0.0
 10
27.8086
 20
17.9155
 30
0.0
 10
27.8086
 20
17.9155
 30
0.0
 10
27.808
 20
18.0203
 30
0.0
 10
27.7911
 20
18.1147
 30
0.0
 10
27.7588
 20
18.1981
 30
0.0
 10
27.7588
 20
18.1981
 30
0.0
 10
27.7265
 20
18.2815
 30
0.0
 10
27.6838
 20
18.3533
 30
0.0
 10
27.6295
 20
18.4141
 30
0.0
 10
27.6295
 20
18.4141
 30
0.0
 10
27.5751
 20
18.4749
 30
0.0
 10
27.5143
 20
18.5234
 30
0.0
 10
27.4477
 20
18.5596
 30
0.0
 10
27.4477
 20
18.5596
 30
0.0
 10
27.3695
 20
18.6075
 30
0.0
 10
27.2847
 20
18.6424
 30
0.0
 10
27.1923
 20
18.6638
 30
0.0
 10
27.1923
 20
18.6638
 30
0.0
 10
27.0998
 20
18.6851
 30
0.0
 10
27.004
 20
18.6961
 30
0.0
 10
26.9044
 20
18.6955
 30
0.0
 10
26.9044
 20
18.6955
 30
0.0
 10
26.8592
 20
18.6955
 30
0.0
 10
26.8204
 20
18.6948
 30
0.0
 10
26.7887
 20
18.6929
 30
0.0
 10
26.7887
 20
18.6929
 30
0.0
 10
26.757
 20
18.6909
 30
0.0
 10
26.7272
 20
18.6877
 30
0.0
 10
26.6988
 20
18.6838
 30
0.0
 10
26.6988
 20
18.6838
 30
0.0
 10
26.6988
 20
18.6838
 30
0.0
 10
26.7958
 20
19.3319
 30
0.0
 10
26.7958
 20
19.3319
 30
0.0
 10
26.7958
 20
19.3319
 30
0.0
 10
26.7958
 20
19.3319
 30
0.0
 10
27.7582
 20
19.3319
 30
0.0
 10
27.7582
 20
19.3319
 30
0.0
 10
27.7582
 20
19.3319
 30
0.0
 10
27.7582
 20
19.3319
 30
0.0
 10
27.7582
 20
19.619
 30
0.0
 10
27.7582
 20
19.619
 30
0.0
  0
SPLINE
  5
54
330
1F
100
AcDbEntity
  8
Vrstva 1
 62
   250
100
AcDbSpline
210
0.0
220
0.0
230
1.0
 70
    11
 71
     3
 72
    68
 73
    64
 74
     0
 42
0.0000000001
 43
0.0000000001
 40
0.0
 40
0.0
 40
0.0
 40
0.0
 40
0.0588235294117647
 40
0.0588235294117647
 40
0.0588235294117647
 40
0.0588235294117647
 40
0.1176470588235294
 40
0.1176470588235294
 40
0.1176470588235294
 40
0.1176470588235294
 40
0.1764705882352941
 40
0.1764705882352941
 40
0.1764705882352941
 40
0.1764705882352941
 40
0.2352941176470588
 40
0.2352941176470588
 40
0.2352941176470588
 40
0.2352941176470588
 40
0.2941176470588235
 40
0.2941176470588235
 40
0.2941176470588235
 40
0.2941176470588235
 40
0.3529411764705883
 40
0.3529411764705883
 40
0.3529411764705883
 40
0.3529411764705883
 40
0.4117647058823529
 40
0.4117647058823529
 40
0.4117647058823529
 40
0.4117647058823529
 40
0.4705882352941176
 40
0.4705882352941176
 40
0.4705882352941176
 40
0.4705882352941176
 40
0.5294117647058824
 40
0.5294117647058824
 40
0.5294117647058824
 40
0.5294117647058824
 40
0.5882352941176471
 40
0.5882352941176471
 40
0.5882352941176471
 40
0.5882352941176471
 40
0.6470588235294118
 40
0.6470588235294118
 40
0.6470588235294118
 40
0.6470588235294118
 40
0.7058823529411765
 40
0.7058823529411765
 40
0.7058823529411765
 40
0.7058823529411765
 40
0.7647058823529411
 40
0.7647058823529411
 40
0.7647058823529411
 40
0.7647058823529411
 40
0.8235294117647058
 40
0.8235294117647058
 40
0.8235294117647058
 40
0.8235294117647058
 40
0.8823529411764706
 40
0.8823529411764706
 40
0.8823529411764706
 40
0.8823529411764706
 40
1.0
 40
1.0
 40
1.0
 40
1.0
 10
28.4101
 20
16.6272
 30
0.0
 10
28.4722
 20
16.7086
 30
0.0
 10
28.5323
 20
16.8011
 30
0.0
 10
28.5925
 20
16.9053
 30
0.0
 10
28.5925
 20
16.9053
 30
0.0
 10
28.652
 20
17.0094
 30
0.0
 10
28.7056
 20
17.1258
 30
0.0
 10
28.7548
 20
17.2558
 30
0.0
 10
28.7548
 20
17.2558
 30
0.0
 10
28.8033
 20
17.3858
 30
0.0
 10
28.8421
 20
17.5294
 30
0.0
 10
28.8719
 20
17.6878
 30
0.0
 10
28.8719
 20
17.6878
 30
0.0
 10
28.901
 20
17.8463
 30
0.0
 10
28.9165
 20
18.0203
 30
0.0
 10
28.9184
 20
18.2104
 30
0.0
 10
28.9184
 20
18.2104
 30
0.0
 10
28.9178
 20
18.4005
 30
0.0
 10
28.9029
 20
18.5745
 30
0.0
 10
28.8732
 20
18.7336
 30
0.0
 10
28.8732
 20
18.7336
 30
0.0
 10
28.8441
 20
18.8921
 30
0.0
 10
28.8052
 20
19.0363
 30
0.0
 10
28.7561
 20
19.1663
 30
0.0
 10
28.7561
 20
19.1663
 30
0.0
 10
28.7069
 20
19.2957
 30
0.0
 10
28.6526
 20
19.4121
 30
0.0
 10
28.5925
 20
19.5155
 30
0.0
 10
28.5925
 20
19.5155
 30
0.0
 10
28.533
 20
19.619
 30
0.0
 10
28.4722
 20
19.7102
 30
0.0
 10
28.4101
 20
19.7898
 30
0.0
 10
28.4101
 20
19.7898
 30
0.0
 10
28.4101
 20
19.7898
 30
0.0
 10
28.1462
 20
19.7898
 30
0.0
 10
28.1462
 20
19.7898
 30
0.0
 10
28.1462
 20
19.7898
 30
0.0
 10
28.2387
 20
19.6611
 30
0.0
 10
28.3215
 20
19.5188
 30
0.0
 10
28.3946
 20
19.3629
 30
0.0
 10
28.3946
 20
19.3629
 30
0.0
 10
28.467
 20
19.207
 30
0.0
 10
28.5246
 20
19.0344
 30
0.0
 10
28.5666
 20
18.8442
 30
0.0
 10
28.5666
 20
18.8442
 30
0.0
 10
28.6086
 20
18.6541
 30
0.0
 10
28.6306
 20
18.4426
 30
0.0
 10
28.6313
 20
18.2104
 30
0.0
 10
28.6313
 20
18.2104
 30
0.0
 10
28.6306
 20
17.9782
 30
0.0
 10
28.6086
 20
17.7661
 30
0.0
 10
28.566
 20
17.5746
 30
0.0
 10
28.566
 20
17.5746
 30
0.0
 10
28.5233
 20
17.3832
 30
0.0
 10
28.4657
 20
17.2099
 30
0.0
 10
28.3926
 20
17.0534
 30
0.0
 10
28.3926
 20
17.0534
 30
0.0
 10
28.3202
 20
16.8969
 30
0.0
 10
28.238
 20
16.7546
 30
0.0
 10
28.1462
 20
16.6272
 30
0.0
 10
28.1462
 20
16.6272
 30
0.0
 10
28.1462
 20
16.6272
 30
0.0
 10
28.4101
 20
16.6272
 30
0.0
 10
28.4101
 20
16.6272
 30
0.0
  0
SPLINE
  5
55
330
1F
100
AcDbEntity
  8
Vrstva 1
 62
   250
370
    15
100
AcDbSpline
210
0.0
220
0.0
230
1.0
 70
    24
 71
     3
 72
     8
 73
     4
 74
     0
 42
0.0000000001
 43
0.0000000001
 40
0.0
 40
0.0
 40
0.0
 40
0.0
 40
1.0
 40
1.0
 40
1.0
 40
1.0
 10
10.4981
 20
0.857
 30
0.0
 10
10.4981
 20
0.857
 30
0.0
 10
22.3597
 20
0.857
 30
0.0
 10
22.3597
 20
0.857
 30
0.0
  0
SPLINE
  5
56
330
1F
100
AcDbEntity
  8
Vrstva 1
 62
   250
370
    15
100
AcDbSpline
210
0.0
220
0.0
230
1.0
 70
    24
 71
     3
 72
     8
 73
     4
 74
     0
 42
0.0000000001
 43
0.0000000001
 40
0.0
 40
0.0
 40
0.0
 40
0.0
 40
1.0
 40
1.0
 40
1.0
 40
1.0
 10
10.2334
 20
-8.6611
 30
0.0
 10
10.2334
 20
-8.6611
 30
0.0
 10
22.0044
 20
-8.6611
 30
0.0
 10
22.0044
 20
-8.6611
 30
0.0
  0
SPLINE
  5
57
330
1F
100
AcDbEntity
  8
Vrstva 1
 62
   250
370
    15
100
AcDbSpline
210
0.0
220
0.0
230
1.0
 70
    24
 71
     3
 72
     8
 73
     4
 74
     0
 42
0.0000000001
 43
0.0000000001
 40
0.0
 40
0.0
 40
0.0
 40
0.0
 40
1.0
 40
1.0
 40
1.0
 40
1.0
 10
21.549
 20
-0.0372
 30
0.0
 10
21.549
 20
-0.0372
 30
0.0
 10
21.549
 20
-7.8424
 30
0.0
 10
21.549
 20
-7.8424
 30
0.0
  0
SPLINE
  5
58
330
1F
100
AcDbEntity
  8
Vrstva 1
 62
   250
370
    15
100
AcDbSpline
210
0.0
220
0.0
230
1.0
 70
    24
 71
     3
 72
     8
 73
     4
 74
     0
 42
0.0000000001
 43
0.0000000001
 40
0.0
 40
0.0
 40
0.0
 40
0.0
 40
1.0
 40
1.0
 40
1.0
 40
1.0
 10
-24.9762
 20
-14.4677
 30
0.0
 10
-24.9762
 20
-14.4677
 30
0.0
 10
-31.4577
 20
-14.4677
 30
0.0
 10
-31.4577
 20
-14.4677
 30
0.0
  0
SPLINE
  5
59
330
1F
100
AcDbEntity
  8
Vrstva 1
 62
   250
370
    15
100
AcDbSpline
210
0.0
220
0.0
230
1.0
 70
    24
 71
     3
 72
     8
 73
     4
 74
     0
 42
0.0000000001
 43
0.0000000001
 40
0.0
 40
0.0
 40
0.0
 40
0.0
 40
1.0
 40
1.0
 40
1.0
 40
1.0
 10
-25.0096
 20
12.8795
 30
0.0
 10
-25.0096
 20
12.8795
 30
0.0
 10
-31.6228
 20
12.8795
 30
0.0
 10
-31.6228
 20
12.8795
 30
0.0
  0
SPLINE
  5
5A
330
1F
100
AcDbEntity
  8
Vrstva 1
 62
   250
370
    15
100
AcDbSpline
210
0.0
220
0.0
230
1.0
 70
    24
 71
     3
 72
     8
 73
     4
 74
     0
 42
0.0000000001
 43
0.0000000001
 40
0.0
 40
0.0
 40
0.0
 40
0.0
 40
1.0
 40
1.0
 40
1.0
 40
1.0
 10
-31.0554
 20
12.2001
 30
0.0
 10
-31.0554
 20
12.2001
 30
0.0
 10
-31.0554
 20
-14.165
 30
0.0
 10
-31.0554
 20
-14.165
 30
0.0
  0
SPLINE
  5
5B
330
1F
100
AcDbEntity
  8
Vrstva 1
 62
   250
370
    15
100
AcDbSpline
210
0.0
220
0.0
230
1.0
 70
    24
 71
     3
 72
     8
 73
     4
 74
     0
 42
0.0000000001
 43
0.0000000001
 40
0.0
 40
0.0
 40
0.0
 40
0.0
 40
1.0
 40
1.0
 40
1.0
 40
1.0
 10
-24.6713
 20
16.7227
 30
0.0
 10
-24.6713
 20
16.7227
 30
0.0
 10
-24.6713
 20
13.1748
 30
0.0
 10
-24.6713
 20
13.1748
 30
0.0
  0
SPLINE
  5
5C
330
1F
100
AcDbEntity
  8
Vrstva 1
 62
   250
370
    15
100
AcDbSpline
210
0.0
220
0.0
230
1.0
 70
    24
 71
     3
 72
     8
 73
     4
 74
     0
 42
0.0000000001
 43
0.0000000001
 40
0.0
 40
0.0
 40
0.0
 40
0.0
 40
1.0
 40
1.0
 40
1.0
 40
1.0
 10
16.2958
 20
13.2666
 30
0.0
 10
16.2958
 20
13.2666
 30
0.0
 10
16.2958
 20
16.4867
 30
0.0
 10
16.2958
 20
16.4867
 30
0.0
  0
SPLINE
  5
5D
330
1F
100
AcDbEntity
  8
Vrstva 1
 62
   250
370
    15
100
AcDbSpline
210
0.0
220
0.0
230
1.0
 70
    24
 71
     3
 72
     8
 73
     4
 74
     0
 42
0.0000000001
 43
0.0000000001
 40
0.0
 40
0.0
 40
0.0
 40
0.0
 40
1.0
 40
1.0
 40
1.0
 40
1.0
 10
15.4677
 20
16.2489
 30
0.0
 10
15.4677
 20
16.2489
 30
0.0
 10
-24.3351
 20
16.2489
 30
0.0
 10
-24.3351
 20
16.2489
 30
0.0
  0
SPLINE
  5
5E
330
1F
100
AcDbEntity
  8
Vrstva 1
 62
   250
100
AcDbSpline
210
0.0
220
0.0
230
1.0
 70
    11
 71
     3
 72
   124
 73
   120
 74
     0
 42
0.0000000001
 43
0.0000000001
 40
0.0
 40
0.0
 40
0.0
 40
0.0
 40
0.032258064516129
 40
0.032258064516129
 40
0.032258064516129
 40
0.032258064516129
 40
0.0645161290322581
 40
0.0645161290322581
 40
0.0645161290322581
 40
0.0645161290322581
 40
0.0967741935483871
 40
0.0967741935483871
 40
0.0967741935483871
 40
0.0967741935483871
 40
0.1290322580645161
 40
0.1290322580645161
 40
0.1290322580645161
 40
0.1290322580645161
 40
0.1612903225806452
 40
0.1612903225806452
 40
0.1612903225806452
 40
0.1612903225806452
 40
0.1935483870967742
 40
0.1935483870967742
 40
0.1935483870967742
 40
0.1935483870967742
 40
0.2258064516129032
 40
0.2258064516129032
 40
0.2258064516129032
 40
0.2258064516129032
 40
0.2580645161290323
 40
0.2580645161290323
 40
0.2580645161290323
 40
0.2580645161290323
 40
0.2903225806451613
 40
0.2903225806451613
 40
0.2903225806451613
 40
0.2903225806451613
 40
0.3225806451612903
 40
0.3225806451612903
 40
0.3225806451612903
 40
0.3225806451612903
 40
0.3548387096774194
 40
0.3548387096774194
 40
0.3548387096774194
 40
0.3548387096774194
 40
0.3870967741935484
 40
0.3870967741935484
 40
0.3870967741935484
 40
0.3870967741935484
 40
0.4193548387096774
 40
0.4193548387096774
 40
0.4193548387096774
 40
0.4193548387096774
 40
0.4516129032258064
 40
0.4516129032258064
 40
0.4516129032258064
 40
0.4516129032258064
 40
0.4838709677419355
 40
0.4838709677419355
 40
0.4838709677419355
 40
0.4838709677419355
 40
0.5161290322580645
 40
0.5161290322580645
 40
0.5161290322580645
 40
0.5161290322580645
 40
0.5483870967741935
 40
0.5483870967741935
 40
0.5483870967741935
 40
0.5483870967741935
 40
0.5806451612903226
 40
0.5806451612903226
 40
0.5806451612903226
 40
0.5806451612903226
 40
0.6129032258064516
 40
0.6129032258064516
 40
0.6129032258064516
 40
0.6129032258064516
 40
0.6451612903225806
 40
0.6451612903225806
 40
0.6451612903225806
 40
0.6451612903225806
 40
0.6774193548387096
 40
0.6774193548387096
 40
0.6774193548387096
 40
0.6774193548387096
 40
0.7096774193548387
 40
0.7096774193548387
 40
0.7096774193548387
 40
0.7096774193548387
 40
0.7419354838709677
 40
0.7419354838709677
 40
0.7419354838709677
 40
0.7419354838709677
 40
0.7741935483870968
 40
0.7741935483870968
 40
0.7741935483870968
 40
0.7741935483870968
 40
0.8064516129032258
 40
0.8064516129032258
 40
0.8064516129032258
 40
0.8064516129032258
 40
0.8387096774193549
 40
0.8387096774193549
 40
0.8387096774193549
 40
0.8387096774193549
 40
0.8709677419354839
 40
0.8709677419354839
 40
0.8709677419354839
 40
0.8709677419354839
 40
0.9032258064516129
 40
0.9032258064516129
 40
0.9032258064516129
 40
0.9032258064516129
 40
0.9354838709677419
 40
0.9354838709677419
 40
0.9354838709677419
 40
0.9354838709677419
 40
1.0
 40
1.0
 40
1.0
 40
1.0
 10
-4.9346
 20
16.6437
 30
0.0
 10
-4.9346
 20
16.6437
 30
0.0
 10
-4.9346
 20
16.927
 30
0.0
 10
-4.9346
 20
16.927
 30
0.0
 10
-4.9346
 20
16.927
 30
0.0
 10
-4.9346
 20
16.927
 30
0.0
 10
-6.0638
 20
16.927
 30
0.0
 10
-6.0638
 20
16.927
 30
0.0
 10
-6.0638
 20
16.927
 30
0.0
 10
-6.0638
 20
16.927
 30
0.0
 10
-6.0638
 20
16.9347
 30
0.0
 10
-6.0638
 20
16.9347
 30
0.0
 10
-6.0638
 20
16.9347
 30
0.0
 10
-6.0638
 20
16.9347
 30
0.0
 10
-5.8659
 20
17.121
 30
0.0
 10
-5.8659
 20
17.121
 30
0.0
 10
-5.8659
 20
17.121
 30
0.0
 10
-5.7327
 20
17.2484
 30
0.0
 10
-5.6124
 20
17.3694
 30
0.0
 10
-5.5057
 20
17.4832
 30
0.0
 10
-5.5057
 20
17.4832
 30
0.0
 10
-5.3989
 20
17.597
 30
0.0
 10
-5.3077
 20
17.7083
 30
0.0
 10
-5.2321
 20
17.8156
 30
0.0
 10
-5.2321
 20
17.8156
 30
0.0
 10
-5.1558
 20
17.923
 30
0.0
 10
-5.0982
 20
18.031
 30
0.0
 10
-5.0575
 20
18.1396
 30
0.0
 10
-5.0575
 20
18.1396
 30
0.0
 10
-5.0174
 20
18.2476
 30
0.0
 10
-4.9973
 20
18.3595
 30
0.0
 10
-4.9967
 20
18.4753
 30
0.0
 10
-4.9967
 20
18.4753
 30
0.0
 10
-4.9967
 20
18.5665
 30
0.0
 10
-5.0109
 20
18.6557
 30
0.0
 10
-5.0406
 20
18.7424
 30
0.0
 10
-5.0406
 20
18.7424
 30
0.0
 10
-5.0704
 20
18.8291
 30
0.0
 10
-5.117
 20
18.9073
 30
0.0
 10
-5.179
 20
18.9772
 30
0.0
 10
-5.179
 20
18.9772
 30
0.0
 10
-5.2411
 20
19.0477
 30
0.0
 10
-5.3213
 20
19.1033
 30
0.0
 10
-5.419
 20
19.1447
 30
0.0
 10
-5.419
 20
19.1447
 30
0.0
 10
-5.5166
 20
19.1867
 30
0.0
 10
-5.6331
 20
19.2081
 30
0.0
 10
-5.7689
 20
19.2087
 30
0.0
 10
-5.7689
 20
19.2087
 30
0.0
 10
-5.8646
 20
19.2081
 30
0.0
 10
-5.9558
 20
19.1971
 30
0.0
 10
-6.0425
 20
19.1744
 30
0.0
 10
-6.0425
 20
19.1744
 30
0.0
 10
-6.1291
 20
19.1518
 30
0.0
 10
-6.2093
 20
19.1214
 30
0.0
 10
-6.283
 20
19.0826
 30
0.0
 10
-6.283
 20
19.0826
 30
0.0
 10
-6.3561
 20
19.0444
 30
0.0
 10
-6.4214
 20
19.0011
 30
0.0
 10
-6.479
 20
18.9526
 30
0.0
 10
-6.479
 20
18.9526
 30
0.0
 10
-6.479
 20
18.9526
 30
0.0
 10
-6.3704
 20
18.712
 30
0.0
 10
-6.3704
 20
18.712
 30
0.0
 10
-6.3704
 20
18.712
 30
0.0
 10
-6.3315
 20
18.745
 30
0.0
 10
-6.285
 20
18.778
 30
0.0
 10
-6.2307
 20
18.8103
 30
0.0
 10
-6.2307
 20
18.8103
 30
0.0
 10
-6.1763
 20
18.8433
 30
0.0
 10
-6.1162
 20
18.8698
 30
0.0
 10
-6.0496
 20
18.8918
 30
0.0
 10
-6.0496
 20
18.8918
 30
0.0
 10
-5.983
 20
18.9131
 30
0.0
 10
-5.9112
 20
18.9248
 30
0.0
 10
-5.8348
 20
18.9254
 30
0.0
 10
-5.8348
 20
18.9254
 30
0.0
 10
-5.7411
 20
18.9248
 30
0.0
 10
-5.6622
 20
18.9112
 30
0.0
 10
-5.5981
 20
18.8847
 30
0.0
 10
-5.5981
 20
18.8847
 30
0.0
 10
-5.5348
 20
18.8575
 30
0.0
 10
-5.4837
 20
18.8213
 30
0.0
 10
-5.4455
 20
18.7754
 30
0.0
 10
-5.4455
 20
18.7754
 30
0.0
 10
-5.4073
 20
18.7288
 30
0.0
 10
-5.3795
 20
18.6764
 30
0.0
 10
-5.3627
 20
18.6176
 30
0.0
 10
-5.3627
 20
18.6176
 30
0.0
 10
-5.3459
 20
18.5587
 30
0.0
 10
-5.3375
 20
18.4973
 30
0.0
 10
-5.3381
 20
18.4326
 30
0.0
 10
-5.3381
 20
18.4326
 30
0.0
 10
-5.3381
 20
18.3382
 30
0.0
 10
-5.3569
 20
18.2451
 30
0.0
 10
-5.3944
 20
18.1526
 30
0.0
 10
-5.3944
 20
18.1526
 30
0.0
 10
-5.4319
 20
18.0594
 30
0.0
 10
-5.4888
 20
17.9624
 30
0.0
 10
-5.5658
 20
17.8602
 30
0.0
 10
-5.5658
 20
17.8602
 30
0.0
 10
-5.6428
 20
17.7581
 30
0.0
 10
-5.7404
 20
17.6462
 30
0.0
 10
-5.8588
 20
17.5246
 30
0.0
 10
-5.8588
 20
17.5246
 30
0.0
 10
-5.9765
 20
17.403
 30
0.0
 10
-6.1162
 20
17.2659
 30
0.0
 10
-6.2772
 20
17.1132
 30
0.0
 10
-6.2772
 20
17.1132
 30
0.0
 10
-6.2772
 20
17.1132
 30
0.0
 10
-6.545
 20
16.8532
 30
0.0
 10
-6.545
 20
16.8532
 30
0.0
 10
-6.545
 20
16.8532
 30
0.0
 10
-6.545
 20
16.8532
 30
0.0
 10
-6.545
 20
16.6437
 30
0.0
 10
-6.545
 20
16.6437
 30
0.0
 10
-6.545
 20
16.6437
 30
0.0
 10
-6.545
 20
16.6437
 30
0.0
 10
-4.9346
 20
16.6437
 30
0.0
 10
-4.9346
 20
16.6437
 30
0.0
  0
SPLINE
  5
5F
330
1F
100
AcDbEntity
  8
Vrstva 1
 62
   250
100
AcDbSpline
210
0.0
220
0.0
230
1.0
 70
    11
 71
     3
 72
    48
 73
    44
 74
     0
 42
0.0000000001
 43
0.0000000001
 40
0.0
 40
0.0
 40
0.0
 40
0.0
 40
0.0833333333333333
 40
0.0833333333333333
 40
0.0833333333333333
 40
0.0833333333333333
 40
0.1666666666666667
 40
0.1666666666666667
 40
0.1666666666666667
 40
0.1666666666666667
 40
0.25
 40
0.25
 40
0.25
 40
0.25
 40
0.3333333333333333
 40
0.3333333333333333
 40
0.3333333333333333
 40
0.3333333333333333
 40
0.4166666666666667
 40
0.4166666666666667
 40
0.4166666666666667
 40
0.4166666666666667
 40
0.5
 40
0.5
 40
0.5
 40
0.5
 40
0.5833333333333334
 40
0.5833333333333334
 40
0.5833333333333334
 40
0.5833333333333334
 40
0.6666666666666666
 40
0.6666666666666666
 40
0.6666666666666666
 40
0.6666666666666666
 40
0.75
 40
0.75
 40
0.75
 40
0.75
 40
0.8333333333333334
 40
0.8333333333333334
 40
0.8333333333333334
 40
0.8333333333333334
 40
1.0
 40
1.0
 40
1.0
 40
1.0
 10
-3.1767
 20
16.6437
 30
0.0
 10
-3.1767
 20
16.6437
 30
0.0
 10
-3.1767
 20
17.3344
 30
0.0
 10
-3.1767
 20
17.3344
 30
0.0
 10
-3.1767
 20
17.3344
 30
0.0
 10
-3.1767
 20
17.3344
 30
0.0
 10
-2.8236
 20
17.3344
 30
0.0
 10
-2.8236
 20
17.3344
 30
0.0
 10
-2.8236
 20
17.3344
 30
0.0
 10
-2.8236
 20
17.3344
 30
0.0
 10
-2.8236
 20
17.5983
 30
0.0
 10
-2.8236
 20
17.5983
 30
0.0
 10
-2.8236
 20
17.5983
 30
0.0
 10
-2.8236
 20
17.5983
 30
0.0
 10
-3.1767
 20
17.5983
 30
0.0
 10
-3.1767
 20
17.5983
 30
0.0
 10
-3.1767
 20
17.5983
 30
0.0
 10
-3.1767
 20
17.5983
 30
0.0
 10
-3.1767
 20
19.166
 30
0.0
 10
-3.1767
 20
19.166
 30
0.0
 10
-3.1767
 20
19.166
 30
0.0
 10
-3.1767
 20
19.166
 30
0.0
 10
-3.5453
 20
19.166
 30
0.0
 10
-3.5453
 20
19.166
 30
0.0
 10
-3.5453
 20
19.166
 30
0.0
 10
-3.5453
 20
19.166
 30
0.0
 10
-4.6707
 20
17.5556
 30
0.0
 10
-4.6707
 20
17.5556
 30
0.0
 10
-4.6707
 20
17.5556
 30
0.0
 10
-4.6707
 20
17.5556
 30
0.0
 10
-4.6707
 20
17.3344
 30
0.0
 10
-4.6707
 20
17.3344
 30
0.0
 10
-4.6707
 20
17.3344
 30
0.0
 10
-4.6707
 20
17.3344
 30
0.0
 10
-3.4988
 20
17.3344
 30
0.0
 10
-3.4988
 20
17.3344
 30
0.0
 10
-3.4988
 20
17.3344
 30
0.0
 10
-3.4988
 20
17.3344
 30
0.0
 10
-3.4988
 20
16.6437
 30
0.0
 10
-3.4988
 20
16.6437
 30
0.0
 10
-3.4988
 20
16.6437
 30
0.0
 10
-3.4988
 20
16.6437
 30
0.0
 10
-3.1767
 20
16.6437
 30
0.0
 10
-3.1767
 20
16.6437
 30
0.0
  0
SPLINE
  5
60
330
1F
100
AcDbEntity
  8
Vrstva 1
 62
   250
100
AcDbSpline
210
0.0
220
0.0
230
1.0
 70
    11
 71
     3
 72
    36
 73
    32
 74
     0
 42
0.0000000001
 43
0.0000000001
 40
0.0
 40
0.0
 40
0.0
 40
0.0
 40
0.1111111111111111
 40
0.1111111111111111
 40
0.1111111111111111
 40
0.1111111111111111
 40
0.2222222222222222
 40
0.2222222222222222
 40
0.2222222222222222
 40
0.2222222222222222
 40
0.3333333333333333
 40
0.3333333333333333
 40
0.3333333333333333
 40
0.3333333333333333
 40
0.4444444444444444
 40
0.4444444444444444
 40
0.4444444444444444
 40
0.4444444444444444
 40
0.5555555555555556
 40
0.5555555555555556
 40
0.5555555555555556
 40
0.5555555555555556
 40
0.6666666666666666
 40
0.6666666666666666
 40
0.6666666666666666
 40
0.6666666666666666
 40
0.7777777777777778
 40
0.7777777777777778
 40
0.7777777777777778
 40
0.7777777777777778
 40
1.0
 40
1.0
 40
1.0
 40
1.0
 10
-4.3253
 20
17.5983
 30
0.0
 10
-4.3253
 20
17.5983
 30
0.0
 10
-4.3253
 20
17.6061
 30
0.0
 10
-4.3253
 20
17.6061
 30
0.0
 10
-4.3253
 20
17.6061
 30
0.0
 10
-4.3253
 20
17.6061
 30
0.0
 10
-3.7083
 20
18.4637
 30
0.0
 10
-3.7083
 20
18.4637
 30
0.0
 10
-3.7083
 20
18.4637
 30
0.0
 10
-3.6741
 20
18.5212
 30
0.0
 10
-3.6398
 20
18.5794
 30
0.0
 10
-3.6061
 20
18.6383
 30
0.0
 10
-3.6061
 20
18.6383
 30
0.0
 10
-3.5732
 20
18.6978
 30
0.0
 10
-3.5369
 20
18.7637
 30
0.0
 10
-3.4988
 20
18.8362
 30
0.0
 10
-3.4988
 20
18.8362
 30
0.0
 10
-3.4988
 20
18.8362
 30
0.0
 10
-3.4871
 20
18.8362
 30
0.0
 10
-3.4871
 20
18.8362
 30
0.0
 10
-3.4871
 20
18.8362
 30
0.0
 10
-3.4949
 20
18.7042
 30
0.0
 10
-3.4988
 20
18.5723
 30
0.0
 10
-3.4988
 20
18.4404
 30
0.0
 10
-3.4988
 20
18.4404
 30
0.0
 10
-3.4988
 20
18.4404
 30
0.0
 10
-3.4988
 20
17.5983
 30
0.0
 10
-3.4988
 20
17.5983
 30
0.0
 10
-3.4988
 20
17.5983
 30
0.0
 10
-3.4988
 20
17.5983
 30
0.0
 10
-4.3253
 20
17.5983
 30
0.0
 10
-4.3253
 20
17.5983
 30
0.0
  0
SPLINE
  5
61
330
1F
100
AcDbEntity
  8
Vrstva 1
 62
   250
100
AcDbSpline
210
0.0
220
0.0
230
1.0
 70
    11
 71
     3
 72
    36
 73
    32
 74
     0
 42
0.0000000001
 43
0.0000000001
 40
0.0
 40
0.0
 40
0.0
 40
0.0
 40
0.1111111111111111
 40
0.1111111111111111
 40
0.1111111111111111
 40
0.1111111111111111
 40
0.2222222222222222
 40
0.2222222222222222
 40
0.2222222222222222
 40
0.2222222222222222
 40
0.3333333333333333
 40
0.3333333333333333
 40
0.3333333333333333
 40
0.3333333333333333
 40
0.4444444444444444
 40
0.4444444444444444
 40
0.4444444444444444
 40
0.4444444444444444
 40
0.5555555555555556
 40
0.5555555555555556
 40
0.5555555555555556
 40
0.5555555555555556
 40
0.6666666666666666
 40
0.6666666666666666
 40
0.6666666666666666
 40
0.6666666666666666
 40
0.7777777777777778
 40
0.7777777777777778
 40
0.7777777777777778
 40
0.7777777777777778
 40
1.0
 40
1.0
 40
1.0
 40
1.0
 10
-2.517
 20
19.166
 30
0.0
 10
-2.517
 20
19.166
 30
0.0
 10
-2.517
 20
18.8827
 30
0.0
 10
-2.517
 20
18.8827
 30
0.0
 10
-2.517
 20
18.8827
 30
0.0
 10
-2.517
 20
18.8827
 30
0.0
 10
-1.283
 20
18.8827
 30
0.0
 10
-1.283
 20
18.8827
 30
0.0
 10
-1.283
 20
18.8827
 30
0.0
 10
-1.283
 20
18.8827
 30
0.0
 10
-1.283
 20
18.875
 30
0.0
 10
-1.283
 20
18.875
 30
0.0
 10
-1.283
 20
18.875
 30
0.0
 10
-1.283
 20
18.875
 30
0.0
 10
-2.3773
 20
16.6437
 30
0.0
 10
-2.3773
 20
16.6437
 30
0.0
 10
-2.3773
 20
16.6437
 30
0.0
 10
-2.3773
 20
16.6437
 30
0.0
 10
-2.0242
 20
16.6437
 30
0.0
 10
-2.0242
 20
16.6437
 30
0.0
 10
-2.0242
 20
16.6437
 30
0.0
 10
-2.0242
 20
16.6437
 30
0.0
 10
-0.926
 20
18.941
 30
0.0
 10
-0.926
 20
18.941
 30
0.0
 10
-0.926
 20
18.941
 30
0.0
 10
-0.926
 20
18.941
 30
0.0
 10
-0.926
 20
19.166
 30
0.0
 10
-0.926
 20
19.166
 30
0.0
 10
-0.926
 20
19.166
 30
0.0
 10
-0.926
 20
19.166
 30
0.0
 10
-2.517
 20
19.166
 30
0.0
 10
-2.517
 20
19.166
 30
0.0
  0
SPLINE
  5
62
330
1F
100
AcDbEntity
  8
Vrstva 1
 62
   250
100
AcDbSpline
210
0.0
220
0.0
230
1.0
 70
    11
 71
     3
 72
    36
 73
    32
 74
     0
 42
0.0000000001
 43
0.0000000001
 40
0.0
 40
0.0
 40
0.0
 40
0.0
 40
0.1111111111111111
 40
0.1111111111111111
 40
0.1111111111111111
 40
0.1111111111111111
 40
0.2222222222222222
 40
0.2222222222222222
 40
0.2222222222222222
 40
0.2222222222222222
 40
0.3333333333333333
 40
0.3333333333333333
 40
0.3333333333333333
 40
0.3333333333333333
 40
0.4444444444444444
 40
0.4444444444444444
 40
0.4444444444444444
 40
0.4444444444444444
 40
0.5555555555555556
 40
0.5555555555555556
 40
0.5555555555555556
 40
0.5555555555555556
 40
0.6666666666666666
 40
0.6666666666666666
 40
0.6666666666666666
 40
0.6666666666666666
 40
0.7777777777777778
 40
0.7777777777777778
 40
0.7777777777777778
 40
0.7777777777777778
 40
1.0
 40
1.0
 40
1.0
 40
1.0
 10
-31.5991
 20
-2.3976
 30
0.0
 10
-31.5991
 20
-2.3976
 30
0.0
 10
-31.5991
 20
-2.0678
 30
0.0
 10
-31.5991
 20
-2.0678
 30
0.0
 10
-31.5991
 20
-2.0678
 30
0.0
 10
-31.5991
 20
-2.0678
 30
0.0
 10
-34.1214
 20
-2.0678
 30
0.0
 10
-34.1214
 20
-2.0678
 30
0.0
 10
-34.1214
 20
-2.0678
 30
0.0
 10
-34.1214
 20
-2.0678
 30
0.0
 10
-34.1214
 20
-2.3588
 30
0.0
 10
-34.1214
 20
-2.3588
 30
0.0
 10
-34.1214
 20
-2.3588
 30
0.0
 10
-34.1214
 20
-2.3588
 30
0.0
 10
-33.8265
 20
-2.9098
 30
0.0
 10
-33.8265
 20
-2.9098
 30
0.0
 10
-33.8265
 20
-2.9098
 30
0.0
 10
-33.8265
 20
-2.9098
 30
0.0
 10
-33.5665
 20
-2.8439
 30
0.0
 10
-33.5665
 20
-2.8439
 30
0.0
 10
-33.5665
 20
-2.8439
 30
0.0
 10
-33.5665
 20
-2.8439
 30
0.0
 10
-33.8032
 20
-2.4054
 30
0.0
 10
-33.8032
 20
-2.4054
 30
0.0
 10
-33.8032
 20
-2.4054
 30
0.0
 10
-33.8032
 20
-2.4054
 30
0.0
 10
-33.8032
 20
-2.3976
 30
0.0
 10
-33.8032
 20
-2.3976
 30
0.0
 10
-33.8032
 20
-2.3976
 30
0.0
 10
-33.8032
 20
-2.3976
 30
0.0
 10
-31.5991
 20
-2.3976
 30
0.0
 10
-31.5991
 20
-2.3976
 30
0.0
  0
SPLINE
  5
63
330
1F
100
AcDbEntity
  8
Vrstva 1
 62
   250
100
AcDbSpline
210
0.0
220
0.0
230
1.0
 70
    11
 71
     3
 72
   124
 73
   120
 74
     0
 42
0.0000000001
 43
0.0000000001
 40
0.0
 40
0.0
 40
0.0
 40
0.0
 40
0.032258064516129
 40
0.032258064516129
 40
0.032258064516129
 40
0.032258064516129
 40
0.0645161290322581
 40
0.0645161290322581
 40
0.0645161290322581
 40
0.0645161290322581
 40
0.0967741935483871
 40
0.0967741935483871
 40
0.0967741935483871
 40
0.0967741935483871
 40
0.1290322580645161
 40
0.1290322580645161
 40
0.1290322580645161
 40
0.1290322580645161
 40
0.1612903225806452
 40
0.1612903225806452
 40
0.1612903225806452
 40
0.1612903225806452
 40
0.1935483870967742
 40
0.1935483870967742
 40
0.1935483870967742
 40
0.1935483870967742
 40
0.2258064516129032
 40
0.2258064516129032
 40
0.2258064516129032
 40
0.2258064516129032
 40
0.2580645161290323
 40
0.2580645161290323
 40
0.2580645161290323
 40
0.2580645161290323
 40
0.2903225806451613
 40
0.2903225806451613
 40
0.2903225806451613
 40
0.2903225806451613
 40
0.3225806451612903
 40
0.3225806451612903
 40
0.3225806451612903
 40
0.3225806451612903
 40
0.3548387096774194
 40
0.3548387096774194
 40
0.3548387096774194
 40
0.3548387096774194
 40
0.3870967741935484
 40
0.3870967741935484
 40
0.3870967741935484
 40
0.3870967741935484
 40
0.4193548387096774
 40
0.4193548387096774
 40
0.4193548387096774
 40
0.4193548387096774
 40
0.4516129032258064
 40
0.4516129032258064
 40
0.4516129032258064
 40
0.4516129032258064
 40
0.4838709677419355
 40
0.4838709677419355
 40
0.4838709677419355
 40
0.4838709677419355
 40
0.5161290322580645
 40
0.5161290322580645
 40
0.5161290322580645
 40
0.5161290322580645
 40
0.5483870967741935
 40
0.5483870967741935
 40
0.5483870967741935
 40
0.5483870967741935
 40
0.5806451612903226
 40
0.5806451612903226
 40
0.5806451612903226
 40
0.5806451612903226
 40
0.6129032258064516
 40
0.6129032258064516
 40
0.6129032258064516
 40
0.6129032258064516
 40
0.6451612903225806
 40
0.6451612903225806
 40
0.6451612903225806
 40
0.6451612903225806
 40
0.6774193548387096
 40
0.6774193548387096
 40
0.6774193548387096
 40
0.6774193548387096
 40
0.7096774193548387
 40
0.7096774193548387
 40
0.7096774193548387
 40
0.7096774193548387
 40
0.7419354838709677
 40
0.7419354838709677
 40
0.7419354838709677
 40
0.7419354838709677
 40
0.7741935483870968
 40
0.7741935483870968
 40
0.7741935483870968
 40
0.7741935483870968
 40
0.8064516129032258
 40
0.8064516129032258
 40
0.8064516129032258
 40
0.8064516129032258
 40
0.8387096774193549
 40
0.8387096774193549
 40
0.8387096774193549
 40
0.8387096774193549
 40
0.8709677419354839
 40
0.8709677419354839
 40
0.8709677419354839
 40
0.8709677419354839
 40
0.9032258064516129
 40
0.9032258064516129
 40
0.9032258064516129
 40
0.9032258064516129
 40
0.9354838709677419
 40
0.9354838709677419
 40
0.9354838709677419
 40
0.9354838709677419
 40
1.0
 40
1.0
 40
1.0
 40
1.0
 10
-34.1602
 20
0.2916
 30
0.0
 10
-34.1602
 20
0.2605
 30
0.0
 10
-34.1589
 20
0.2237
 30
0.0
 10
-34.1563
 20
0.1823
 30
0.0
 10
-34.1563
 20
0.1823
 30
0.0
 10
-34.1538
 20
0.1402
 30
0.0
 10
-34.1486
 20
0.0937
 30
0.0
 10
-34.1408
 20
0.0432
 30
0.0
 10
-34.1408
 20
0.0432
 30
0.0
 10
-34.1214
 20
-0.1165
 30
0.0
 10
-34.08
 20
-0.2646
 30
0.0
 10
-34.0173
 20
-0.4011
 30
0.0
 10
-34.0173
 20
-0.4011
 30
0.0
 10
-33.9546
 20
-0.5375
 30
0.0
 10
-33.8718
 20
-0.6585
 30
0.0
 10
-33.7683
 20
-0.7639
 30
0.0
 10
-33.7683
 20
-0.7639
 30
0.0
 10
-33.6855
 20
-0.8486
 30
0.0
 10
-33.5872
 20
-0.923
 30
0.0
 10
-33.4734
 20
-0.9864
 30
0.0
 10
-33.4734
 20
-0.9864
 30
0.0
 10
-33.3602
 20
-1.0504
 30
0.0
 10
-33.2328
 20
-1.1002
 30
0.0
 10
-33.0918
 20
-1.1364
 30
0.0
 10
-33.0918
 20
-1.1364
 30
0.0
 10
-32.9508
 20
-1.172
 30
0.0
 10
-32.7969
 20
-1.1901
 30
0.0
 10
-32.6313
 20
-1.1908
 30
0.0
 10
-32.6313
 20
-1.1908
 30
0.0
 10
-32.467
 20
-1.1901
 30
0.0
 10
-32.3189
 20
-1.1688
 30
0.0
 10
-32.187
 20
-1.1274
 30
0.0
 10
-32.187
 20
-1.1274
 30
0.0
 10
-32.0544
 20
-1.0853
 30
0.0
 10
-31.9419
 20
-1.0252
 30
0.0
 10
-31.8481
 20
-0.9469
 30
0.0
 10
-31.8481
 20
-0.9469
 30
0.0
 10
-31.7543
 20
-0.8693
 30
0.0
 10
-31.6819
 20
-0.7755
 30
0.0
 10
-31.6321
 20
-0.6669
 30
0.0
 10
-31.6321
 20
-0.6669
 30
0.0
 10
-31.5823
 20
-0.5582
 30
0.0
 10
-31.5571
 20
-0.4367
 30
0.0
 10
-31.5564
 20
-0.3021
 30
0.0
 10
-31.5564
 20
-0.3021
 30
0.0
 10
-31.5577
 20
-0.1702
 30
0.0
 10
-31.5823
 20
-0.0518
 30
0.0
 10
-31.6301
 20
0.0523
 30
0.0
 10
-31.6301
 20
0.0523
 30
0.0
 10
-31.6787
 20
0.1558
 30
0.0
 10
-31.7446
 20
0.2444
 30
0.0
 10
-31.828
 20
0.3168
 30
0.0
 10
-31.828
 20
0.3168
 30
0.0
 10
-31.9115
 20
0.3892
 30
0.0
 10
-32.0066
 20
0.4449
 30
0.0
 10
-32.1133
 20
0.4824
 30
0.0
 10
-32.1133
 20
0.4824
 30
0.0
 10
-32.2193
 20
0.5205
 30
0.0
 10
-32.3312
 20
0.5399
 30
0.0
 10
-32.4489
 20
0.5399
 30
0.0
 10
-32.4489
 20
0.5399
 30
0.0
 10
-32.5718
 20
0.5393
 30
0.0
 10
-32.6831
 20
0.5205
 30
0.0
 10
-32.7827
 20
0.4837
 30
0.0
 10
-32.7827
 20
0.4837
 30
0.0
 10
-32.8823
 20
0.4468
 30
0.0
 10
-32.9683
 20
0.3944
 30
0.0
 10
-33.0401
 20
0.3272
 30
0.0
 10
-33.0401
 20
0.3272
 30
0.0
 10
-33.1112
 20
0.2593
 30
0.0
 10
-33.1668
 20
0.1791
 30
0.0
 10
-33.205
 20
0.0866
 30
0.0
 10
-33.205
 20
0.0866
 30
0.0
 10
-33.2438
 20
-0.0059
 30
0.0
 10
-33.2632
 20
-0.1088
 30
0.0
 10
-33.2638
 20
-0.2206
 30
0.0
 10
-33.2638
 20
-0.2206
 30
0.0
 10
-33.2632
 20
-0.3138
 30
0.0
 10
-33.2496
 20
-0.3991
 30
0.0
 10
-33.2237
 20
-0.4768
 30
0.0
 10
-33.2237
 20
-0.4768
 30
0.0
 10
-33.1972
 20
-0.5544
 30
0.0
 10
-33.1623
 20
-0.6236
 30
0.0
 10
-33.1177
 20
-0.6837
 30
0.0
 10
-33.1177
 20
-0.6837
 30
0.0
 10
-33.0737
 20
-0.7432
 30
0.0
 10
-33.0239
 20
-0.7937
 30
0.0
 10
-32.9689
 20
-0.8338
 30
0.0
 10
-32.9689
 20
-0.8338
 30
0.0
 10
-32.9689
 20
-0.8338
 30
0.0
 10
-32.9689
 20
-0.8415
 30
0.0
 10
-32.9689
 20
-0.8415
 30
0.0
 10
-32.9689
 20
-0.8415
 30
0.0
 10
-33.0743
 20
-0.8273
 30
0.0
 10
-33.1759
 20
-0.7988
 30
0.0
 10
-33.2735
 20
-0.7555
 30
0.0
 10
-33.2735
 20
-0.7555
 30
0.0
 10
-33.3705
 20
-0.7128
 30
0.0
 10
-33.4598
 20
-0.6559
 30
0.0
 10
-33.5406
 20
-0.5835
 30
0.0
 10
-33.5406
 20
-0.5835
 30
0.0
 10
-33.6208
 20
-0.511
 30
0.0
 10
-33.6894
 20
-0.4237
 30
0.0
 10
-33.745
 20
-0.3209
 30
0.0
 10
-33.745
 20
-0.3209
 30
0.0
 10
-33.8006
 20
-0.2181
 30
0.0
 10
-33.8394
 20
-0.099
 30
0.0
 10
-33.8614
 20
0.0355
 30
0.0
 10
-33.8614
 20
0.0355
 30
0.0
 10
-33.8692
 20
0.084
 30
0.0
 10
-33.875
 20
0.1305
 30
0.0
 10
-33.8782
 20
0.1739
 30
0.0
 10
-33.8782
 20
0.1739
 30
0.0
 10
-33.8821
 20
0.2172
 30
0.0
 10
-33.8828
 20
0.2567
 30
0.0
 10
-33.8808
 20
0.2916
 30
0.0
 10
-33.8808
 20
0.2916
 30
0.0
 10
-33.8808
 20
0.2916
 30
0.0
 10
-34.1602
 20
0.2916
 30
0.0
 10
-34.1602
 20
0.2916
 30
0.0
  0
SPLINE
  5
64
330
1F
100
AcDbEntity
  8
Vrstva 1
 62
   250
100
AcDbSpline
210
0.0
220
0.0
230
1.0
 70
    11
 71
     3
 72
    64
 73
    60
 74
     0
 42
0.0000000001
 43
0.0000000001
 40
0.0
 40
0.0
 40
0.0
 40
0.0
 40
0.0625
 40
0.0625
 40
0.0625
 40
0.0625
 40
0.125
 40
0.125
 40
0.125
 40
0.125
 40
0.1875
 40
0.1875
 40
0.1875
 40
0.1875
 40
0.25
 40
0.25
 40
0.25
 40
0.25
 40
0.3125
 40
0.3125
 40
0.3125
 40
0.3125
 40
0.375
 40
0.375
 40
0.375
 40
0.375
 40
0.4375
 40
0.4375
 40
0.4375
 40
0.4375
 40
0.5
 40
0.5
 40
0.5
 40
0.5
 40
0.5625
 40
0.5625
 40
0.5625
 40
0.5625
 40
0.625
 40
0.625
 40
0.625
 40
0.625
 40
0.6875
 40
0.6875
 40
0.6875
 40
0.6875
 40
0.75
 40
0.75
 40
0.75
 40
0.75
 40
0.8125
 40
0.8125
 40
0.8125
 40
0.8125
 40
0.875
 40
0.875
 40
0.875
 40
0.875
 40
1.0
 40
1.0
 40
1.0
 40
1.0
 10
-31.8203
 20
-0.2944
 30
0.0
 10
-31.8209
 20
-0.3849
 30
0.0
 10
-31.839
 20
-0.4645
 30
0.0
 10
-31.8753
 20
-0.5337
 30
0.0
 10
-31.8753
 20
-0.5337
 30
0.0
 10
-31.9115
 20
-0.6022
 30
0.0
 10
-31.9619
 20
-0.6604
 30
0.0
 10
-32.0272
 20
-0.7076
 30
0.0
 10
-32.0272
 20
-0.7076
 30
0.0
 10
-32.0926
 20
-0.7549
 30
0.0
 10
-32.1695
 20
-0.7904
 30
0.0
 10
-32.2575
 20
-0.815
 30
0.0
 10
-32.2575
 20
-0.815
 30
0.0
 10
-32.3454
 20
-0.8396
 30
0.0
 10
-32.4418
 20
-0.8519
 30
0.0
 10
-32.5459
 20
-0.8532
 30
0.0
 10
-32.5459
 20
-0.8532
 30
0.0
 10
-32.577
 20
-0.8532
 30
0.0
 10
-32.6041
 20
-0.8493
 30
0.0
 10
-32.6287
 20
-0.8428
 30
0.0
 10
-32.6287
 20
-0.8428
 30
0.0
 10
-32.6527
 20
-0.8363
 30
0.0
 10
-32.674
 20
-0.8279
 30
0.0
 10
-32.6934
 20
-0.8182
 30
0.0
 10
-32.6934
 20
-0.8182
 30
0.0
 10
-32.7561
 20
-0.7865
 30
0.0
 10
-32.8105
 20
-0.7458
 30
0.0
 10
-32.857
 20
-0.6947
 30
0.0
 10
-32.857
 20
-0.6947
 30
0.0
 10
-32.9029
 20
-0.6443
 30
0.0
 10
-32.9392
 20
-0.5873
 30
0.0
 10
-32.965
 20
-0.524
 30
0.0
 10
-32.965
 20
-0.524
 30
0.0
 10
-32.9903
 20
-0.4606
 30
0.0
 10
-33.0038
 20
-0.3946
 30
0.0
 10
-33.0038
 20
-0.3254
 30
0.0
 10
-33.0038
 20
-0.3254
 30
0.0
 10
-33.0032
 20
-0.22
 30
0.0
 10
-32.9799
 20
-0.1288
 30
0.0
 10
-32.934
 20
-0.0505
 30
0.0
 10
-32.934
 20
-0.0505
 30
0.0
 10
-32.8881
 20
0.0271
 30
0.0
 10
-32.8221
 20
0.0872
 30
0.0
 10
-32.7361
 20
0.1299
 30
0.0
 10
-32.7361
 20
0.1299
 30
0.0
 10
-32.6501
 20
0.1726
 30
0.0
 10
-32.5466
 20
0.1939
 30
0.0
 10
-32.4256
 20
0.1946
 30
0.0
 10
-32.4256
 20
0.1946
 30
0.0
 10
-32.3047
 20
0.1939
 30
0.0
 10
-32.1986
 20
0.1732
 30
0.0
 10
-32.1081
 20
0.1325
 30
0.0
 10
-32.1081
 20
0.1325
 30
0.0
 10
-32.0175
 20
0.0917
 30
0.0
 10
-31.9477
 20
0.0348
 30
0.0
 10
-31.8973
 20
-0.0383
 30
0.0
 10
-31.8973
 20
-0.0383
 30
0.0
 10
-31.8468
 20
-0.1113
 30
0.0
 10
-31.8209
 20
-0.1967
 30
0.0
 10
-31.8203
 20
-0.2944
 30
0.0
  0
SPLINE
  5
65
330
1F
100
AcDbEntity
  8
Vrstva 1
 62
   250
100
AcDbSpline
210
0.0
220
0.0
230
1.0
 70
    11
 71
     3
 72
   132
 73
   128
 74
     0
 42
0.0000000001
 43
0.0000000001
 40
0.0
 40
0.0
 40
0.0
 40
0.0
 40
0.0303030303030303
 40
0.0303030303030303
 40
0.0303030303030303
 40
0.0303030303030303
 40
0.0606060606060606
 40
0.0606060606060606
 40
0.0606060606060606
 40
0.0606060606060606
 40
0.0909090909090909
 40
0.0909090909090909
 40
0.0909090909090909
 40
0.0909090909090909
 40
0.1212121212121212
 40
0.1212121212121212
 40
0.1212121212121212
 40
0.1212121212121212
 40
0.1515151515151515
 40
0.1515151515151515
 40
0.1515151515151515
 40
0.1515151515151515
 40
0.1818181818181818
 40
0.1818181818181818
 40
0.1818181818181818
 40
0.1818181818181818
 40
0.2121212121212121
 40
0.2121212121212121
 40
0.2121212121212121
 40
0.2121212121212121
 40
0.2424242424242424
 40
0.2424242424242424
 40
0.2424242424242424
 40
0.2424242424242424
 40
0.2727272727272727
 40
0.2727272727272727
 40
0.2727272727272727
 40
0.2727272727272727
 40
0.303030303030303
 40
0.303030303030303
 40
0.303030303030303
 40
0.303030303030303
 40
0.3333333333333333
 40
0.3333333333333333
 40
0.3333333333333333
 40
0.3333333333333333
 40
0.3636363636363636
 40
0.3636363636363636
 40
0.3636363636363636
 40
0.3636363636363636
 40
0.3939393939393939
 40
0.3939393939393939
 40
0.3939393939393939
 40
0.3939393939393939
 40
0.4242424242424243
 40
0.4242424242424243
 40
0.4242424242424243
 40
0.4242424242424243
 40
0.4545454545454545
 40
0.4545454545454545
 40
0.4545454545454545
 40
0.4545454545454545
 40
0.4848484848484849
 40
0.4848484848484849
 40
0.4848484848484849
 40
0.4848484848484849
 40
0.5151515151515151
 40
0.5151515151515151
 40
0.5151515151515151
 40
0.5151515151515151
 40
0.5454545454545454
 40
0.5454545454545454
 40
0.5454545454545454
 40
0.5454545454545454
 40
0.5757575757575758
 40
0.5757575757575758
 40
0.5757575757575758
 40
0.5757575757575758
 40
0.6060606060606061
 40
0.6060606060606061
 40
0.6060606060606061
 40
0.6060606060606061
 40
0.6363636363636364
 40
0.6363636363636364
 40
0.6363636363636364
 40
0.6363636363636364
 40
0.6666666666666666
 40
0.6666666666666666
 40
0.6666666666666666
 40
0.6666666666666666
 40
0.696969696969697
 40
0.696969696969697
 40
0.696969696969697
 40
0.696969696969697
 40
0.7272727272727273
 40
0.7272727272727273
 40
0.7272727272727273
 40
0.7272727272727273
 40
0.7575757575757576
 40
0.7575757575757576
 40
0.7575757575757576
 40
0.7575757575757576
 40
0.7878787878787878
 40
0.7878787878787878
 40
0.7878787878787878
 40
0.7878787878787878
 40
0.8181818181818182
 40
0.8181818181818182
 40
0.8181818181818182
 40
0.8181818181818182
 40
0.8484848484848485
 40
0.8484848484848485
 40
0.8484848484848485
 40
0.8484848484848485
 40
0.8787878787878788
 40
0.8787878787878788
 40
0.8787878787878788
 40
0.8787878787878788
 40
0.9090909090909091
 40
0.9090909090909091
 40
0.9090909090909091
 40
0.9090909090909091
 40
0.9393939393939394
 40
0.9393939393939394
 40
0.9393939393939394
 40
0.9393939393939394
 40
1.0
 40
1.0
 40
1.0
 40
1.0
 10
-34.1214
 20
2.3483
 30
0.0
 10
-34.1214
 20
2.3483
 30
0.0
 10
-34.1214
 20
1.1414
 30
0.0
 10
-34.1214
 20
1.1414
 30
0.0
 10
-34.1214
 20
1.1414
 30
0.0
 10
-34.1214
 20
1.1414
 30
0.0
 10
-32.9107
 20
0.9784
 30
0.0
 10
-32.9107
 20
0.9784
 30
0.0
 10
-32.9107
 20
0.9784
 30
0.0
 10
-32.9172
 20
1.025
 30
0.0
 10
-32.9224
 20
1.0767
 30
0.0
 10
-32.9269
 20
1.135
 30
0.0
 10
-32.9269
 20
1.135
 30
0.0
 10
-32.9314
 20
1.1925
 30
0.0
 10
-32.934
 20
1.2585
 30
0.0
 10
-32.934
 20
1.3316
 30
0.0
 10
-32.934
 20
1.3316
 30
0.0
 10
-32.9333
 20
1.4984
 30
0.0
 10
-32.9094
 20
1.6349
 30
0.0
 10
-32.8628
 20
1.741
 30
0.0
 10
-32.8628
 20
1.741
 30
0.0
 10
-32.8156
 20
1.8477
 30
0.0
 10
-32.751
 20
1.9266
 30
0.0
 10
-32.6682
 20
1.9777
 30
0.0
 10
-32.6682
 20
1.9777
 30
0.0
 10
-32.5847
 20
2.0288
 30
0.0
 10
-32.4884
 20
2.054
 30
0.0
 10
-32.3791
 20
2.0533
 30
0.0
 10
-32.3791
 20
2.0533
 30
0.0
 10
-32.2944
 20
2.054
 30
0.0
 10
-32.2187
 20
2.0385
 30
0.0
 10
-32.1514
 20
2.0068
 30
0.0
 10
-32.1514
 20
2.0068
 30
0.0
 10
-32.0835
 20
1.9757
 30
0.0
 10
-32.0266
 20
1.9324
 30
0.0
 10
-31.9787
 20
1.8774
 30
0.0
 10
-31.9787
 20
1.8774
 30
0.0
 10
-31.9315
 20
1.8224
 30
0.0
 10
-31.8953
 20
1.7591
 30
0.0
 10
-31.8701
 20
1.6873
 30
0.0
 10
-31.8701
 20
1.6873
 30
0.0
 10
-31.8449
 20
1.6155
 30
0.0
 10
-31.8319
 20
1.5398
 30
0.0
 10
-31.8319
 20
1.4596
 30
0.0
 10
-31.8319
 20
1.4596
 30
0.0
 10
-31.8326
 20
1.3814
 30
0.0
 10
-31.8397
 20
1.3076
 30
0.0
 10
-31.8546
 20
1.2384
 30
0.0
 10
-31.8546
 20
1.2384
 30
0.0
 10
-31.8688
 20
1.1692
 30
0.0
 10
-31.8863
 20
1.1071
 30
0.0
 10
-31.9076
 20
1.0522
 30
0.0
 10
-31.9076
 20
1.0522
 30
0.0
 10
-31.9289
 20
0.9972
 30
0.0
 10
-31.9503
 20
0.9519
 30
0.0
 10
-31.9716
 20
0.9164
 30
0.0
 10
-31.9716
 20
0.9164
 30
0.0
 10
-31.9716
 20
0.9164
 30
0.0
 10
-31.7116
 20
0.831
 30
0.0
 10
-31.7116
 20
0.831
 30
0.0
 10
-31.7116
 20
0.831
 30
0.0
 10
-31.6851
 20
0.873
 30
0.0
 10
-31.6605
 20
0.9254
 30
0.0
 10
-31.6366
 20
0.9881
 30
0.0
 10
-31.6366
 20
0.9881
 30
0.0
 10
-31.6133
 20
1.0509
 30
0.0
 10
-31.5946
 20
1.122
 30
0.0
 10
-31.5797
 20
1.2016
 30
0.0
 10
-31.5797
 20
1.2016
 30
0.0
 10
-31.5648
 20
1.2818
 30
0.0
 10
-31.5571
 20
1.3678
 30
0.0
 10
-31.5564
 20
1.4596
 30
0.0
 10
-31.5564
 20
1.4596
 30
0.0
 10
-31.5571
 20
1.5974
 30
0.0
 10
-31.5791
 20
1.7228
 30
0.0
 10
-31.6217
 20
1.8373
 30
0.0
 10
-31.6217
 20
1.8373
 30
0.0
 10
-31.6644
 20
1.9518
 30
0.0
 10
-31.7246
 20
2.0508
 30
0.0
 10
-31.8022
 20
2.1342
 30
0.0
 10
-31.8022
 20
2.1342
 30
0.0
 10
-31.8798
 20
2.2183
 30
0.0
 10
-31.971
 20
2.2829
 30
0.0
 10
-32.0751
 20
2.3289
 30
0.0
 10
-32.0751
 20
2.3289
 30
0.0
 10
-32.1799
 20
2.3748
 30
0.0
 10
-32.2944
 20
2.3981
 30
0.0
 10
-32.4179
 20
2.3987
 30
0.0
 10
-32.4179
 20
2.3987
 30
0.0
 10
-32.5227
 20
2.3981
 30
0.0
 10
-32.6171
 20
2.3812
 30
0.0
 10
-32.7005
 20
2.3489
 30
0.0
 10
-32.7005
 20
2.3489
 30
0.0
 10
-32.7839
 20
2.3166
 30
0.0
 10
-32.8557
 20
2.2739
 30
0.0
 10
-32.9165
 20
2.2196
 30
0.0
 10
-32.9165
 20
2.2196
 30
0.0
 10
-32.9773
 20
2.1652
 30
0.0
 10
-33.0258
 20
2.1044
 30
0.0
 10
-33.062
 20
2.0378
 30
0.0
 10
-33.062
 20
2.0378
 30
0.0
 10
-33.1099
 20
1.9596
 30
0.0
 10
-33.1448
 20
1.8748
 30
0.0
 10
-33.1662
 20
1.7824
 30
0.0
 10
-33.1662
 20
1.7824
 30
0.0
 10
-33.1875
 20
1.6899
 30
0.0
 10
-33.1985
 20
1.5941
 30
0.0
 10
-33.1979
 20
1.4945
 30
0.0
 10
-33.1979
 20
1.4945
 30
0.0
 10
-33.1979
 20
1.4493
 30
0.0
 10
-33.1972
 20
1.4105
 30
0.0
 10
-33.1953
 20
1.3788
 30
0.0
 10
-33.1953
 20
1.3788
 30
0.0
 10
-33.1933
 20
1.3471
 30
0.0
 10
-33.1901
 20
1.3173
 30
0.0
 10
-33.1862
 20
1.2889
 30
0.0
 10
-33.1862
 20
1.2889
 30
0.0
 10
-33.1862
 20
1.2889
 30
0.0
 10
-33.8343
 20
1.3859
 30
0.0
 10
-33.8343
 20
1.3859
 30
0.0
 10
-33.8343
 20
1.3859
 30
0.0
 10
-33.8343
 20
1.3859
 30
0.0
 10
-33.8343
 20
2.3483
 30
0.0
 10
-33.8343
 20
2.3483
 30
0.0
 10
-33.8343
 20
2.3483
 30
0.0
 10
-33.8343
 20
2.3483
 30
0.0
 10
-34.1214
 20
2.3483
 30
0.0
 10
-34.1214
 20
2.3483
 30
0.0
  0
SPLINE
  5
66
330
1F
100
AcDbEntity
  8
Vrstva 1
 62
   250
100
AcDbSpline
210
0.0
220
0.0
230
1.0
 70
    11
 71
     3
 72
   132
 73
   128
 74
     0
 42
0.0000000001
 43
0.0000000001
 40
0.0
 40
0.0
 40
0.0
 40
0.0
 40
0.0303030303030303
 40
0.0303030303030303
 40
0.0303030303030303
 40
0.0303030303030303
 40
0.0606060606060606
 40
0.0606060606060606
 40
0.0606060606060606
 40
0.0606060606060606
 40
0.0909090909090909
 40
0.0909090909090909
 40
0.0909090909090909
 40
0.0909090909090909
 40
0.1212121212121212
 40
0.1212121212121212
 40
0.1212121212121212
 40
0.1212121212121212
 40
0.1515151515151515
 40
0.1515151515151515
 40
0.1515151515151515
 40
0.1515151515151515
 40
0.1818181818181818
 40
0.1818181818181818
 40
0.1818181818181818
 40
0.1818181818181818
 40
0.2121212121212121
 40
0.2121212121212121
 40
0.2121212121212121
 40
0.2121212121212121
 40
0.2424242424242424
 40
0.2424242424242424
 40
0.2424242424242424
 40
0.2424242424242424
 40
0.2727272727272727
 40
0.2727272727272727
 40
0.2727272727272727
 40
0.2727272727272727
 40
0.303030303030303
 40
0.303030303030303
 40
0.303030303030303
 40
0.303030303030303
 40
0.3333333333333333
 40
0.3333333333333333
 40
0.3333333333333333
 40
0.3333333333333333
 40
0.3636363636363636
 40
0.3636363636363636
 40
0.3636363636363636
 40
0.3636363636363636
 40
0.3939393939393939
 40
0.3939393939393939
 40
0.3939393939393939
 40
0.3939393939393939
 40
0.4242424242424243
 40
0.4242424242424243
 40
0.4242424242424243
 40
0.4242424242424243
 40
0.4545454545454545
 40
0.4545454545454545
 40
0.4545454545454545
 40
0.4545454545454545
 40
0.4848484848484849
 40
0.4848484848484849
 40
0.4848484848484849
 40
0.4848484848484849
 40
0.5151515151515151
 40
0.5151515151515151
 40
0.5151515151515151
 40
0.5151515151515151
 40
0.5454545454545454
 40
0.5454545454545454
 40
0.5454545454545454
 40
0.5454545454545454
 40
0.5757575757575758
 40
0.5757575757575758
 40
0.5757575757575758
 40
0.5757575757575758
 40
0.6060606060606061
 40
0.6060606060606061
 40
0.6060606060606061
 40
0.6060606060606061
 40
0.6363636363636364
 40
0.6363636363636364
 40
0.6363636363636364
 40
0.6363636363636364
 40
0.6666666666666666
 40
0.6666666666666666
 40
0.6666666666666666
 40
0.6666666666666666
 40
0.696969696969697
 40
0.696969696969697
 40
0.696969696969697
 40
0.696969696969697
 40
0.7272727272727273
 40
0.7272727272727273
 40
0.7272727272727273
 40
0.7272727272727273
 40
0.7575757575757576
 40
0.7575757575757576
 40
0.7575757575757576
 40
0.7575757575757576
 40
0.7878787878787878
 40
0.7878787878787878
 40
0.7878787878787878
 40
0.7878787878787878
 40
0.8181818181818182
 40
0.8181818181818182
 40
0.8181818181818182
 40
0.8181818181818182
 40
0.8484848484848485
 40
0.8484848484848485
 40
0.8484848484848485
 40
0.8484848484848485
 40
0.8787878787878788
 40
0.8787878787878788
 40
0.8787878787878788
 40
0.8787878787878788
 40
0.9090909090909091
 40
0.9090909090909091
 40
0.9090909090909091
 40
0.9090909090909091
 40
0.9393939393939394
 40
0.9393939393939394
 40
0.9393939393939394
 40
0.9393939393939394
 40
1.0
 40
1.0
 40
1.0
 40
1.0
 10
18.0557
 20
-5.2485
 30
0.0
 10
18.0557
 20
-5.2485
 30
0.0
 10
18.0557
 20
-6.4554
 30
0.0
 10
18.0557
 20
-6.4554
 30
0.0
 10
18.0557
 20
-6.4554
 30
0.0
 10
18.0557
 20
-6.4554
 30
0.0
 10
19.2664
 20
-6.6184
 30
0.0
 10
19.2664
 20
-6.6184
 30
0.0
 10
19.2664
 20
-6.6184
 30
0.0
 10
19.2599
 20
-6.5718
 30
0.0
 10
19.2547
 20
-6.5201
 30
0.0
 10
19.2502
 20
-6.4618
 30
0.0
 10
19.2502
 20
-6.4618
 30
0.0
 10
19.2457
 20
-6.4043
 30
0.0
 10
19.2431
 20
-6.3383
 30
0.0
 10
19.2431
 20
-6.2652
 30
0.0
 10
19.2431
 20
-6.2652
 30
0.0
 10
19.2438
 20
-6.0984
 30
0.0
 10
19.2677
 20
-5.9619
 30
0.0
 10
19.3143
 20
-5.8558
 30
0.0
 10
19.3143
 20
-5.8558
 30
0.0
 10
19.3615
 20
-5.7491
 30
0.0
 10
19.4261
 20
-5.6702
 30
0.0
 10
19.5089
 20
-5.6191
 30
0.0
 10
19.5089
 20
-5.6191
 30
0.0
 10
19.5924
 20
-5.568
 30
0.0
 10
19.6887
 20
-5.5428
 30
0.0
 10
19.798
 20
-5.5435
 30
0.0
 10
19.798
 20
-5.5435
 30
0.0
 10
19.8827
 20
-5.5428
 30
0.0
 10
19.9584
 20
-5.5583
 30
0.0
 10
20.0257
 20
-5.59
 30
0.0
 10
20.0257
 20
-5.59
 30
0.0
 10
20.0936
 20
-5.6211
 30
0.0
 10
20.1505
 20
-5.6644
 30
0.0
 10
20.1984
 20
-5.7194
 30
0.0
 10
20.1984
 20
-5.7194
 30
0.0
 10
20.2456
 20
-5.7744
 30
0.0
 10
20.2818
 20
-5.8377
 30
0.0
 10
20.307
 20
-5.9095
 30
0.0
 10
20.307
 20
-5.9095
 30
0.0
 10
20.3322
 20
-5.9813
 30
0.0
 10
20.3452
 20
-6.057
 30
0.0
 10
20.3452
 20
-6.1372
 30
0.0
 10
20.3452
 20
-6.1372
 30
0.0
 10
20.3445
 20
-6.2154
 30
0.0
 10
20.3374
 20
-6.2892
 30
0.0
 10
20.3225
 20
-6.3584
 30
0.0
 10
20.3225
 20
-6.3584
 30
0.0
 10
20.3083
 20
-6.4276
 30
0.0
 10
20.2908
 20
-6.4897
 30
0.0
 10
20.2695
 20
-6.5446
 30
0.0
 10
20.2695
 20
-6.5446
 30
0.0
 10
20.2482
 20
-6.5996
 30
0.0
 10
20.2268
 20
-6.6449
 30
0.0
 10
20.2055
 20
-6.6804
 30
0.0
 10
20.2055
 20
-6.6804
 30
0.0
 10
20.2055
 20
-6.6804
 30
0.0
 10
20.4655
 20
-6.7658
 30
0.0
 10
20.4655
 20
-6.7658
 30
0.0
 10
20.4655
 20
-6.7658
 30
0.0
 10
20.492
 20
-6.7238
 30
0.0
 10
20.5166
 20
-6.6714
 30
0.0
 10
20.5405
 20
-6.6087
 30
0.0
 10
20.5405
 20
-6.6087
 30
0.0
 10
20.5638
 20
-6.5459
 30
0.0
 10
20.5825
 20
-6.4748
 30
0.0
 10
20.5974
 20
-6.3952
 30
0.0
 10
20.5974
 20
-6.3952
 30
0.0
 10
20.6123
 20
-6.315
 30
0.0
 10
20.62
 20
-6.229
 30
0.0
 10
20.6207
 20
-6.1372
 30
0.0
 10
20.6207
 20
-6.1372
 30
0.0
 10
20.62
 20
-5.9994
 30
0.0
 10
20.598
 20
-5.874
 30
0.0
 10
20.5554
 20
-5.7595
 30
0.0
 10
20.5554
 20
-5.7595
 30
0.0
 10
20.5127
 20
-5.645
 30
0.0
 10
20.4525
 20
-5.546
 30
0.0
 10
20.3749
 20
-5.4626
 30
0.0
 10
20.3749
 20
-5.4626
 30
0.0
 10
20.2973
 20
-5.3785
 30
0.0
 10
20.2061
 20
-5.3139
 30
0.0
 10
20.102
 20
-5.2679
 30
0.0
 10
20.102
 20
-5.2679
 30
0.0
 10
19.9972
 20
-5.222
 30
0.0
 10
19.8827
 20
-5.1987
 30
0.0
 10
19.7592
 20
-5.1981
 30
0.0
 10
19.7592
 20
-5.1981
 30
0.0
 10
19.6544
 20
-5.1987
 30
0.0
 10
19.56
 20
-5.2156
 30
0.0
 10
19.4766
 20
-5.2479
 30
0.0
 10
19.4766
 20
-5.2479
 30
0.0
 10
19.3932
 20
-5.2802
 30
0.0
 10
19.3214
 20
-5.3229
 30
0.0
 10
19.2606
 20
-5.3772
 30
0.0
 10
19.2606
 20
-5.3772
 30
0.0
 10
19.1998
 20
-5.4316
 30
0.0
 10
19.1513
 20
-5.4924
 30
0.0
 10
19.1151
 20
-5.559
 30
0.0
 10
19.1151
 20
-5.559
 30
0.0
 10
19.0672
 20
-5.6372
 30
0.0
 10
19.0323
 20
-5.722
 30
0.0
 10
19.0109
 20
-5.8144
 30
0.0
 10
19.0109
 20
-5.8144
 30
0.0
 10
18.9896
 20
-5.9069
 30
0.0
 10
18.9786
 20
-6.0027
 30
0.0
 10
18.9792
 20
-6.1023
 30
0.0
 10
18.9792
 20
-6.1023
 30
0.0
 10
18.9792
 20
-6.1475
 30
0.0
 10
18.9799
 20
-6.1863
 30
0.0
 10
18.9818
 20
-6.218
 30
0.0
 10
18.9818
 20
-6.218
 30
0.0
 10
18.9838
 20
-6.2497
 30
0.0
 10
18.987
 20
-6.2795
 30
0.0
 10
18.9909
 20
-6.3079
 30
0.0
 10
18.9909
 20
-6.3079
 30
0.0
 10
18.9909
 20
-6.3079
 30
0.0
 10
18.3428
 20
-6.2109
 30
0.0
 10
18.3428
 20
-6.2109
 30
0.0
 10
18.3428
 20
-6.2109
 30
0.0
 10
18.3428
 20
-6.2109
 30
0.0
 10
18.3428
 20
-5.2485
 30
0.0
 10
18.3428
 20
-5.2485
 30
0.0
 10
18.3428
 20
-5.2485
 30
0.0
 10
18.3428
 20
-5.2485
 30
0.0
 10
18.0557
 20
-5.2485
 30
0.0
 10
18.0557
 20
-5.2485
 30
0.0
  0
SPLINE
  5
67
330
1F
100
AcDbEntity
  8
Vrstva 1
 62
   250
100
AcDbSpline
210
0.0
220
0.0
230
1.0
 70
    11
 71
     3
 72
   132
 73
   128
 74
     0
 42
0.0000000001
 43
0.0000000001
 40
0.0
 40
0.0
 40
0.0
 40
0.0
 40
0.0303030303030303
 40
0.0303030303030303
 40
0.0303030303030303
 40
0.0303030303030303
 40
0.0606060606060606
 40
0.0606060606060606
 40
0.0606060606060606
 40
0.0606060606060606
 40
0.0909090909090909
 40
0.0909090909090909
 40
0.0909090909090909
 40
0.0909090909090909
 40
0.1212121212121212
 40
0.1212121212121212
 40
0.1212121212121212
 40
0.1212121212121212
 40
0.1515151515151515
 40
0.1515151515151515
 40
0.1515151515151515
 40
0.1515151515151515
 40
0.1818181818181818
 40
0.1818181818181818
 40
0.1818181818181818
 40
0.1818181818181818
 40
0.2121212121212121
 40
0.2121212121212121
 40
0.2121212121212121
 40
0.2121212121212121
 40
0.2424242424242424
 40
0.2424242424242424
 40
0.2424242424242424
 40
0.2424242424242424
 40
0.2727272727272727
 40
0.2727272727272727
 40
0.2727272727272727
 40
0.2727272727272727
 40
0.303030303030303
 40
0.303030303030303
 40
0.303030303030303
 40
0.303030303030303
 40
0.3333333333333333
 40
0.3333333333333333
 40
0.3333333333333333
 40
0.3333333333333333
 40
0.3636363636363636
 40
0.3636363636363636
 40
0.3636363636363636
 40
0.3636363636363636
 40
0.3939393939393939
 40
0.3939393939393939
 40
0.3939393939393939
 40
0.3939393939393939
 40
0.4242424242424243
 40
0.4242424242424243
 40
0.4242424242424243
 40
0.4242424242424243
 40
0.4545454545454545
 40
0.4545454545454545
 40
0.4545454545454545
 40
0.4545454545454545
 40
0.4848484848484849
 40
0.4848484848484849
 40
0.4848484848484849
 40
0.4848484848484849
 40
0.5151515151515151
 40
0.5151515151515151
 40
0.5151515151515151
 40
0.5151515151515151
 40
0.5454545454545454
 40
0.5454545454545454
 40
0.5454545454545454
 40
0.5454545454545454
 40
0.5757575757575758
 40
0.5757575757575758
 40
0.5757575757575758
 40
0.5757575757575758
 40
0.6060606060606061
 40
0.6060606060606061
 40
0.6060606060606061
 40
0.6060606060606061
 40
0.6363636363636364
 40
0.6363636363636364
 40
0.6363636363636364
 40
0.6363636363636364
 40
0.6666666666666666
 40
0.6666666666666666
 40
0.6666666666666666
 40
0.6666666666666666
 40
0.696969696969697
 40
0.696969696969697
 40
0.696969696969697
 40
0.696969696969697
 40
0.7272727272727273
 40
0.7272727272727273
 40
0.7272727272727273
 40
0.7272727272727273
 40
0.7575757575757576
 40
0.7575757575757576
 40
0.7575757575757576
 40
0.7575757575757576
 40
0.7878787878787878
 40
0.7878787878787878
 40
0.7878787878787878
 40
0.7878787878787878
 40
0.8181818181818182
 40
0.8181818181818182
 40
0.8181818181818182
 40
0.8181818181818182
 40
0.8484848484848485
 40
0.8484848484848485
 40
0.8484848484848485
 40
0.8484848484848485
 40
0.8787878787878788
 40
0.8787878787878788
 40
0.8787878787878788
 40
0.8787878787878788
 40
0.9090909090909091
 40
0.9090909090909091
 40
0.9090909090909091
 40
0.9090909090909091
 40
0.9393939393939394
 40
0.9393939393939394
 40
0.9393939393939394
 40
0.9393939393939394
 40
1.0
 40
1.0
 40
1.0
 40
1.0
 10
18.0557
 20
-3.2578
 30
0.0
 10
18.0557
 20
-3.2578
 30
0.0
 10
18.0557
 20
-4.4647
 30
0.0
 10
18.0557
 20
-4.4647
 30
0.0
 10
18.0557
 20
-4.4647
 30
0.0
 10
18.0557
 20
-4.4647
 30
0.0
 10
19.2664
 20
-4.6277
 30
0.0
 10
19.2664
 20
-4.6277
 30
0.0
 10
19.2664
 20
-4.6277
 30
0.0
 10
19.2599
 20
-4.5811
 30
0.0
 10
19.2547
 20
-4.5294
 30
0.0
 10
19.2502
 20
-4.4711
 30
0.0
 10
19.2502
 20
-4.4711
 30
0.0
 10
19.2457
 20
-4.4136
 30
0.0
 10
19.2431
 20
-4.3476
 30
0.0
 10
19.2431
 20
-4.2745
 30
0.0
 10
19.2431
 20
-4.2745
 30
0.0
 10
19.2438
 20
-4.1077
 30
0.0
 10
19.2677
 20
-3.9712
 30
0.0
 10
19.3143
 20
-3.8651
 30
0.0
 10
19.3143
 20
-3.8651
 30
0.0
 10
19.3615
 20
-3.7584
 30
0.0
 10
19.4261
 20
-3.6795
 30
0.0
 10
19.5089
 20
-3.6284
 30
0.0
 10
19.5089
 20
-3.6284
 30
0.0
 10
19.5924
 20
-3.5773
 30
0.0
 10
19.6887
 20
-3.5521
 30
0.0
 10
19.798
 20
-3.5528
 30
0.0
 10
19.798
 20
-3.5528
 30
0.0
 10
19.8827
 20
-3.5521
 30
0.0
 10
19.9584
 20
-3.5676
 30
0.0
 10
20.0257
 20
-3.5993
 30
0.0
 10
20.0257
 20
-3.5993
 30
0.0
 10
20.0936
 20
-3.6304
 30
0.0
 10
20.1505
 20
-3.6737
 30
0.0
 10
20.1984
 20
-3.7287
 30
0.0
 10
20.1984
 20
-3.7287
 30
0.0
 10
20.2456
 20
-3.7837
 30
0.0
 10
20.2818
 20
-3.847
 30
0.0
 10
20.307
 20
-3.9188
 30
0.0
 10
20.307
 20
-3.9188
 30
0.0
 10
20.3322
 20
-3.9906
 30
0.0
 10
20.3452
 20
-4.0663
 30
0.0
 10
20.3452
 20
-4.1465
 30
0.0
 10
20.3452
 20
-4.1465
 30
0.0
 10
20.3445
 20
-4.2247
 30
0.0
 10
20.3374
 20
-4.2985
 30
0.0
 10
20.3225
 20
-4.3677
 30
0.0
 10
20.3225
 20
-4.3677
 30
0.0
 10
20.3083
 20
-4.4369
 30
0.0
 10
20.2908
 20
-4.499
 30
0.0
 10
20.2695
 20
-4.5539
 30
0.0
 10
20.2695
 20
-4.5539
 30
0.0
 10
20.2482
 20
-4.6089
 30
0.0
 10
20.2268
 20
-4.6542
 30
0.0
 10
20.2055
 20
-4.6897
 30
0.0
 10
20.2055
 20
-4.6897
 30
0.0
 10
20.2055
 20
-4.6897
 30
0.0
 10
20.4655
 20
-4.7751
 30
0.0
 10
20.4655
 20
-4.7751
 30
0.0
 10
20.4655
 20
-4.7751
 30
0.0
 10
20.492
 20
-4.7331
 30
0.0
 10
20.5166
 20
-4.6807
 30
0.0
 10
20.5405
 20
-4.618
 30
0.0
 10
20.5405
 20
-4.618
 30
0.0
 10
20.5638
 20
-4.5552
 30
0.0
 10
20.5825
 20
-4.4841
 30
0.0
 10
20.5974
 20
-4.4045
 30
0.0
 10
20.5974
 20
-4.4045
 30
0.0
 10
20.6123
 20
-4.3243
 30
0.0
 10
20.62
 20
-4.2383
 30
0.0
 10
20.6207
 20
-4.1465
 30
0.0
 10
20.6207
 20
-4.1465
 30
0.0
 10
20.62
 20
-4.0087
 30
0.0
 10
20.598
 20
-3.8833
 30
0.0
 10
20.5554
 20
-3.7688
 30
0.0
 10
20.5554
 20
-3.7688
 30
0.0
 10
20.5127
 20
-3.6543
 30
0.0
 10
20.4525
 20
-3.5553
 30
0.0
 10
20.3749
 20
-3.4719
 30
0.0
 10
20.3749
 20
-3.4719
 30
0.0
 10
20.2973
 20
-3.3878
 30
0.0
 10
20.2061
 20
-3.3232
 30
0.0
 10
20.102
 20
-3.2772
 30
0.0
 10
20.102
 20
-3.2772
 30
0.0
 10
19.9972
 20
-3.2313
 30
0.0
 10
19.8827
 20
-3.208
 30
0.0
 10
19.7592
 20
-3.2074
 30
0.0
 10
19.7592
 20
-3.2074
 30
0.0
 10
19.6544
 20
-3.208
 30
0.0
 10
19.56
 20
-3.2249
 30
0.0
 10
19.4766
 20
-3.2572
 30
0.0
 10
19.4766
 20
-3.2572
 30
0.0
 10
19.3932
 20
-3.2895
 30
0.0
 10
19.3214
 20
-3.3322
 30
0.0
 10
19.2606
 20
-3.3865
 30
0.0
 10
19.2606
 20
-3.3865
 30
0.0
 10
19.1998
 20
-3.4409
 30
0.0
 10
19.1513
 20
-3.5017
 30
0.0
 10
19.1151
 20
-3.5683
 30
0.0
 10
19.1151
 20
-3.5683
 30
0.0
 10
19.0672
 20
-3.6465
 30
0.0
 10
19.0323
 20
-3.7313
 30
0.0
 10
19.0109
 20
-3.8237
 30
0.0
 10
19.0109
 20
-3.8237
 30
0.0
 10
18.9896
 20
-3.9162
 30
0.0
 10
18.9786
 20
-4.012
 30
0.0
 10
18.9792
 20
-4.1116
 30
0.0
 10
18.9792
 20
-4.1116
 30
0.0
 10
18.9792
 20
-4.1568
 30
0.0
 10
18.9799
 20
-4.1956
 30
0.0
 10
18.9818
 20
-4.2273
 30
0.0
 10
18.9818
 20
-4.2273
 30
0.0
 10
18.9838
 20
-4.259
 30
0.0
 10
18.987
 20
-4.2888
 30
0.0
 10
18.9909
 20
-4.3172
 30
0.0
 10
18.9909
 20
-4.3172
 30
0.0
 10
18.9909
 20
-4.3172
 30
0.0
 10
18.3428
 20
-4.2202
 30
0.0
 10
18.3428
 20
-4.2202
 30
0.0
 10
18.3428
 20
-4.2202
 30
0.0
 10
18.3428
 20
-4.2202
 30
0.0
 10
18.3428
 20
-3.2578
 30
0.0
 10
18.3428
 20
-3.2578
 30
0.0
 10
18.3428
 20
-3.2578
 30
0.0
 10
18.3428
 20
-3.2578
 30
0.0
 10
18.0557
 20
-3.2578
 30
0.0
 10
18.0557
 20
-3.2578
 30
0.0
  0
SPLINE
  5
68
330
1F
100
AcDbEntity
  8
Vrstva 1
 62
   250
100
AcDbSpline
210
0.0
220
0.0
230
1.0
 70
    11
 71
     3
 72
    44
 73
    40
 74
     0
 42
0.0000000001
 43
0.0000000001
 40
0.0
 40
0.0
 40
0.0
 40
0.0
 40
0.0909090909090909
 40
0.0909090909090909
 40
0.0909090909090909
 40
0.0909090909090909
 40
0.1818181818181818
 40
0.1818181818181818
 40
0.1818181818181818
 40
0.1818181818181818
 40
0.2727272727272727
 40
0.2727272727272727
 40
0.2727272727272727
 40
0.2727272727272727
 40
0.3636363636363636
 40
0.3636363636363636
 40
0.3636363636363636
 40
0.3636363636363636
 40
0.4545454545454545
 40
0.4545454545454545
 40
0.4545454545454545
 40
0.4545454545454545
 40
0.5454545454545454
 40
0.5454545454545454
 40
0.5454545454545454
 40
0.5454545454545454
 40
0.6363636363636364
 40
0.6363636363636364
 40
0.6363636363636364
 40
0.6363636363636364
 40
0.7272727272727273
 40
0.7272727272727273
 40
0.7272727272727273
 40
0.7272727272727273
 40
0.8181818181818182
 40
0.8181818181818182
 40
0.8181818181818182
 40
0.8181818181818182
 40
1.0
 40
1.0
 40
1.0
 40
1.0
 10
21.032
 20
-2.6447
 30
0.0
 10
20.9855
 20
-2.6169
 30
0.0
 10
20.926
 20
-2.5872
 30
0.0
 10
20.8542
 20
-2.5535
 30
0.0
 10
20.8542
 20
-2.5535
 30
0.0
 10
20.7817
 20
-2.5205
 30
0.0
 10
20.7028
 20
-2.4869
 30
0.0
 10
20.6155
 20
-2.4526
 30
0.0
 10
20.6155
 20
-2.4526
 30
0.0
 10
20.5288
 20
-2.4184
 30
0.0
 10
20.4402
 20
-2.3854
 30
0.0
 10
20.3497
 20
-2.3543
 30
0.0
 10
20.3497
 20
-2.3543
 30
0.0
 10
20.2592
 20
-2.3233
 30
0.0
 10
20.1725
 20
-2.2961
 30
0.0
 10
20.0891
 20
-2.2722
 30
0.0
 10
20.0891
 20
-2.2722
 30
0.0
 10
20.0891
 20
-2.2722
 30
0.0
 10
20.1279
 20
-2.6525
 30
0.0
 10
20.1279
 20
-2.6525
 30
0.0
 10
20.1279
 20
-2.6525
 30
0.0
 10
20.1997
 20
-2.6635
 30
0.0
 10
20.2766
 20
-2.6777
 30
0.0
 10
20.36
 20
-2.6945
 30
0.0
 10
20.36
 20
-2.6945
 30
0.0
 10
20.4435
 20
-2.712
 30
0.0
 10
20.5276
 20
-2.7314
 30
0.0
 10
20.6123
 20
-2.7527
 30
0.0
 10
20.6123
 20
-2.7527
 30
0.0
 10
20.6976
 20
-2.7741
 30
0.0
 10
20.7785
 20
-2.7961
 30
0.0
 10
20.8555
 20
-2.8187
 30
0.0
 10
20.8555
 20
-2.8187
 30
0.0
 10
20.9324
 20
-2.8413
 30
0.0
 10
21.0003
 20
-2.864
 30
0.0
 10
21.0592
 20
-2.8853
 30
0.0
 10
21.0592
 20
-2.8853
 30
0.0
 10
21.0592
 20
-2.8853
 30
0.0
 10
21.032
 20
-2.6447
 30
0.0
 10
21.032
 20
-2.6447
 30
0.0
  0
SPLINE
  5
69
330
1F
100
AcDbEntity
  8
Vrstva 1
 62
   250
100
AcDbSpline
210
0.0
220
0.0
230
1.0
 70
    11
 71
     3
 72
   132
 73
   128
 74
     0
 42
0.0000000001
 43
0.0000000001
 40
0.0
 40
0.0
 40
0.0
 40
0.0
 40
0.0303030303030303
 40
0.0303030303030303
 40
0.0303030303030303
 40
0.0303030303030303
 40
0.0606060606060606
 40
0.0606060606060606
 40
0.0606060606060606
 40
0.0606060606060606
 40
0.0909090909090909
 40
0.0909090909090909
 40
0.0909090909090909
 40
0.0909090909090909
 40
0.1212121212121212
 40
0.1212121212121212
 40
0.1212121212121212
 40
0.1212121212121212
 40
0.1515151515151515
 40
0.1515151515151515
 40
0.1515151515151515
 40
0.1515151515151515
 40
0.1818181818181818
 40
0.1818181818181818
 40
0.1818181818181818
 40
0.1818181818181818
 40
0.2121212121212121
 40
0.2121212121212121
 40
0.2121212121212121
 40
0.2121212121212121
 40
0.2424242424242424
 40
0.2424242424242424
 40
0.2424242424242424
 40
0.2424242424242424
 40
0.2727272727272727
 40
0.2727272727272727
 40
0.2727272727272727
 40
0.2727272727272727
 40
0.303030303030303
 40
0.303030303030303
 40
0.303030303030303
 40
0.303030303030303
 40
0.3333333333333333
 40
0.3333333333333333
 40
0.3333333333333333
 40
0.3333333333333333
 40
0.3636363636363636
 40
0.3636363636363636
 40
0.3636363636363636
 40
0.3636363636363636
 40
0.3939393939393939
 40
0.3939393939393939
 40
0.3939393939393939
 40
0.3939393939393939
 40
0.4242424242424243
 40
0.4242424242424243
 40
0.4242424242424243
 40
0.4242424242424243
 40
0.4545454545454545
 40
0.4545454545454545
 40
0.4545454545454545
 40
0.4545454545454545
 40
0.4848484848484849
 40
0.4848484848484849
 40
0.4848484848484849
 40
0.4848484848484849
 40
0.5151515151515151
 40
0.5151515151515151
 40
0.5151515151515151
 40
0.5151515151515151
 40
0.5454545454545454
 40
0.5454545454545454
 40
0.5454545454545454
 40
0.5454545454545454
 40
0.5757575757575758
 40
0.5757575757575758
 40
0.5757575757575758
 40
0.5757575757575758
 40
0.6060606060606061
 40
0.6060606060606061
 40
0.6060606060606061
 40
0.6060606060606061
 40
0.6363636363636364
 40
0.6363636363636364
 40
0.6363636363636364
 40
0.6363636363636364
 40
0.6666666666666666
 40
0.6666666666666666
 40
0.6666666666666666
 40
0.6666666666666666
 40
0.696969696969697
 40
0.696969696969697
 40
0.696969696969697
 40
0.696969696969697
 40
0.7272727272727273
 40
0.7272727272727273
 40
0.7272727272727273
 40
0.7272727272727273
 40
0.7575757575757576
 40
0.7575757575757576
 40
0.7575757575757576
 40
0.7575757575757576
 40
0.7878787878787878
 40
0.7878787878787878
 40
0.7878787878787878
 40
0.7878787878787878
 40
0.8181818181818182
 40
0.8181818181818182
 40
0.8181818181818182
 40
0.8181818181818182
 40
0.8484848484848485
 40
0.8484848484848485
 40
0.8484848484848485
 40
0.8484848484848485
 40
0.8787878787878788
 40
0.8787878787878788
 40
0.8787878787878788
 40
0.8787878787878788
 40
0.9090909090909091
 40
0.9090909090909091
 40
0.9090909090909091
 40
0.9090909090909091
 40
0.9393939393939394
 40
0.9393939393939394
 40
0.9393939393939394
 40
0.9393939393939394
 40
1.0
 40
1.0
 40
1.0
 40
1.0
 10
18.0557
 20
-0.4638
 30
0.0
 10
18.0557
 20
-0.4638
 30
0.0
 10
18.0557
 20
-1.6707
 30
0.0
 10
18.0557
 20
-1.6707
 30
0.0
 10
18.0557
 20
-1.6707
 30
0.0
 10
18.0557
 20
-1.6707
 30
0.0
 10
19.2664
 20
-1.8337
 30
0.0
 10
19.2664
 20
-1.8337
 30
0.0
 10
19.2664
 20
-1.8337
 30
0.0
 10
19.2599
 20
-1.7871
 30
0.0
 10
19.2547
 20
-1.7354
 30
0.0
 10
19.2502
 20
-1.6771
 30
0.0
 10
19.2502
 20
-1.6771
 30
0.0
 10
19.2457
 20
-1.6196
 30
0.0
 10
19.2431
 20
-1.5536
 30
0.0
 10
19.2431
 20
-1.4805
 30
0.0
 10
19.2431
 20
-1.4805
 30
0.0
 10
19.2438
 20
-1.3137
 30
0.0
 10
19.2677
 20
-1.1772
 30
0.0
 10
19.3143
 20
-1.0711
 30
0.0
 10
19.3143
 20
-1.0711
 30
0.0
 10
19.3615
 20
-0.9644
 30
0.0
 10
19.4261
 20
-0.8855
 30
0.0
 10
19.5089
 20
-0.8344
 30
0.0
 10
19.5089
 20
-0.8344
 30
0.0
 10
19.5924
 20
-0.7833
 30
0.0
 10
19.6887
 20
-0.7581
 30
0.0
 10
19.798
 20
-0.7588
 30
0.0
 10
19.798
 20
-0.7588
 30
0.0
 10
19.8827
 20
-0.7581
 30
0.0
 10
19.9584
 20
-0.7736
 30
0.0
 10
20.0257
 20
-0.8053
 30
0.0
 10
20.0257
 20
-0.8053
 30
0.0
 10
20.0936
 20
-0.8364
 30
0.0
 10
20.1505
 20
-0.8797
 30
0.0
 10
20.1984
 20
-0.9347
 30
0.0
 10
20.1984
 20
-0.9347
 30
0.0
 10
20.2456
 20
-0.9897
 30
0.0
 10
20.2818
 20
-1.053
 30
0.0
 10
20.307
 20
-1.1248
 30
0.0
 10
20.307
 20
-1.1248
 30
0.0
 10
20.3322
 20
-1.1966
 30
0.0
 10
20.3452
 20
-1.2723
 30
0.0
 10
20.3452
 20
-1.3525
 30
0.0
 10
20.3452
 20
-1.3525
 30
0.0
 10
20.3445
 20
-1.4307
 30
0.0
 10
20.3374
 20
-1.5045
 30
0.0
 10
20.3225
 20
-1.5737
 30
0.0
 10
20.3225
 20
-1.5737
 30
0.0
 10
20.3083
 20
-1.6429
 30
0.0
 10
20.2908
 20
-1.705
 30
0.0
 10
20.2695
 20
-1.7599
 30
0.0
 10
20.2695
 20
-1.7599
 30
0.0
 10
20.2482
 20
-1.8149
 30
0.0
 10
20.2268
 20
-1.8602
 30
0.0
 10
20.2055
 20
-1.8957
 30
0.0
 10
20.2055
 20
-1.8957
 30
0.0
 10
20.2055
 20
-1.8957
 30
0.0
 10
20.4655
 20
-1.9811
 30
0.0
 10
20.4655
 20
-1.9811
 30
0.0
 10
20.4655
 20
-1.9811
 30
0.0
 10
20.492
 20
-1.9391
 30
0.0
 10
20.5166
 20
-1.8867
 30
0.0
 10
20.5405
 20
-1.824
 30
0.0
 10
20.5405
 20
-1.824
 30
0.0
 10
20.5638
 20
-1.7612
 30
0.0
 10
20.5825
 20
-1.6901
 30
0.0
 10
20.5974
 20
-1.6105
 30
0.0
 10
20.5974
 20
-1.6105
 30
0.0
 10
20.6123
 20
-1.5303
 30
0.0
 10
20.62
 20
-1.4443
 30
0.0
 10
20.6207
 20
-1.3525
 30
0.0
 10
20.6207
 20
-1.3525
 30
0.0
 10
20.62
 20
-1.2147
 30
0.0
 10
20.598
 20
-1.0893
 30
0.0
 10
20.5554
 20
-0.9748
 30
0.0
 10
20.5554
 20
-0.9748
 30
0.0
 10
20.5127
 20
-0.8603
 30
0.0
 10
20.4525
 20
-0.7613
 30
0.0
 10
20.3749
 20
-0.6779
 30
0.0
 10
20.3749
 20
-0.6779
 30
0.0
 10
20.2973
 20
-0.5938
 30
0.0
 10
20.2061
 20
-0.5292
 30
0.0
 10
20.102
 20
-0.4832
 30
0.0
 10
20.102
 20
-0.4832
 30
0.0
 10
19.9972
 20
-0.4373
 30
0.0
 10
19.8827
 20
-0.414
 30
0.0
 10
19.7592
 20
-0.4134
 30
0.0
 10
19.7592
 20
-0.4134
 30
0.0
 10
19.6544
 20
-0.414
 30
0.0
 10
19.56
 20
-0.4309
 30
0.0
 10
19.4766
 20
-0.4632
 30
0.0
 10
19.4766
 20
-0.4632
 30
0.0
 10
19.3932
 20
-0.4955
 30
0.0
 10
19.3214
 20
-0.5382
 30
0.0
 10
19.2606
 20
-0.5925
 30
0.0
 10
19.2606
 20
-0.5925
 30
0.0
 10
19.1998
 20
-0.6469
 30
0.0
 10
19.1513
 20
-0.7077
 30
0.0
 10
19.1151
 20
-0.7743
 30
0.0
 10
19.1151
 20
-0.7743
 30
0.0
 10
19.0672
 20
-0.8525
 30
0.0
 10
19.0323
 20
-0.9373
 30
0.0
 10
19.0109
 20
-1.0297
 30
0.0
 10
19.0109
 20
-1.0297
 30
0.0
 10
18.9896
 20
-1.1222
 30
0.0
 10
18.9786
 20
-1.218
 30
0.0
 10
18.9792
 20
-1.3176
 30
0.0
 10
18.9792
 20
-1.3176
 30
0.0
 10
18.9792
 20
-1.3628
 30
0.0
 10
18.9799
 20
-1.4016
 30
0.0
 10
18.9818
 20
-1.4333
 30
0.0
 10
18.9818
 20
-1.4333
 30
0.0
 10
18.9838
 20
-1.465
 30
0.0
 10
18.987
 20
-1.4948
 30
0.0
 10
18.9909
 20
-1.5232
 30
0.0
 10
18.9909
 20
-1.5232
 30
0.0
 10
18.9909
 20
-1.5232
 30
0.0
 10
18.3428
 20
-1.4262
 30
0.0
 10
18.3428
 20
-1.4262
 30
0.0
 10
18.3428
 20
-1.4262
 30
0.0
 10
18.3428
 20
-1.4262
 30
0.0
 10
18.3428
 20
-0.4638
 30
0.0
 10
18.3428
 20
-0.4638
 30
0.0
 10
18.3428
 20
-0.4638
 30
0.0
 10
18.3428
 20
-0.4638
 30
0.0
 10
18.0557
 20
-0.4638
 30
0.0
 10
18.0557
 20
-0.4638
 30
0.0
  0
SPLINE
  5
6A
330
1F
100
AcDbEntity
  8
Vrstva 1
 62
   250
370
     9
100
AcDbSpline
210
0.0
220
0.0
230
1.0
 70
    11
 71
     3
 72
    32
 73
    28
 74
     0
 42
0.0000000001
 43
0.0000000001
 40
0.0
 40
0.0
 40
0.0
 40
0.0
 40
0.125
 40
0.125
 40
0.125
 40
0.125
 40
0.25
 40
0.25
 40
0.25
 40
0.25
 40
0.375
 40
0.375
 40
0.375
 40
0.375
 40
0.5
 40
0.5
 40
0.5
 40
0.5
 40
0.625
 40
0.625
 40
0.625
 40
0.625
 40
0.75
 40
0.75
 40
0.75
 40
0.75
 40
1.0
 40
1.0
 40
1.0
 40
1.0
 10
14.9621
 20
15.8123
 30
0.0
 10
14.9621
 20
15.8123
 30
0.0
 10
14.9621
 20
15.8123
 30
0.0
 10
14.9621
 20
15.8123
 30
0.0
 10
14.9621
 20
15.8123
 30
0.0
 10
14.9621
 20
15.8123
 30
0.0
 10
14.9621
 20
15.8123
 30
0.0
 10
14.9621
 20
15.8123
 30
0.0
 10
14.9621
 20
15.8123
 30
0.0
 10
14.9621
 20
15.8123
 30
0.0
 10
16.2349
 20
16.2557
 30
0.0
 10
16.2349
 20
16.2557
 30
0.0
 10
16.2349
 20
16.2557
 30
0.0
 10
16.2349
 20
16.2557
 30
0.0
 10
14.9621
 20
16.6991
 30
0.0
 10
14.9621
 20
16.6991
 30
0.0
 10
14.9621
 20
16.6991
 30
0.0
 10
14.9621
 20
16.6991
 30
0.0
 10
14.9621
 20
16.6991
 30
0.0
 10
14.9621
 20
16.6991
 30
0.0
 10
14.9621
 20
16.6991
 30
0.0
 10
14.9621
 20
16.6991
 30
0.0
 10
14.9621
 20
16.6991
 30
0.0
 10
14.9621
 20
16.6991
 30
0.0
 10
14.9621
 20
16.6991
 30
0.0
 10
14.9621
 20
16.6991
 30
0.0
 10
14.9621
 20
15.8123
 30
0.0
 10
14.9621
 20
15.8123
 30
0.0
  0
SPLINE
  5
6B
330
1F
100
AcDbEntity
  8
Vrstva 1
 62
   250
370
     9
100
AcDbSpline
210
0.0
220
0.0
230
1.0
 70
    11
 71
     3
 72
    32
 73
    28
 74
     0
 42
0.0000000001
 43
0.0000000001
 40
0.0
 40
0.0
 40
0.0
 40
0.0
 40
0.125
 40
0.125
 40
0.125
 40
0.125
 40
0.25
 40
0.25
 40
0.25
 40
0.25
 40
0.375
 40
0.375
 40
0.375
 40
0.375
 40
0.5
 40
0.5
 40
0.5
 40
0.5
 40
0.625
 40
0.625
 40
0.625
 40
0.625
 40
0.75
 40
0.75
 40
0.75
 40
0.75
 40
1.0
 40
1.0
 40
1.0
 40
1.0
 10
8.3461
 20
-19.6772
 30
0.0
 10
8.3461
 20
-19.6772
 30
0.0
 10
8.3461
 20
-19.6772
 30
0.0
 10
8.3461
 20
-19.6772
 30
0.0
 10
8.3461
 20
-19.6772
 30
0.0
 10
8.3461
 20
-19.6772
 30
0.0
 10
8.3461
 20
-19.6772
 30
0.0
 10
8.3461
 20
-19.6772
 30
0.0
 10
8.3461
 20
-19.6772
 30
0.0
 10
8.3461
 20
-19.6772
 30
0.0
 10
9.6189
 20
-19.2338
 30
0.0
 10
9.6189
 20
-19.2338
 30
0.0
 10
9.6189
 20
-19.2338
 30
0.0
 10
9.6189
 20
-19.2338
 30
0.0
 10
8.3461
 20
-18.7904
 30
0.0
 10
8.3461
 20
-18.7904
 30
0.0
 10
8.3461
 20
-18.7904
 30
0.0
 10
8.3461
 20
-18.7904
 30
0.0
 10
8.3461
 20
-18.7904
 30
0.0
 10
8.3461
 20
-18.7904
 30
0.0
 10
8.3461
 20
-18.7904
 30
0.0
 10
8.3461
 20
-18.7904
 30
0.0
 10
8.3461
 20
-18.7904
 30
0.0
 10
8.3461
 20
-18.7904
 30
0.0
 10
8.3461
 20
-18.7904
 30
0.0
 10
8.3461
 20
-18.7904
 30
0.0
 10
8.3461
 20
-19.6772
 30
0.0
 10
8.3461
 20
-19.6772
 30
0.0
  0
SPLINE
  5
6C
330
1F
100
AcDbEntity
  8
Vrstva 1
 62
   250
370
     9
100
AcDbSpline
210
0.0
220
0.0
230
1.0
 70
    11
 71
     3
 72
    32
 73
    28
 74
     0
 42
0.0000000001
 43
0.0000000001
 40
0.0
 40
0.0
 40
0.0
 40
0.0
 40
0.125
 40
0.125
 40
0.125
 40
0.125
 40
0.25
 40
0.25
 40
0.25
 40
0.25
 40
0.375
 40
0.375
 40
0.375
 40
0.375
 40
0.5
 40
0.5
 40
0.5
 40
0.5
 40
0.625
 40
0.625
 40
0.625
 40
0.625
 40
0.75
 40
0.75
 40
0.75
 40
0.75
 40
1.0
 40
1.0
 40
1.0
 40
1.0
 10
29.2735
 20
-19.4067
 30
0.0
 10
29.2735
 20
-19.4067
 30
0.0
 10
29.2735
 20
-19.4067
 30
0.0
 10
29.2735
 20
-19.4067
 30
0.0
 10
29.2735
 20
-19.4067
 30
0.0
 10
29.2735
 20
-19.4067
 30
0.0
 10
29.2735
 20
-19.4067
 30
0.0
 10
29.2735
 20
-19.4067
 30
0.0
 10
29.2735
 20
-19.4067
 30
0.0
 10
29.2735
 20
-19.4067
 30
0.0
 10
30.5463
 20
-18.9633
 30
0.0
 10
30.5463
 20
-18.9633
 30
0.0
 10
30.5463
 20
-18.9633
 30
0.0
 10
30.5463
 20
-18.9633
 30
0.0
 10
29.2735
 20
-18.5199
 30
0.0
 10
29.2735
 20
-18.5199
 30
0.0
 10
29.2735
 20
-18.5199
 30
0.0
 10
29.2735
 20
-18.5199
 30
0.0
 10
29.2735
 20
-18.5199
 30
0.0
 10
29.2735
 20
-18.5199
 30
0.0
 10
29.2735
 20
-18.5199
 30
0.0
 10
29.2735
 20
-18.5199
 30
0.0
 10
29.2735
 20
-18.5199
 30
0.0
 10
29.2735
 20
-18.5199
 30
0.0
 10
29.2735
 20
-18.5199
 30
0.0
 10
29.2735
 20
-18.5199
 30
0.0
 10
29.2735
 20
-19.4067
 30
0.0
 10
29.2735
 20
-19.4067
 30
0.0
  0
SPLINE
  5
6D
330
1F
100
AcDbEntity
  8
Vrstva 1
 62
   250
370
     9
100
AcDbSpline
210
0.0
220
0.0
230
1.0
 70
    11
 71
     3
 72
    32
 73
    28
 74
     0
 42
0.0000000001
 43
0.0000000001
 40
0.0
 40
0.0
 40
0.0
 40
0.0
 40
0.125
 40
0.125
 40
0.125
 40
0.125
 40
0.25
 40
0.25
 40
0.25
 40
0.25
 40
0.375
 40
0.375
 40
0.375
 40
0.375
 40
0.5
 40
0.5
 40
0.5
 40
0.5
 40
0.625
 40
0.625
 40
0.625
 40
0.625
 40
0.75
 40
0.75
 40
0.75
 40
0.75
 40
1.0
 40
1.0
 40
1.0
 40
1.0
 10
29.2353
 20
15.855
 30
0.0
 10
29.2353
 20
15.855
 30
0.0
 10
29.2353
 20
15.855
 30
0.0
 10
29.2353
 20
15.855
 30
0.0
 10
29.2353
 20
15.855
 30
0.0
 10
29.2353
 20
15.855
 30
0.0
 10
29.2353
 20
15.855
 30
0.0
 10
29.2353
 20
15.855
 30
0.0
 10
29.2353
 20
15.855
 30
0.0
 10
29.2353
 20
15.855
 30
0.0
 10
30.5081
 20
16.2984
 30
0.0
 10
30.5081
 20
16.2984
 30
0.0
 10
30.5081
 20
16.2984
 30
0.0
 10
30.5081
 20
16.2984
 30
0.0
 10
29.2353
 20
16.7418
 30
0.0
 10
29.2353
 20
16.7418
 30
0.0
 10
29.2353
 20
16.7418
 30
0.0
 10
29.2353
 20
16.7418
 30
0.0
 10
29.2353
 20
16.7418
 30
0.0
 10
29.2353
 20
16.7418
 30
0.0
 10
29.2353
 20
16.7418
 30
0.0
 10
29.2353
 20
16.7418
 30
0.0
 10
29.2353
 20
16.7418
 30
0.0
 10
29.2353
 20
16.7418
 30
0.0
 10
29.2353
 20
16.7418
 30
0.0
 10
29.2353
 20
16.7418
 30
0.0
 10
29.2353
 20
15.855
 30
0.0
 10
29.2353
 20
15.855
 30
0.0
  0
SPLINE
  5
6E
330
1F
100
AcDbEntity
  8
Vrstva 1
 62
   250
370
     9
100
AcDbSpline
210
0.0
220
0.0
230
1.0
 70
    11
 71
     3
 72
    32
 73
    28
 74
     0
 42
0.0000000001
 43
0.0000000001
 40
0.0
 40
0.0
 40
0.0
 40
0.0
 40
0.125
 40
0.125
 40
0.125
 40
0.125
 40
0.25
 40
0.25
 40
0.25
 40
0.25
 40
0.375
 40
0.375
 40
0.375
 40
0.375
 40
0.5
 40
0.5
 40
0.5
 40
0.5
 40
0.625
 40
0.625
 40
0.625
 40
0.625
 40
0.75
 40
0.75
 40
0.75
 40
0.75
 40
1.0
 40
1.0
 40
1.0
 40
1.0
 10
-30.5908
 20
11.528
 30
0.0
 10
-30.5908
 20
11.528
 30
0.0
 10
-30.5908
 20
11.528
 30
0.0
 10
-30.5908
 20
11.528
 30
0.0
 10
-30.5908
 20
11.528
 30
0.0
 10
-30.5908
 20
11.528
 30
0.0
 10
-30.5908
 20
11.528
 30
0.0
 10
-30.5908
 20
11.528
 30
0.0
 10
-30.5908
 20
11.528
 30
0.0
 10
-30.5908
 20
11.528
 30
0.0
 10
-31.0342
 20
12.8008
 30
0.0
 10
-31.0342
 20
12.8008
 30
0.0
 10
-31.0342
 20
12.8008
 30
0.0
 10
-31.0342
 20
12.8008
 30
0.0
 10
-31.4776
 20
11.528
 30
0.0
 10
-31.4776
 20
11.528
 30
0.0
 10
-31.4776
 20
11.528
 30
0.0
 10
-31.4776
 20
11.528
 30
0.0
 10
-31.4776
 20
11.528
 30
0.0
 10
-31.4776
 20
11.528
 30
0.0
 10
-31.4776
 20
11.528
 30
0.0
 10
-31.4776
 20
11.528
 30
0.0
 10
-31.4776
 20
11.528
 30
0.0
 10
-31.4776
 20
11.528
 30
0.0
 10
-31.4776
 20
11.528
 30
0.0
 10
-31.4776
 20
11.528
 30
0.0
 10
-30.5908
 20
11.528
 30
0.0
 10
-30.5908
 20
11.528
 30
0.0
  0
SPLINE
  5
6F
330
1F
100
AcDbEntity
  8
Vrstva 1
 62
   250
370
     9
100
AcDbSpline
210
0.0
220
0.0
230
1.0
 70
    11
 71
     3
 72
    32
 73
    28
 74
     0
 42
0.0000000001
 43
0.0000000001
 40
0.0
 40
0.0
 40
0.0
 40
0.0
 40
0.125
 40
0.125
 40
0.125
 40
0.125
 40
0.25
 40
0.25
 40
0.25
 40
0.25
 40
0.375
 40
0.375
 40
0.375
 40
0.375
 40
0.5
 40
0.5
 40
0.5
 40
0.5
 40
0.625
 40
0.625
 40
0.625
 40
0.625
 40
0.75
 40
0.75
 40
0.75
 40
0.75
 40
1.0
 40
1.0
 40
1.0
 40
1.0
 10
22.0163
 20
-0.4843
 30
0.0
 10
22.0163
 20
-0.4843
 30
0.0
 10
22.0163
 20
-0.4843
 30
0.0
 10
22.0163
 20
-0.4843
 30
0.0
 10
22.0163
 20
-0.4843
 30
0.0
 10
22.0163
 20
-0.4843
 30
0.0
 10
22.0163
 20
-0.4843
 30
0.0
 10
22.0163
 20
-0.4843
 30
0.0
 10
22.0163
 20
-0.4843
 30
0.0
 10
22.0163
 20
-0.4843
 30
0.0
 10
21.5729
 20
0.7885
 30
0.0
 10
21.5729
 20
0.7885
 30
0.0
 10
21.5729
 20
0.7885
 30
0.0
 10
21.5729
 20
0.7885
 30
0.0
 10
21.1295
 20
-0.4843
 30
0.0
 10
21.1295
 20
-0.4843
 30
0.0
 10
21.1295
 20
-0.4843
 30
0.0
 10
21.1295
 20
-0.4843
 30
0.0
 10
21.1295
 20
-0.4843
 30
0.0
 10
21.1295
 20
-0.4843
 30
0.0
 10
21.1295
 20
-0.4843
 30
0.0
 10
21.1295
 20
-0.4843
 30
0.0
 10
21.1295
 20
-0.4843
 30
0.0
 10
21.1295
 20
-0.4843
 30
0.0
 10
21.1295
 20
-0.4843
 30
0.0
 10
21.1295
 20
-0.4843
 30
0.0
 10
22.0163
 20
-0.4843
 30
0.0
 10
22.0163
 20
-0.4843
 30
0.0
  0
SPLINE
  5
70
330
1F
100
AcDbEntity
  8
Vrstva 1
 62
   250
370
     9
100
AcDbSpline
210
0.0
220
0.0
230
1.0
 70
    11
 71
     3
 72
    32
 73
    28
 74
     0
 42
0.0000000001
 43
0.0000000001
 40
0.0
 40
0.0
 40
0.0
 40
0.0
 40
0.125
 40
0.125
 40
0.125
 40
0.125
 40
0.25
 40
0.25
 40
0.25
 40
0.25
 40
0.375
 40
0.375
 40
0.375
 40
0.375
 40
0.5
 40
0.5
 40
0.5
 40
0.5
 40
0.625
 40
0.625
 40
0.625
 40
0.625
 40
0.75
 40
0.75
 40
0.75
 40
0.75
 40
1.0
 40
1.0
 40
1.0
 40
1.0
 10
-31.5047
 20
-13.1059
 30
0.0
 10
-31.5047
 20
-13.1059
 30
0.0
 10
-31.5047
 20
-13.1059
 30
0.0
 10
-31.5047
 20
-13.1059
 30
0.0
 10
-31.5047
 20
-13.1059
 30
0.0
 10
-31.5047
 20
-13.1059
 30
0.0
 10
-31.5047
 20
-13.1059
 30
0.0
 10
-31.5047
 20
-13.1059
 30
0.0
 10
-31.5047
 20
-13.1059
 30
0.0
 10
-31.5047
 20
-13.1059
 30
0.0
 10
-31.0613
 20
-14.3787
 30
0.0
 10
-31.0613
 20
-14.3787
 30
0.0
 10
-31.0613
 20
-14.3787
 30
0.0
 10
-31.0613
 20
-14.3787
 30
0.0
 10
-30.6179
 20
-13.1059
 30
0.0
 10
-30.6179
 20
-13.1059
 30
0.0
 10
-30.6179
 20
-13.1059
 30
0.0
 10
-30.6179
 20
-13.1059
 30
0.0
 10
-30.6179
 20
-13.1059
 30
0.0
 10
-30.6179
 20
-13.1059
 30
0.0
 10
-30.6179
 20
-13.1059
 30
0.0
 10
-30.6179
 20
-13.1059
 30
0.0
 10
-30.6179
 20
-13.1059
 30
0.0
 10
-30.6179
 20
-13.1059
 30
0.0
 10
-30.6179
 20
-13.1059
 30
0.0
 10
-30.6179
 20
-13.1059
 30
0.0
 10
-31.5047
 20
-13.1059
 30
0.0
 10
-31.5047
 20
-13.1059
 30
0.0
  0
SPLINE
  5
71
330
1F
100
AcDbEntity
  8
Vrstva 1
 62
   250
370
     9
100
AcDbSpline
210
0.0
220
0.0
230
1.0
 70
    11
 71
     3
 72
    32
 73
    28
 74
     0
 42
0.0000000001
 43
0.0000000001
 40
0.0
 40
0.0
 40
0.0
 40
0.0
 40
0.125
 40
0.125
 40
0.125
 40
0.125
 40
0.25
 40
0.25
 40
0.25
 40
0.25
 40
0.375
 40
0.375
 40
0.375
 40
0.375
 40
0.5
 40
0.5
 40
0.5
 40
0.5
 40
0.625
 40
0.625
 40
0.625
 40
0.625
 40
0.75
 40
0.75
 40
0.75
 40
0.75
 40
1.0
 40
1.0
 40
1.0
 40
1.0
 10
21.1106
 20
-7.3256
 30
0.0
 10
21.1106
 20
-7.3256
 30
0.0
 10
21.1106
 20
-7.3256
 30
0.0
 10
21.1106
 20
-7.3256
 30
0.0
 10
21.1106
 20
-7.3256
 30
0.0
 10
21.1106
 20
-7.3256
 30
0.0
 10
21.1106
 20
-7.3256
 30
0.0
 10
21.1106
 20
-7.3256
 30
0.0
 10
21.1106
 20
-7.3256
 30
0.0
 10
21.1106
 20
-7.3256
 30
0.0
 10
21.554
 20
-8.5984
 30
0.0
 10
21.554
 20
-8.5984
 30
0.0
 10
21.554
 20
-8.5984
 30
0.0
 10
21.554
 20
-8.5984
 30
0.0
 10
21.9974
 20
-7.3256
 30
0.0
 10
21.9974
 20
-7.3256
 30
0.0
 10
21.9974
 20
-7.3256
 30
0.0
 10
21.9974
 20
-7.3256
 30
0.0
 10
21.9974
 20
-7.3256
 30
0.0
 10
21.9974
 20
-7.3256
 30
0.0
 10
21.9974
 20
-7.3256
 30
0.0
 10
21.9974
 20
-7.3256
 30
0.0
 10
21.9974
 20
-7.3256
 30
0.0
 10
21.9974
 20
-7.3256
 30
0.0
 10
21.9974
 20
-7.3256
 30
0.0
 10
21.9974
 20
-7.3256
 30
0.0
 10
21.1106
 20
-7.3256
 30
0.0
 10
21.1106
 20
-7.3256
 30
0.0
  0
SPLINE
  5
72
330
1F
100
AcDbEntity
  8
Vrstva 1
 62
   250
370
     9
100
AcDbSpline
210
0.0
220
0.0
230
1.0
 70
    11
 71
     3
 72
    32
 73
    28
 74
     0
 42
0.0000000001
 43
0.0000000001
 40
0.0
 40
0.0
 40
0.0
 40
0.0
 40
0.125
 40
0.125
 40
0.125
 40
0.125
 40
0.25
 40
0.25
 40
0.25
 40
0.25
 40
0.375
 40
0.375
 40
0.375
 40
0.375
 40
0.5
 40
0.5
 40
0.5
 40
0.5
 40
0.625
 40
0.625
 40
0.625
 40
0.625
 40
0.75
 40
0.75
 40
0.75
 40
0.75
 40
1.0
 40
1.0
 40
1.0
 40
1.0
 10
-23.3678
 20
15.8008
 30
0.0
 10
-23.3678
 20
15.8008
 30
0.0
 10
-23.3678
 20
15.8008
 30
0.0
 10
-23.3678
 20
15.8008
 30
0.0
 10
-23.3678
 20
15.8008
 30
0.0
 10
-23.3678
 20
15.8008
 30
0.0
 10
-23.3678
 20
15.8008
 30
0.0
 10
-23.3678
 20
15.8008
 30
0.0
 10
-23.3678
 20
15.8008
 30
0.0
 10
-23.3678
 20
15.8008
 30
0.0
 10
-24.6406
 20
16.2442
 30
0.0
 10
-24.6406
 20
16.2442
 30
0.0
 10
-24.6406
 20
16.2442
 30
0.0
 10
-24.6406
 20
16.2442
 30
0.0
 10
-23.3678
 20
16.6876
 30
0.0
 10
-23.3678
 20
16.6876
 30
0.0
 10
-23.3678
 20
16.6876
 30
0.0
 10
-23.3678
 20
16.6876
 30
0.0
 10
-23.3678
 20
16.6876
 30
0.0
 10
-23.3678
 20
16.6876
 30
0.0
 10
-23.3678
 20
16.6876
 30
0.0
 10
-23.3678
 20
16.6876
 30
0.0
 10
-23.3678
 20
16.6876
 30
0.0
 10
-23.3678
 20
16.6876
 30
0.0
 10
-23.3678
 20
16.6876
 30
0.0
 10
-23.3678
 20
16.6876
 30
0.0
 10
-23.3678
 20
15.8008
 30
0.0
 10
-23.3678
 20
15.8008
 30
0.0
  0
SPLINE
  5
73
330
1F
100
AcDbEntity
  8
Vrstva 1
 62
   250
370
     9
100
AcDbSpline
210
0.0
220
0.0
230
1.0
 70
    11
 71
     3
 72
    32
 73
    28
 74
     0
 42
0.0000000001
 43
0.0000000001
 40
0.0
 40
0.0
 40
0.0
 40
0.0
 40
0.125
 40
0.125
 40
0.125
 40
0.125
 40
0.25
 40
0.25
 40
0.25
 40
0.25
 40
0.375
 40
0.375
 40
0.375
 40
0.375
 40
0.5
 40
0.5
 40
0.5
 40
0.5
 40
0.625
 40
0.625
 40
0.625
 40
0.625
 40
0.75
 40
0.75
 40
0.75
 40
0.75
 40
1.0
 40
1.0
 40
1.0
 40
1.0
 10
-16.8005
 20
-19.7052
 30
0.0
 10
-16.8005
 20
-19.7052
 30
0.0
 10
-16.8005
 20
-19.7052
 30
0.0
 10
-16.8005
 20
-19.7052
 30
0.0
 10
-16.8005
 20
-19.7052
 30
0.0
 10
-16.8005
 20
-19.7052
 30
0.0
 10
-16.8005
 20
-19.7052
 30
0.0
 10
-16.8005
 20
-19.7052
 30
0.0
 10
-16.8005
 20
-19.7052
 30
0.0
 10
-16.8005
 20
-19.7052
 30
0.0
 10
-18.0733
 20
-19.2618
 30
0.0
 10
-18.0733
 20
-19.2618
 30
0.0
 10
-18.0733
 20
-19.2618
 30
0.0
 10
-18.0733
 20
-19.2618
 30
0.0
 10
-16.8005
 20
-18.8184
 30
0.0
 10
-16.8005
 20
-18.8184
 30
0.0
 10
-16.8005
 20
-18.8184
 30
0.0
 10
-16.8005
 20
-18.8184
 30
0.0
 10
-16.8005
 20
-18.8184
 30
0.0
 10
-16.8005
 20
-18.8184
 30
0.0
 10
-16.8005
 20
-18.8184
 30
0.0
 10
-16.8005
 20
-18.8184
 30
0.0
 10
-16.8005
 20
-18.8184
 30
0.0
 10
-16.8005
 20
-18.8184
 30
0.0
 10
-16.8005
 20
-18.8184
 30
0.0
 10
-16.8005
 20
-18.8184
 30
0.0
 10
-16.8005
 20
-19.7052
 30
0.0
 10
-16.8005
 20
-19.7052
 30
0.0
  0
SPLINE
  5
74
330
1F
100
AcDbEntity
  8
Vrstva 1
 62
   250
370
     9
100
AcDbSpline
210
0.0
220
0.0
230
1.0
 70
    11
 71
     3
 72
    32
 73
    28
 74
     0
 42
0.0000000001
 43
0.0000000001
 40
0.0
 40
0.0
 40
0.0
 40
0.0
 40
0.125
 40
0.125
 40
0.125
 40
0.125
 40
0.25
 40
0.25
 40
0.25
 40
0.25
 40
0.375
 40
0.375
 40
0.375
 40
0.375
 40
0.5
 40
0.5
 40
0.5
 40
0.5
 40
0.625
 40
0.625
 40
0.625
 40
0.625
 40
0.75
 40
0.75
 40
0.75
 40
0.75
 40
1.0
 40
1.0
 40
1.0
 40
1.0
 10
32.994
 20
-19.4098
 30
0.0
 10
32.994
 20
-19.4098
 30
0.0
 10
32.994
 20
-19.4098
 30
0.0
 10
32.994
 20
-19.4098
 30
0.0
 10
32.994
 20
-19.4098
 30
0.0
 10
32.994
 20
-19.4098
 30
0.0
 10
32.994
 20
-19.4098
 30
0.0
 10
32.994
 20
-19.4098
 30
0.0
 10
32.994
 20
-19.4098
 30
0.0
 10
32.994
 20
-19.4098
 30
0.0
 10
31.7212
 20
-18.9664
 30
0.0
 10
31.7212
 20
-18.9664
 30
0.0
 10
31.7212
 20
-18.9664
 30
0.0
 10
31.7212
 20
-18.9664
 30
0.0
 10
32.994
 20
-18.523
 30
0.0
 10
32.994
 20
-18.523
 30
0.0
 10
32.994
 20
-18.523
 30
0.0
 10
32.994
 20
-18.523
 30
0.0
 10
32.994
 20
-18.523
 30
0.0
 10
32.994
 20
-18.523
 30
0.0
 10
32.994
 20
-18.523
 30
0.0
 10
32.994
 20
-18.523
 30
0.0
 10
32.994
 20
-18.523
 30
0.0
 10
32.994
 20
-18.523
 30
0.0
 10
32.994
 20
-18.523
 30
0.0
 10
32.994
 20
-18.523
 30
0.0
 10
32.994
 20
-19.4098
 30
0.0
 10
32.994
 20
-19.4098
 30
0.0
  0
SPLINE
  5
75
330
1F
100
AcDbEntity
  8
Vrstva 1
 62
   250
370
     9
100
AcDbSpline
210
0.0
220
0.0
230
1.0
 70
    11
 71
     3
 72
    32
 73
    28
 74
     0
 42
0.0000000001
 43
0.0000000001
 40
0.0
 40
0.0
 40
0.0
 40
0.0
 40
0.125
 40
0.125
 40
0.125
 40
0.125
 40
0.25
 40
0.25
 40
0.25
 40
0.25
 40
0.375
 40
0.375
 40
0.375
 40
0.375
 40
0.5
 40
0.5
 40
0.5
 40
0.5
 40
0.625
 40
0.625
 40
0.625
 40
0.625
 40
0.75
 40
0.75
 40
0.75
 40
0.75
 40
1.0
 40
1.0
 40
1.0
 40
1.0
 10
33.0547
 20
15.8519
 30
0.0
 10
33.0547
 20
15.8519
 30
0.0
 10
33.0547
 20
15.8519
 30
0.0
 10
33.0547
 20
15.8519
 30
0.0
 10
33.0547
 20
15.8519
 30
0.0
 10
33.0547
 20
15.8519
 30
0.0
 10
33.0547
 20
15.8519
 30
0.0
 10
33.0547
 20
15.8519
 30
0.0
 10
33.0547
 20
15.8519
 30
0.0
 10
33.0547
 20
15.8519
 30
0.0
 10
31.7819
 20
16.2953
 30
0.0
 10
31.7819
 20
16.2953
 30
0.0
 10
31.7819
 20
16.2953
 30
0.0
 10
31.7819
 20
16.2953
 30
0.0
 10
33.0547
 20
16.7387
 30
0.0
 10
33.0547
 20
16.7387
 30
0.0
 10
33.0547
 20
16.7387
 30
0.0
 10
33.0547
 20
16.7387
 30
0.0
 10
33.0547
 20
16.7387
 30
0.0
 10
33.0547
 20
16.7387
 30
0.0
 10
33.0547
 20
16.7387
 30
0.0
 10
33.0547
 20
16.7387
 30
0.0
 10
33.0547
 20
16.7387
 30
0.0
 10
33.0547
 20
16.7387
 30
0.0
 10
33.0547
 20
16.7387
 30
0.0
 10
33.0547
 20
16.7387
 30
0.0
 10
33.0547
 20
15.8519
 30
0.0
 10
33.0547
 20
15.8519
 30
0.0
  0
SPLINE
  5
76
330
1F
100
AcDbEntity
  8
Vrstva 1
 62
   250
370
    30
100
AcDbSpline
210
0.0
220
0.0
230
1.0
 70
    11
 71
     3
 72
    20
 73
    16
 74
     0
 42
0.0000000001
 43
0.0000000001
 40
0.0
 40
0.0
 40
0.0
 40
0.0
 40
0.2
 40
0.2
 40
0.2
 40
0.2
 40
0.4
 40
0.4
 40
0.4
 40
0.4
 40
0.6
 40
0.6
 40
0.6
 40
0.6
 40
1.0
 40
1.0
 40
1.0
 40
1.0
 10
-24.6697
 20
12.8831
 30
0.0
 10
-24.6697
 20
12.8831
 30
0.0
 10
-24.6697
 20
-14.4647
 30
0.0
 10
-24.6697
 20
-14.4647
 30
0.0
 10
-24.6697
 20
-14.4647
 30
0.0
 10
-24.6697
 20
-14.4647
 30
0.0
 10
16.2694
 20
-14.4647
 30
0.0
 10
16.2694
 20
-14.4647
 30
0.0
 10
16.2694
 20
-14.4647
 30
0.0
 10
16.2694
 20
-14.4647
 30
0.0
 10
16.2694
 20
12.8831
 30
0.0
 10
16.2694
 20
12.8831
 30
0.0
 10
16.2694
 20
12.8831
 30
0.0
 10
16.2694
 20
12.8831
 30
0.0
 10
-24.6697
 20
12.8831
 30
0.0
 10
-24.6697
 20
12.8831
 30
0.0
  0
SPLINE
  5
77
330
1F
100
AcDbEntity
  8
Vrstva 1
 62
   250
370
    30
100
AcDbSpline
210
0.0
220
0.0
230
1.0
 70
    11
 71
     3
 72
    20
 73
    16
 74
     0
 42
0.0000000001
 43
0.0000000001
 40
0.0
 40
0.0
 40
0.0
 40
0.0
 40
0.2
 40
0.2
 40
0.2
 40
0.2
 40
0.4
 40
0.4
 40
0.4
 40
0.4
 40
0.6
 40
0.6
 40
0.6
 40
0.6
 40
1.0
 40
1.0
 40
1.0
 40
1.0
 10
-17.6958
 20
0.4276
 30
0.0
 10
-17.6958
 20
0.4276
 30
0.0
 10
-17.6958
 20
-8.1911
 30
0.0
 10
-17.6958
 20
-8.1911
 30
0.0
 10
-17.6958
 20
-8.1911
 30
0.0
 10
-17.6958
 20
-8.1911
 30
0.0
 10
9.3206
 20
-8.1911
 30
0.0
 10
9.3206
 20
-8.1911
 30
0.0
 10
9.3206
 20
-8.1911
 30
0.0
 10
9.3206
 20
-8.1911
 30
0.0
 10
9.3206
 20
0.4276
 30
0.0
 10
9.3206
 20
0.4276
 30
0.0
 10
9.3206
 20
0.4276
 30
0.0
 10
9.3206
 20
0.4276
 30
0.0
 10
-17.6958
 20
0.4276
 30
0.0
 10
-17.6958
 20
0.4276
 30
0.0
  0
SPLINE
  5
78
330
1F
100
AcDbEntity
  8
Vrstva 1
 62
   250
370
    30
100
AcDbSpline
210
0.0
220
0.0
230
1.0
 70
    11
 71
     3
 72
    20
 73
    16
 74
     0
 42
0.0000000001
 43
0.0000000001
 40
0.0
 40
0.0
 40
0.0
 40
0.0
 40
0.2
 40
0.2
 40
0.2
 40
0.2
 40
0.4
 40
0.4
 40
0.4
 40
0.4
 40
0.6
 40
0.6
 40
0.6
 40
0.6
 40
1.0
 40
1.0
 40
1.0
 40
1.0
 10
-18.0248
 20
0.8387
 30
0.0
 10
-18.0248
 20
0.8387
 30
0.0
 10
-18.0248
 20
-8.6086
 30
0.0
 10
-18.0248
 20
-8.6086
 30
0.0
 10
-18.0248
 20
-8.6086
 30
0.0
 10
-18.0248
 20
-8.6086
 30
0.0
 10
9.6546
 20
-8.6086
 30
0.0
 10
9.6546
 20
-8.6086
 30
0.0
 10
9.6546
 20
-8.6086
 30
0.0
 10
9.6546
 20
-8.6086
 30
0.0
 10
9.6546
 20
0.8387
 30
0.0
 10
9.6546
 20
0.8387
 30
0.0
 10
9.6546
 20
0.8387
 30
0.0
 10
9.6546
 20
0.8387
 30
0.0
 10
-18.0248
 20
0.8387
 30
0.0
 10
-18.0248
 20
0.8387
 30
0.0
  0
SPLINE
  5
79
330
1F
100
AcDbEntity
  8
Vrstva 1
 62
   250
370
    30
100
AcDbSpline
210
0.0
220
0.0
230
1.0
 70
    24
 71
     3
 72
     8
 73
     4
 74
     0
 42
0.0000000001
 43
0.0000000001
 40
0.0
 40
0.0
 40
0.0
 40
0.0
 40
1.0
 40
1.0
 40
1.0
 40
1.0
 10
-17.6934
 20
0.4242
 30
0.0
 10
-17.6934
 20
0.4242
 30
0.0
 10
-18.0241
 20
0.8377
 30
0.0
 10
-18.0241
 20
0.8377
 30
0.0
  0
SPLINE
  5
7A
330
1F
100
AcDbEntity
  8
Vrstva 1
 62
   250
370
    30
100
AcDbSpline
210
0.0
220
0.0
230
1.0
 70
    24
 71
     3
 72
     8
 73
     4
 74
     0
 42
0.0000000001
 43
0.0000000001
 40
0.0
 40
0.0
 40
0.0
 40
0.0
 40
1.0
 40
1.0
 40
1.0
 40
1.0
 10
-17.6993
 20
-8.1966
 30
0.0
 10
-17.6993
 20
-8.1966
 30
0.0
 10
-18.0268
 20
-8.607
 30
0.0
 10
-18.0268
 20
-8.607
 30
0.0
  0
SPLINE
  5
7B
330
1F
100
AcDbEntity
  8
Vrstva 1
 62
   250
370
    30
100
AcDbSpline
210
0.0
220
0.0
230
1.0
 70
    24
 71
     3
 72
     8
 73
     4
 74
     0
 42
0.0000000001
 43
0.0000000001
 40
0.0
 40
0.0
 40
0.0
 40
0.0
 40
1.0
 40
1.0
 40
1.0
 40
1.0
 10
9.3164
 20
0.4349
 30
0.0
 10
9.3164
 20
0.4349
 30
0.0
 10
9.6504
 20
0.8324
 30
0.0
 10
9.6504
 20
0.8324
 30
0.0
  0
SPLINE
  5
7C
330
1F
100
AcDbEntity
  8
Vrstva 1
 62
   250
370
    30
100
AcDbSpline
210
0.0
220
0.0
230
1.0
 70
    24
 71
     3
 72
     8
 73
     4
 74
     0
 42
0.0000000001
 43
0.0000000001
 40
0.0
 40
0.0
 40
0.0
 40
0.0
 40
1.0
 40
1.0
 40
1.0
 40
1.0
 10
9.6534
 20
-8.6054
 30
0.0
 10
9.6534
 20
-8.6054
 30
0.0
 10
9.3158
 20
-8.1894
 30
0.0
 10
9.3158
 20
-8.1894
 30
0.0
  0
SPLINE
  5
7D
330
1F
100
AcDbEntity
  8
Vrstva 1
 62
   250
370
    30
100
AcDbSpline
210
0.0
220
0.0
230
1.0
 70
    11
 71
     3
 72
    20
 73
    16
 74
     0
 42
0.0000000001
 43
0.0000000001
 40
0.0
 40
0.0
 40
0.0
 40
0.0
 40
0.2
 40
0.2
 40
0.2
 40
0.2
 40
0.4
 40
0.4
 40
0.4
 40
0.4
 40
0.6
 40
0.6
 40
0.6
 40
0.6
 40
1.0
 40
1.0
 40
1.0
 40
1.0
 10
0.8749
 20
0.2637
 30
0.0
 10
0.8749
 20
0.2637
 30
0.0
 10
0.8749
 20
-8.0233
 30
0.0
 10
0.8749
 20
-8.0233
 30
0.0
 10
0.8749
 20
-8.0233
 30
0.0
 10
0.8749
 20
-8.0233
 30
0.0
 10
9.1622
 20
-8.0233
 30
0.0
 10
9.1622
 20
-8.0233
 30
0.0
 10
9.1622
 20
-8.0233
 30
0.0
 10
9.1622
 20
-8.0233
 30
0.0
 10
9.1622
 20
0.2637
 30
0.0
 10
9.1622
 20
0.2637
 30
0.0
 10
9.1622
 20
0.2637
 30
0.0
 10
9.1622
 20
0.2637
 30
0.0
 10
0.8749
 20
0.2637
 30
0.0
 10
0.8749
 20
0.2637
 30
0.0
  0
SPLINE
  5
7E
330
1F
100
AcDbEntity
  8
Vrstva 1
 62
   250
370
    30
100
AcDbSpline
210
0.0
220
0.0
230
1.0
 70
    11
 71
     3
 72
    20
 73
    16
 74
     0
 42
0.0000000001
 43
0.0000000001
 40
0.0
 40
0.0
 40
0.0
 40
0.0
 40
0.2
 40
0.2
 40
0.2
 40
0.2
 40
0.4
 40
0.4
 40
0.4
 40
0.4
 40
0.6
 40
0.6
 40
0.6
 40
0.6
 40
1.0
 40
1.0
 40
1.0
 40
1.0
 10
-17.5227
 20
0.2637
 30
0.0
 10
-17.5227
 20
0.2637
 30
0.0
 10
-17.5227
 20
-8.0233
 30
0.0
 10
-17.5227
 20
-8.0233
 30
0.0
 10
-17.5227
 20
-8.0233
 30
0.0
 10
-17.5227
 20
-8.0233
 30
0.0
 10
0.7092
 20
-8.0233
 30
0.0
 10
0.7092
 20
-8.0233
 30
0.0
 10
0.7092
 20
-8.0233
 30
0.0
 10
0.7092
 20
-8.0233
 30
0.0
 10
0.7092
 20
0.2637
 30
0.0
 10
0.7092
 20
0.2637
 30
0.0
 10
0.7092
 20
0.2637
 30
0.0
 10
0.7092
 20
0.2637
 30
0.0
 10
-17.5227
 20
0.2637
 30
0.0
 10
-17.5227
 20
0.2637
 30
0.0
  0
SPLINE
  5
7F
330
1F
100
AcDbEntity
  8
Vrstva 1
 62
   250
370
    30
100
AcDbSpline
210
0.0
220
0.0
230
1.0
 70
    24
 71
     3
 72
     8
 73
     4
 74
     0
 42
0.0000000001
 43
0.0000000001
 40
0.0
 40
0.0
 40
0.0
 40
0.0
 40
1.0
 40
1.0
 40
1.0
 40
1.0
 10
29.538
 20
8.478
 30
0.0
 10
29.538
 20
8.478
 30
0.0
 10
29.6419
 20
8.4855
 30
0.0
 10
29.6419
 20
8.4855
 30
0.0
  0
SPLINE
  5
80
330
1F
100
AcDbEntity
  8
Vrstva 1
 62
   250
370
    30
100
AcDbSpline
210
0.0
220
0.0
230
1.0
 70
    24
 71
     3
 72
     8
 73
     4
 74
     0
 42
0.0000000001
 43
0.0000000001
 40
0.0
 40
0.0
 40
0.0
 40
0.0
 40
1.0
 40
1.0
 40
1.0
 40
1.0
 10
28.7109
 20
8.0659
 30
0.0
 10
28.7109
 20
8.0659
 30
0.0
 10
28.6725
 20
8.0217
 30
0.0
 10
28.6725
 20
8.0217
 30
0.0
  0
SPLINE
  5
81
330
1F
100
AcDbEntity
  8
Vrstva 1
 62
   250
370
    30
100
AcDbSpline
210
0.0
220
0.0
230
1.0
 70
    24
 71
     3
 72
     8
 73
     4
 74
     0
 42
0.0000000001
 43
0.0000000001
 40
0.0
 40
0.0
 40
0.0
 40
0.0
 40
1.0
 40
1.0
 40
1.0
 40
1.0
 10
28.7871
 20
8.1408
 30
0.0
 10
28.7871
 20
8.1408
 30
0.0
 10
28.7835
 20
8.1377
 30
0.0
 10
28.7835
 20
8.1377
 30
0.0
  0
SPLINE
  5
82
330
1F
100
AcDbEntity
  8
Vrstva 1
 62
   250
370
    30
100
AcDbSpline
210
0.0
220
0.0
230
1.0
 70
    24
 71
     3
 72
     8
 73
     4
 74
     0
 42
0.0000000001
 43
0.0000000001
 40
0.0
 40
0.0
 40
0.0
 40
0.0
 40
1.0
 40
1.0
 40
1.0
 40
1.0
 10
28.8435
 20
8.1894
 30
0.0
 10
28.8435
 20
8.1894
 30
0.0
 10
28.8007
 20
8.1526
 30
0.0
 10
28.8007
 20
8.1526
 30
0.0
  0
SPLINE
  5
83
330
1F
100
AcDbEntity
  8
Vrstva 1
 62
   250
370
    30
100
AcDbSpline
210
0.0
220
0.0
230
1.0
 70
    24
 71
     3
 72
     8
 73
     4
 74
     0
 42
0.0000000001
 43
0.0000000001
 40
0.0
 40
0.0
 40
0.0
 40
0.0
 40
1.0
 40
1.0
 40
1.0
 40
1.0
 10
28.8657
 20
8.2067
 30
0.0
 10
28.8657
 20
8.2067
 30
0.0
 10
28.8612
 20
8.2036
 30
0.0
 10
28.8612
 20
8.2036
 30
0.0
  0
SPLINE
  5
84
330
1F
100
AcDbEntity
  8
Vrstva 1
 62
   250
370
    30
100
AcDbSpline
210
0.0
220
0.0
230
1.0
 70
    24
 71
     3
 72
     8
 73
     4
 74
     0
 42
0.0000000001
 43
0.0000000001
 40
0.0
 40
0.0
 40
0.0
 40
0.0
 40
1.0
 40
1.0
 40
1.0
 40
1.0
 10
30.2479
 20
8.357
 30
0.0
 10
30.2479
 20
8.357
 30
0.0
 10
30.3403
 20
8.3086
 30
0.0
 10
30.3403
 20
8.3086
 30
0.0
  0
SPLINE
  5
85
330
1F
100
AcDbEntity
  8
Vrstva 1
 62
   250
370
    30
100
AcDbSpline
210
0.0
220
0.0
230
1.0
 70
    24
 71
     3
 72
     8
 73
     4
 74
     0
 42
0.0000000001
 43
0.0000000001
 40
0.0
 40
0.0
 40
0.0
 40
0.0
 40
1.0
 40
1.0
 40
1.0
 40
1.0
 10
30.2841
 20
8.3392
 30
0.0
 10
30.2841
 20
8.3392
 30
0.0
 10
30.2964
 20
8.3324
 30
0.0
 10
30.2964
 20
8.3324
 30
0.0
  0
SPLINE
  5
86
330
1F
100
AcDbEntity
  8
Vrstva 1
 62
   250
370
    30
100
AcDbSpline
210
0.0
220
0.0
230
1.0
 70
    24
 71
     3
 72
     8
 73
     4
 74
     0
 42
0.0000000001
 43
0.0000000001
 40
0.0
 40
0.0
 40
0.0
 40
0.0
 40
1.0
 40
1.0
 40
1.0
 40
1.0
 10
30.3489
 20
8.3031
 30
0.0
 10
30.3489
 20
8.3031
 30
0.0
 10
30.3651
 20
8.294
 30
0.0
 10
30.3651
 20
8.294
 30
0.0
  0
SPLINE
  5
87
330
1F
100
AcDbEntity
  8
Vrstva 1
 62
   250
370
    30
100
AcDbSpline
210
0.0
220
0.0
230
1.0
 70
    24
 71
     3
 72
     8
 73
     4
 74
     0
 42
0.0000000001
 43
0.0000000001
 40
0.0
 40
0.0
 40
0.0
 40
0.0
 40
1.0
 40
1.0
 40
1.0
 40
1.0
 10
29.3235
 20
8.4366
 30
0.0
 10
29.3235
 20
8.4366
 30
0.0
 10
29.313
 20
8.4341
 30
0.0
 10
29.313
 20
8.4341
 30
0.0
  0
SPLINE
  5
88
330
1F
100
AcDbEntity
  8
Vrstva 1
 62
   250
370
    30
100
AcDbSpline
210
0.0
220
0.0
230
1.0
 70
    24
 71
     3
 72
     8
 73
     4
 74
     0
 42
0.0000000001
 43
0.0000000001
 40
0.0
 40
0.0
 40
0.0
 40
0.0
 40
1.0
 40
1.0
 40
1.0
 40
1.0
 10
29.311
 20
8.4334
 30
0.0
 10
29.311
 20
8.4334
 30
0.0
 10
29.3026
 20
8.431
 30
0.0
 10
29.3026
 20
8.431
 30
0.0
  0
SPLINE
  5
89
330
1F
100
AcDbEntity
  8
Vrstva 1
 62
   250
370
    30
100
AcDbSpline
210
0.0
220
0.0
230
1.0
 70
    24
 71
     3
 72
     8
 73
     4
 74
     0
 42
0.0000000001
 43
0.0000000001
 40
0.0
 40
0.0
 40
0.0
 40
0.0
 40
1.0
 40
1.0
 40
1.0
 40
1.0
 10
29.1373
 20
8.3699
 30
0.0
 10
29.1373
 20
8.3699
 30
0.0
 10
29.234
 20
8.4087
 30
0.0
 10
29.234
 20
8.4087
 30
0.0
  0
SPLINE
  5
8A
330
1F
100
AcDbEntity
  8
Vrstva 1
 62
   250
370
    30
100
AcDbSpline
210
0.0
220
0.0
230
1.0
 70
    24
 71
     3
 72
     8
 73
     4
 74
     0
 42
0.0000000001
 43
0.0000000001
 40
0.0
 40
0.0
 40
0.0
 40
0.0
 40
1.0
 40
1.0
 40
1.0
 40
1.0
 10
29.2419
 20
8.4112
 30
0.0
 10
29.2419
 20
8.4112
 30
0.0
 10
29.2694
 20
8.4208
 30
0.0
 10
29.2694
 20
8.4208
 30
0.0
  0
SPLINE
  5
8B
330
1F
100
AcDbEntity
  8
Vrstva 1
 62
   250
370
    30
100
AcDbSpline
210
0.0
220
0.0
230
1.0
 70
    24
 71
     3
 72
     8
 73
     4
 74
     0
 42
0.0000000001
 43
0.0000000001
 40
0.0
 40
0.0
 40
0.0
 40
0.0
 40
1.0
 40
1.0
 40
1.0
 40
1.0
 10
29.4121
 20
8.4584
 30
0.0
 10
29.4121
 20
8.4584
 30
0.0
 10
29.371
 20
8.4483
 30
0.0
 10
29.371
 20
8.4483
 30
0.0
  0
SPLINE
  5
8C
330
1F
100
AcDbEntity
  8
Vrstva 1
 62
   250
370
    30
100
AcDbSpline
210
0.0
220
0.0
230
1.0
 70
    24
 71
     3
 72
     8
 73
     4
 74
     0
 42
0.0000000001
 43
0.0000000001
 40
0.0
 40
0.0
 40
0.0
 40
0.0
 40
1.0
 40
1.0
 40
1.0
 40
1.0
 10
28.7722
 20
8.1267
 30
0.0
 10
28.7722
 20
8.1267
 30
0.0
 10
28.7317
 20
8.0879
 30
0.0
 10
28.7317
 20
8.0879
 30
0.0
  0
SPLINE
  5
8D
330
1F
100
AcDbEntity
  8
Vrstva 1
 62
   250
370
    30
100
AcDbSpline
210
0.0
220
0.0
230
1.0
 70
    24
 71
     3
 72
     8
 73
     4
 74
     0
 42
0.0000000001
 43
0.0000000001
 40
0.0
 40
0.0
 40
0.0
 40
0.0
 40
1.0
 40
1.0
 40
1.0
 40
1.0
 10
28.622
 20
7.9606
 30
0.0
 10
28.622
 20
7.9606
 30
0.0
 10
28.6426
 20
7.9871
 30
0.0
 10
28.6426
 20
7.9871
 30
0.0
  0
SPLINE
  5
8E
330
1F
100
AcDbEntity
  8
Vrstva 1
 62
   250
370
    30
100
AcDbSpline
210
0.0
220
0.0
230
1.0
 70
    24
 71
     3
 72
     8
 73
     4
 74
     0
 42
0.0000000001
 43
0.0000000001
 40
0.0
 40
0.0
 40
0.0
 40
0.0
 40
1.0
 40
1.0
 40
1.0
 40
1.0
 10
28.7153
 20
8.0706
 30
0.0
 10
28.7153
 20
8.0706
 30
0.0
 10
28.6466
 20
7.9921
 30
0.0
 10
28.6466
 20
7.9921
 30
0.0
  0
SPLINE
  5
8F
330
1F
100
AcDbEntity
  8
Vrstva 1
 62
   250
370
    30
100
AcDbSpline
210
0.0
220
0.0
230
1.0
 70
    24
 71
     3
 72
     8
 73
     4
 74
     0
 42
0.0000000001
 43
0.0000000001
 40
0.0
 40
0.0
 40
0.0
 40
0.0
 40
1.0
 40
1.0
 40
1.0
 40
1.0
 10
28.8695
 20
8.2101
 30
0.0
 10
28.8695
 20
8.2101
 30
0.0
 10
28.9546
 20
8.2704
 30
0.0
 10
28.9546
 20
8.2704
 30
0.0
  0
SPLINE
  5
90
330
1F
100
AcDbEntity
  8
Vrstva 1
 62
   250
370
    30
100
AcDbSpline
210
0.0
220
0.0
230
1.0
 70
    24
 71
     3
 72
     8
 73
     4
 74
     0
 42
0.0000000001
 43
0.0000000001
 40
0.0
 40
0.0
 40
0.0
 40
0.0
 40
1.0
 40
1.0
 40
1.0
 40
1.0
 10
29.5876
 20
8.4824
 30
0.0
 10
29.5876
 20
8.4824
 30
0.0
 10
29.557
 20
8.4793
 30
0.0
 10
29.557
 20
8.4793
 30
0.0
  0
SPLINE
  5
91
330
1F
100
AcDbEntity
  8
Vrstva 1
 62
   250
370
    30
100
AcDbSpline
210
0.0
220
0.0
230
1.0
 70
    24
 71
     3
 72
     8
 73
     4
 74
     0
 42
0.0000000001
 43
0.0000000001
 40
0.0
 40
0.0
 40
0.0
 40
0.0
 40
1.0
 40
1.0
 40
1.0
 40
1.0
 10
28.9953
 20
8.2959
 30
0.0
 10
28.9953
 20
8.2959
 30
0.0
 10
29.0242
 20
8.3123
 30
0.0
 10
29.0242
 20
8.3123
 30
0.0
  0
SPLINE
  5
92
330
1F
100
AcDbEntity
  8
Vrstva 1
 62
   250
370
    30
100
AcDbSpline
210
0.0
220
0.0
230
1.0
 70
    24
 71
     3
 72
     8
 73
     4
 74
     0
 42
0.0000000001
 43
0.0000000001
 40
0.0
 40
0.0
 40
0.0
 40
0.0
 40
1.0
 40
1.0
 40
1.0
 40
1.0
 10
29.746
 20
8.4838
 30
0.0
 10
29.746
 20
8.4838
 30
0.0
 10
29.6419
 20
8.4855
 30
0.0
 10
29.6419
 20
8.4855
 30
0.0
  0
SPLINE
  5
93
330
1F
100
AcDbEntity
  8
Vrstva 1
 62
   250
370
    30
100
AcDbSpline
210
0.0
220
0.0
230
1.0
 70
    24
 71
     3
 72
     8
 73
     4
 74
     0
 42
0.0000000001
 43
0.0000000001
 40
0.0
 40
0.0
 40
0.0
 40
0.0
 40
1.0
 40
1.0
 40
1.0
 40
1.0
 10
29.0749
 20
8.339
 30
0.0
 10
29.0749
 20
8.339
 30
0.0
 10
29.1182
 20
8.3612
 30
0.0
 10
29.1182
 20
8.3612
 30
0.0
  0
SPLINE
  5
94
330
1F
100
AcDbEntity
  8
Vrstva 1
 62
   250
370
    30
100
AcDbSpline
210
0.0
220
0.0
230
1.0
 70
    24
 71
     3
 72
     8
 73
     4
 74
     0
 42
0.0000000001
 43
0.0000000001
 40
0.0
 40
0.0
 40
0.0
 40
0.0
 40
1.0
 40
1.0
 40
1.0
 40
1.0
 10
29.031
 20
8.3165
 30
0.0
 10
29.031
 20
8.3165
 30
0.0
 10
29.0378
 20
8.3201
 30
0.0
 10
29.0378
 20
8.3201
 30
0.0
  0
SPLINE
  5
95
330
1F
100
AcDbEntity
  8
Vrstva 1
 62
   250
370
    30
100
AcDbSpline
210
0.0
220
0.0
230
1.0
 70
    24
 71
     3
 72
     8
 73
     4
 74
     0
 42
0.0000000001
 43
0.0000000001
 40
0.0
 40
0.0
 40
0.0
 40
0.0
 40
1.0
 40
1.0
 40
1.0
 40
1.0
 10
28.9576
 20
8.2721
 30
0.0
 10
28.9576
 20
8.2721
 30
0.0
 10
28.9756
 20
8.2838
 30
0.0
 10
28.9756
 20
8.2838
 30
0.0
  0
SPLINE
  5
96
330
1F
100
AcDbEntity
  8
Vrstva 1
 62
   250
370
    30
100
AcDbSpline
210
0.0
220
0.0
230
1.0
 70
    24
 71
     3
 72
     8
 73
     4
 74
     0
 42
0.0000000001
 43
0.0000000001
 40
0.0
 40
0.0
 40
0.0
 40
0.0
 40
1.0
 40
1.0
 40
1.0
 40
1.0
 10
29.1298
 20
8.3662
 30
0.0
 10
29.1298
 20
8.3662
 30
0.0
 10
29.1219
 20
8.3629
 30
0.0
 10
29.1219
 20
8.3629
 30
0.0
  0
SPLINE
  5
97
330
1F
100
AcDbEntity
  8
Vrstva 1
 62
   250
370
    30
100
AcDbSpline
210
0.0
220
0.0
230
1.0
 70
    24
 71
     3
 72
     8
 73
     4
 74
     0
 42
0.0000000001
 43
0.0000000001
 40
0.0
 40
0.0
 40
0.0
 40
0.0
 40
1.0
 40
1.0
 40
1.0
 40
1.0
 10
29.1684
 20
8.3827
 30
0.0
 10
29.1684
 20
8.3827
 30
0.0
 10
29.1447
 20
8.3733
 30
0.0
 10
29.1447
 20
8.3733
 30
0.0
  0
SPLINE
  5
98
330
1F
100
AcDbEntity
  8
Vrstva 1
 62
   250
370
    30
100
AcDbSpline
210
0.0
220
0.0
230
1.0
 70
    24
 71
     3
 72
     8
 73
     4
 74
     0
 42
0.0000000001
 43
0.0000000001
 40
0.0
 40
0.0
 40
0.0
 40
0.0
 40
1.0
 40
1.0
 40
1.0
 40
1.0
 10
30.2115
 20
8.3737
 30
0.0
 10
30.2115
 20
8.3737
 30
0.0
 10
30.1808
 20
8.3857
 30
0.0
 10
30.1808
 20
8.3857
 30
0.0
  0
SPLINE
  5
99
330
1F
100
AcDbEntity
  8
Vrstva 1
 62
   250
370
    30
100
AcDbSpline
210
0.0
220
0.0
230
1.0
 70
    24
 71
     3
 72
     8
 73
     4
 74
     0
 42
0.0000000001
 43
0.0000000001
 40
0.0
 40
0.0
 40
0.0
 40
0.0
 40
1.0
 40
1.0
 40
1.0
 40
1.0
 10
30.2212
 20
8.3693
 30
0.0
 10
30.2212
 20
8.3693
 30
0.0
 10
30.2357
 20
8.3623
 30
0.0
 10
30.2357
 20
8.3623
 30
0.0
  0
SPLINE
  5
9A
330
1F
100
AcDbEntity
  8
Vrstva 1
 62
   250
370
    30
100
AcDbSpline
210
0.0
220
0.0
230
1.0
 70
    24
 71
     3
 72
     8
 73
     4
 74
     0
 42
0.0000000001
 43
0.0000000001
 40
0.0
 40
0.0
 40
0.0
 40
0.0
 40
1.0
 40
1.0
 40
1.0
 40
1.0
 10
31.9772
 20
0.1764
 30
0.0
 10
31.9772
 20
0.1764
 30
0.0
 10
31.9772
 20
-7.9013
 30
0.0
 10
31.9772
 20
-7.9013
 30
0.0
  0
SPLINE
  5
9B
330
1F
100
AcDbEntity
  8
Vrstva 1
 62
   250
370
    30
100
AcDbSpline
210
0.0
220
0.0
230
1.0
 70
     8
 71
     3
 72
     8
 73
     4
 74
     0
 42
0.0000000001
 43
0.0000000001
 40
0.0
 40
0.0
 40
0.0
 40
0.0
 40
1.0
 40
1.0
 40
1.0
 40
1.0
 10
29.7816
 20
-0.9638
 30
0.0
 10
29.9863
 20
-0.8922
 30
0.0
 10
29.8572
 20
-0.5694
 30
0.0
 10
29.838
 20
-0.4528
 30
0.0
  0
SPLINE
  5
9C
330
1F
100
AcDbEntity
  8
Vrstva 1
 62
   250
370
    30
100
AcDbSpline
210
0.0
220
0.0
230
1.0
 70
     8
 71
     3
 72
    20
 73
    16
 74
     0
 42
0.0000000001
 43
0.0000000001
 40
0.0
 40
0.0
 40
0.0
 40
0.0
 40
0.2
 40
0.2
 40
0.2
 40
0.2
 40
0.4
 40
0.4
 40
0.4
 40
0.4
 40
0.6
 40
0.6
 40
0.6
 40
0.6
 40
1.0
 40
1.0
 40
1.0
 40
1.0
 10
29.838
 20
-0.4528
 30
0.0
 10
29.838
 20
-0.4528
 30
0.0
 10
29.8255
 20
-0.3772
 30
0.0
 10
29.8255
 20
-0.3772
 30
0.0
 10
29.8255
 20
-0.3772
 30
0.0
 10
29.8255
 20
-0.3772
 30
0.0
 10
29.7718
 20
-0.0502
 30
0.0
 10
29.7718
 20
-0.0502
 30
0.0
 10
29.7718
 20
-0.0502
 30
0.0
 10
29.7718
 20
-0.0502
 30
0.0
 10
29.7285
 20
0.2785
 30
0.0
 10
29.7285
 20
0.2785
 30
0.0
 10
29.7285
 20
0.2785
 30
0.0
 10
29.7285
 20
0.2785
 30
0.0
 10
29.0786
 20
5.2156
 30
0.0
 10
29.0786
 20
5.2156
 30
0.0
  0
SPLINE
  5
9D
330
1F
100
AcDbEntity
  8
Vrstva 1
 62
   250
370
    30
100
AcDbSpline
210
0.0
220
0.0
230
1.0
 70
     8
 71
     3
 72
     8
 73
     4
 74
     0
 42
0.0000000001
 43
0.0000000001
 40
0.0
 40
0.0
 40
0.0
 40
0.0
 40
1.0
 40
1.0
 40
1.0
 40
1.0
 10
29.0786
 20
5.2156
 30
0.0
 10
29.0498
 20
5.4338
 30
0.0
 10
29.0305
 20
5.6308
 30
0.0
 10
28.9619
 20
5.8372
 30
0.0
  0
SPLINE
  5
9E
330
1F
100
AcDbEntity
  8
Vrstva 1
 62
   250
370
    30
100
AcDbSpline
210
0.0
220
0.0
230
1.0
 70
     8
 71
     3
 72
    12
 73
     8
 74
     0
 42
0.0000000001
 43
0.0000000001
 40
0.0
 40
0.0
 40
0.0
 40
0.0
 40
0.3333333333333333
 40
0.3333333333333333
 40
0.3333333333333333
 40
0.3333333333333333
 40
1.0
 40
1.0
 40
1.0
 40
1.0
 10
28.6155
 20
6.6715
 30
0.0
 10
28.6002
 20
6.6689
 30
0.0
 10
28.5861
 20
6.6652
 30
0.0
 10
28.5724
 20
6.6574
 30
0.0
 10
28.5724
 20
6.6574
 30
0.0
 10
28.4347
 20
6.579
 30
0.0
 10
28.5788
 20
6.411
 30
0.0
 10
28.6373
 20
6.3388
 30
0.0
  0
SPLINE
  5
9F
330
1F
100
AcDbEntity
  8
Vrstva 1
 62
   250
370
    30
100
AcDbSpline
210
0.0
220
0.0
230
1.0
 70
    24
 71
     3
 72
     8
 73
     4
 74
     0
 42
0.0000000001
 43
0.0000000001
 40
0.0
 40
0.0
 40
0.0
 40
0.0
 40
1.0
 40
1.0
 40
1.0
 40
1.0
 10
28.6373
 20
6.3388
 30
0.0
 10
28.6373
 20
6.3388
 30
0.0
 10
28.7649
 20
6.1881
 30
0.0
 10
28.7649
 20
6.1881
 30
0.0
  0
SPLINE
  5
A0
330
1F
100
AcDbEntity
  8
Vrstva 1
 62
   250
370
    30
100
AcDbSpline
210
0.0
220
0.0
230
1.0
 70
     8
 71
     3
 72
     8
 73
     4
 74
     0
 42
0.0000000001
 43
0.0000000001
 40
0.0
 40
0.0
 40
0.0
 40
0.0
 40
1.0
 40
1.0
 40
1.0
 40
1.0
 10
28.7649
 20
6.1881
 30
0.0
 10
28.7955
 20
6.15
 30
0.0
 10
28.8546
 20
6.064
 30
0.0
 10
28.8768
 20
6.0201
 30
0.0
  0
SPLINE
  5
A1
330
1F
100
AcDbEntity
  8
Vrstva 1
 62
   250
370
    30
100
AcDbSpline
210
0.0
220
0.0
230
1.0
 70
    24
 71
     3
 72
     8
 73
     4
 74
     0
 42
0.0000000001
 43
0.0000000001
 40
0.0
 40
0.0
 40
0.0
 40
0.0
 40
1.0
 40
1.0
 40
1.0
 40
1.0
 10
28.8768
 20
6.0201
 30
0.0
 10
28.8768
 20
6.0201
 30
0.0
 10
28.9661
 20
5.8245
 30
0.0
 10
28.9661
 20
5.8245
 30
0.0
  0
SPLINE
  5
A2
330
1F
100
AcDbEntity
  8
Vrstva 1
 62
   250
370
    30
100
AcDbSpline
210
0.0
220
0.0
230
1.0
 70
     8
 71
     3
 72
    12
 73
     8
 74
     0
 42
0.0000000001
 43
0.0000000001
 40
0.0
 40
0.0
 40
0.0
 40
0.0
 40
0.3333333333333333
 40
0.3333333333333333
 40
0.3333333333333333
 40
0.3333333333333333
 40
1.0
 40
1.0
 40
1.0
 40
1.0
 10
29.7644
 20
-0.9685
 30
0.0
 10
29.7644
 20
-0.9685
 30
0.0
 10
29.7438
 20
-0.9718
 30
0.0
 10
29.7438
 20
-0.9718
 30
0.0
 10
29.7438
 20
-0.9718
 30
0.0
 10
29.7438
 20
-0.9718
 30
0.0
 10
29.4302
 20
-1.0011
 30
0.0
 10
29.4302
 20
-1.0011
 30
0.0
  0
SPLINE
  5
A3
330
1F
100
AcDbEntity
  8
Vrstva 1
 62
   250
370
    30
100
AcDbSpline
210
0.0
220
0.0
230
1.0
 70
     8
 71
     3
 72
     8
 73
     4
 74
     0
 42
0.0000000001
 43
0.0000000001
 40
0.0
 40
0.0
 40
0.0
 40
0.0
 40
1.0
 40
1.0
 40
1.0
 40
1.0
 10
29.4302
 20
-1.0011
 30
0.0
 10
29.2249
 20
-1.0204
 30
0.0
 10
29.0116
 20
-0.9947
 30
0.0
 10
28.8764
 20
-1.1698
 30
0.0
  0
SPLINE
  5
A4
330
1F
100
AcDbEntity
  8
Vrstva 1
 62
   250
370
    30
100
AcDbSpline
210
0.0
220
0.0
230
1.0
 70
    24
 71
     3
 72
     8
 73
     4
 74
     0
 42
0.0000000001
 43
0.0000000001
 40
0.0
 40
0.0
 40
0.0
 40
0.0
 40
1.0
 40
1.0
 40
1.0
 40
1.0
 10
29.9389
 20
-3.5238
 30
0.0
 10
29.9389
 20
-3.5238
 30
0.0
 10
29.6922
 20
-3.5215
 30
0.0
 10
29.6922
 20
-3.5215
 30
0.0
  0
SPLINE
  5
A5
330
1F
100
AcDbEntity
  8
Vrstva 1
 62
   250
370
    30
100
AcDbSpline
210
0.0
220
0.0
230
1.0
 70
     8
 71
     3
 72
    12
 73
     8
 74
     0
 42
0.0000000001
 43
0.0000000001
 40
0.0
 40
0.0
 40
0.0
 40
0.0
 40
0.3333333333333333
 40
0.3333333333333333
 40
0.3333333333333333
 40
0.3333333333333333
 40
1.0
 40
1.0
 40
1.0
 40
1.0
 10
29.6922
 20
-3.5215
 30
0.0
 10
29.4983
 20
-3.5198
 30
0.0
 10
29.2585
 20
-3.5505
 30
0.0
 10
29.1551
 20
-3.3426
 30
0.0
 10
29.1551
 20
-3.3426
 30
0.0
 10
29.1393
 20
-3.3104
 30
0.0
 10
29.1272
 20
-3.2773
 30
0.0
 10
29.1213
 20
-3.2418
 30
0.0
  0
SPLINE
  5
A6
330
1F
100
AcDbEntity
  8
Vrstva 1
 62
   250
370
    30
100
AcDbSpline
210
0.0
220
0.0
230
1.0
 70
     8
 71
     3
 72
    12
 73
     8
 74
     0
 42
0.0000000001
 43
0.0000000001
 40
0.0
 40
0.0
 40
0.0
 40
0.0
 40
0.3333333333333333
 40
0.3333333333333333
 40
0.3333333333333333
 40
0.3333333333333333
 40
1.0
 40
1.0
 40
1.0
 40
1.0
 10
29.1213
 20
-3.2418
 30
0.0
 10
29.1213
 20
-3.2418
 30
0.0
 10
29.0674
 20
-2.9147
 30
0.0
 10
29.0674
 20
-2.9147
 30
0.0
 10
29.0674
 20
-2.9147
 30
0.0
 10
29.0674
 20
-2.9147
 30
0.0
 10
28.8742
 20
-1.7415
 30
0.0
 10
28.8742
 20
-1.7415
 30
0.0
  0
SPLINE
  5
A7
330
1F
100
AcDbEntity
  8
Vrstva 1
 62
   250
370
    30
100
AcDbSpline
210
0.0
220
0.0
230
1.0
 70
     8
 71
     3
 72
    12
 73
     8
 74
     0
 42
0.0000000001
 43
0.0000000001
 40
0.0
 40
0.0
 40
0.0
 40
0.0
 40
0.3333333333333333
 40
0.3333333333333333
 40
0.3333333333333333
 40
0.3333333333333333
 40
1.0
 40
1.0
 40
1.0
 40
1.0
 10
28.8742
 20
-1.7415
 30
0.0
 10
28.8409
 20
-1.5388
 30
0.0
 10
28.7439
 20
-1.2834
 30
0.0
 10
28.9217
 20
-1.1179
 30
0.0
 10
28.9217
 20
-1.1179
 30
0.0
 10
28.9482
 20
-1.0931
 30
0.0
 10
28.9776
 20
-1.0754
 30
0.0
 10
29.0096
 20
-1.0591
 30
0.0
  0
SPLINE
  5
A8
330
1F
100
AcDbEntity
  8
Vrstva 1
 62
   250
370
    30
100
AcDbSpline
210
0.0
220
0.0
230
1.0
 70
     8
 71
     3
 72
    12
 73
     8
 74
     0
 42
0.0000000001
 43
0.0000000001
 40
0.0
 40
0.0
 40
0.0
 40
0.0
 40
0.3333333333333333
 40
0.3333333333333333
 40
0.3333333333333333
 40
0.3333333333333333
 40
1.0
 40
1.0
 40
1.0
 40
1.0
 10
28.644
 20
7.9888
 30
0.0
 10
28.5857
 20
7.914
 30
0.0
 10
28.4303
 20
7.7425
 30
0.0
 10
28.5724
 20
7.6617
 30
0.0
 10
28.5724
 20
7.6617
 30
0.0
 10
28.5861
 20
7.6539
 30
0.0
 10
28.6002
 20
7.6501
 30
0.0
 10
28.6155
 20
7.6476
 30
0.0
  0
SPLINE
  5
A9
330
1F
100
AcDbEntity
  8
Vrstva 1
 62
   250
370
    30
100
AcDbSpline
210
0.0
220
0.0
230
1.0
 70
     8
 71
     3
 72
     8
 73
     4
 74
     0
 42
0.0000000001
 43
0.0000000001
 40
0.0
 40
0.0
 40
0.0
 40
0.0
 40
1.0
 40
1.0
 40
1.0
 40
1.0
 10
30.3839
 20
8.2822
 30
0.0
 10
30.1915
 20
8.4017
 30
0.0
 10
29.9779
 20
8.467
 30
0.0
 10
29.7526
 20
8.4833
 30
0.0
  0
SPLINE
  5
AA
330
1F
100
AcDbEntity
  8
Vrstva 1
 62
   250
370
    30
100
AcDbSpline
210
0.0
220
0.0
230
1.0
 70
     8
 71
     3
 72
     8
 73
     4
 74
     0
 42
0.0000000001
 43
0.0000000001
 40
0.0
 40
0.0
 40
0.0
 40
0.0
 40
1.0
 40
1.0
 40
1.0
 40
1.0
 10
29.6718
 20
8.4849
 30
0.0
 10
29.7216
 20
8.4849
 30
0.0
 10
29.7684
 20
8.4821
 30
0.0
 10
29.8184
 20
8.4781
 30
0.0
  0
SPLINE
  5
AB
330
1F
100
AcDbEntity
  8
Vrstva 1
 62
   250
370
    30
100
AcDbSpline
210
0.0
220
0.0
230
1.0
 70
     8
 71
     3
 72
    12
 73
     8
 74
     0
 42
0.0000000001
 43
0.0000000001
 40
0.0
 40
0.0
 40
0.0
 40
0.0
 40
0.3333333333333333
 40
0.3333333333333333
 40
0.3333333333333333
 40
0.3333333333333333
 40
1.0
 40
1.0
 40
1.0
 40
1.0
 10
29.9525
 20
8.4568
 30
0.0
 10
29.9525
 20
8.4568
 30
0.0
 10
30.0535
 20
8.4314
 30
0.0
 10
30.0535
 20
8.4314
 30
0.0
 10
30.0535
 20
8.4314
 30
0.0
 10
30.0535
 20
8.4314
 30
0.0
 10
30.0985
 20
8.4166
 30
0.0
 10
30.0985
 20
8.4166
 30
0.0
  0
SPLINE
  5
AC
330
1F
100
AcDbEntity
  8
Vrstva 1
 62
   250
370
    30
100
AcDbSpline
210
0.0
220
0.0
230
1.0
 70
    24
 71
     3
 72
     8
 73
     4
 74
     0
 42
0.0000000001
 43
0.0000000001
 40
0.0
 40
0.0
 40
0.0
 40
0.0
 40
1.0
 40
1.0
 40
1.0
 40
1.0
 10
29.7501
 20
8.4835
 30
0.0
 10
29.7501
 20
8.4835
 30
0.0
 10
29.8515
 20
8.4741
 30
0.0
 10
29.8515
 20
8.4741
 30
0.0
  0
SPLINE
  5
AD
330
1F
100
AcDbEntity
  8
Vrstva 1
 62
   250
370
    30
100
AcDbSpline
210
0.0
220
0.0
230
1.0
 70
     8
 71
     3
 72
     8
 73
     4
 74
     0
 42
0.0000000001
 43
0.0000000001
 40
0.0
 40
0.0
 40
0.0
 40
0.0
 40
1.0
 40
1.0
 40
1.0
 40
1.0
 10
29.8773
 20
8.4697
 30
0.0
 10
29.897
 20
8.4663
 30
0.0
 10
29.9165
 20
8.4641
 30
0.0
 10
29.9361
 20
8.4596
 30
0.0
  0
SPLINE
  5
AE
330
1F
100
AcDbEntity
  8
Vrstva 1
 62
   250
370
    30
100
AcDbSpline
210
0.0
220
0.0
230
1.0
 70
    24
 71
     3
 72
     8
 73
     4
 74
     0
 42
0.0000000001
 43
0.0000000001
 40
0.0
 40
0.0
 40
0.0
 40
0.0
 40
1.0
 40
1.0
 40
1.0
 40
1.0
 10
29.6212
 20
8.484
 30
0.0
 10
29.6212
 20
8.484
 30
0.0
 10
29.5848
 20
8.4813
 30
0.0
 10
29.5848
 20
8.4813
 30
0.0
  0
SPLINE
  5
AF
330
1F
100
AcDbEntity
  8
Vrstva 1
 62
   250
370
    30
100
AcDbSpline
210
0.0
220
0.0
230
1.0
 70
     8
 71
     3
 72
    12
 73
     8
 74
     0
 42
0.0000000001
 43
0.0000000001
 40
0.0
 40
0.0
 40
0.0
 40
0.0
 40
0.3333333333333333
 40
0.3333333333333333
 40
0.3333333333333333
 40
0.3333333333333333
 40
1.0
 40
1.0
 40
1.0
 40
1.0
 10
29.538
 20
8.478
 30
0.0
 10
29.538
 20
8.478
 30
0.0
 10
29.435
 20
8.4629
 30
0.0
 10
29.435
 20
8.4629
 30
0.0
 10
29.435
 20
8.4629
 30
0.0
 10
29.435
 20
8.4629
 30
0.0
 10
29.4237
 20
8.4604
 30
0.0
 10
29.4237
 20
8.4604
 30
0.0
  0
SPLINE
  5
B0
330
1F
100
AcDbEntity
  8
Vrstva 1
 62
   250
370
    30
100
AcDbSpline
210
0.0
220
0.0
230
1.0
 70
     8
 71
     3
 72
    12
 73
     8
 74
     0
 42
0.0000000001
 43
0.0000000001
 40
0.0
 40
0.0
 40
0.0
 40
0.0
 40
0.3333333333333333
 40
0.3333333333333333
 40
0.3333333333333333
 40
0.3333333333333333
 40
1.0
 40
1.0
 40
1.0
 40
1.0
 10
31.9764
 20
0.1758
 30
0.0
 10
31.9455
 20
0.2964
 30
0.0
 10
31.8314
 20
0.2594
 30
0.0
 10
31.7252
 20
0.2612
 30
0.0
 10
31.7252
 20
0.2612
 30
0.0
 10
31.7252
 20
0.2612
 30
0.0
 10
31.6352
 20
0.2629
 30
0.0
 10
31.5998
 20
0.2634
 30
0.0
  0
SPLINE
  5
B1
330
1F
100
AcDbEntity
  8
Vrstva 1
 62
   250
370
    30
100
AcDbSpline
210
0.0
220
0.0
230
1.0
 70
     8
 71
     3
 72
    12
 73
     8
 74
     0
 42
0.0000000001
 43
0.0000000001
 40
0.0
 40
0.0
 40
0.0
 40
0.0
 40
0.3333333333333333
 40
0.3333333333333333
 40
0.3333333333333333
 40
0.3333333333333333
 40
1.0
 40
1.0
 40
1.0
 40
1.0
 10
31.5998
 20
-7.9883
 30
0.0
 10
31.6424
 20
-7.9876
 30
0.0
 10
31.7163
 20
-7.9864
 30
0.0
 10
31.7163
 20
-7.9864
 30
0.0
 10
31.7163
 20
-7.9864
 30
0.0
 10
31.8222
 20
-7.9845
 30
0.0
 10
31.9472
 20
-8.0244
 30
0.0
 10
31.9776
 20
-7.9013
 30
0.0
  0
SPLINE
  5
B2
330
1F
100
AcDbEntity
  8
Vrstva 1
 62
   250
370
    30
100
AcDbSpline
210
0.0
220
0.0
230
1.0
 70
    24
 71
     3
 72
     8
 73
     4
 74
     0
 42
0.0000000001
 43
0.0000000001
 40
0.0
 40
0.0
 40
0.0
 40
0.0
 40
1.0
 40
1.0
 40
1.0
 40
1.0
 10
28.9619
 20
5.8372
 30
0.0
 10
28.9619
 20
5.8372
 30
0.0
 10
28.8768
 20
6.0201
 30
0.0
 10
28.8768
 20
6.0201
 30
0.0
  0
SPLINE
  5
B3
330
1F
100
AcDbEntity
  8
Vrstva 1
 62
   250
370
    30
100
AcDbSpline
210
0.0
220
0.0
230
1.0
 70
    24
 71
     3
 72
     8
 73
     4
 74
     0
 42
0.0000000001
 43
0.0000000001
 40
0.0
 40
0.0
 40
0.0
 40
0.0
 40
1.0
 40
1.0
 40
1.0
 40
1.0
 10
29.374
 20
2.9706
 30
0.0
 10
29.374
 20
2.9706
 30
0.0
 10
29.3677
 20
3.0193
 30
0.0
 10
29.3677
 20
3.0193
 30
0.0
  0
SPLINE
  5
B4
330
1F
100
AcDbEntity
  8
Vrstva 1
 62
   250
370
    30
100
AcDbSpline
210
0.0
220
0.0
230
1.0
 70
    24
 71
     3
 72
     8
 73
     4
 74
     0
 42
0.0000000001
 43
0.0000000001
 40
0.0
 40
0.0
 40
0.0
 40
0.0
 40
1.0
 40
1.0
 40
1.0
 40
1.0
 10
28.725
 20
8.0808
 30
0.0
 10
28.725
 20
8.0808
 30
0.0
 10
28.7212
 20
8.077
 30
0.0
 10
28.7212
 20
8.077
 30
0.0
  0
SPLINE
  5
B5
330
1F
100
AcDbEntity
  8
Vrstva 1
 62
   250
370
    30
100
AcDbSpline
210
0.0
220
0.0
230
1.0
 70
    24
 71
     3
 72
     8
 73
     4
 74
     0
 42
0.0000000001
 43
0.0000000001
 40
0.0
 40
0.0
 40
0.0
 40
0.0
 40
1.0
 40
1.0
 40
1.0
 40
1.0
 10
29.9813
 20
8.45
 30
0.0
 10
29.9813
 20
8.45
 30
0.0
 10
29.9912
 20
8.4479
 30
0.0
 10
29.9912
 20
8.4479
 30
0.0
  0
SPLINE
  5
B6
330
1F
100
AcDbEntity
  8
Vrstva 1
 62
   250
370
    30
100
AcDbSpline
210
0.0
220
0.0
230
1.0
 70
    24
 71
     3
 72
     8
 73
     4
 74
     0
 42
0.0000000001
 43
0.0000000001
 40
0.0
 40
0.0
 40
0.0
 40
0.0
 40
1.0
 40
1.0
 40
1.0
 40
1.0
 10
29.999
 20
8.4461
 30
0.0
 10
29.999
 20
8.4461
 30
0.0
 10
30.0163
 20
8.4416
 30
0.0
 10
30.0163
 20
8.4416
 30
0.0
  0
SPLINE
  5
B7
330
1F
100
AcDbEntity
  8
Vrstva 1
 62
   250
370
    30
100
AcDbSpline
210
0.0
220
0.0
230
1.0
 70
    24
 71
     3
 72
     8
 73
     4
 74
     0
 42
0.0000000001
 43
0.0000000001
 40
0.0
 40
0.0
 40
0.0
 40
0.0
 40
1.0
 40
1.0
 40
1.0
 40
1.0
 10
28.6737
 20
8.0232
 30
0.0
 10
28.6737
 20
8.0232
 30
0.0
 10
28.679
 20
8.0293
 30
0.0
 10
28.679
 20
8.0293
 30
0.0
  0
SPLINE
  5
B8
330
1F
100
AcDbEntity
  8
Vrstva 1
 62
   250
370
    30
100
AcDbSpline
210
0.0
220
0.0
230
1.0
 70
    24
 71
     3
 72
     8
 73
     4
 74
     0
 42
0.0000000001
 43
0.0000000001
 40
0.0
 40
0.0
 40
0.0
 40
0.0
 40
1.0
 40
1.0
 40
1.0
 40
1.0
 10
28.6762
 20
8.0261
 30
0.0
 10
28.6762
 20
8.0261
 30
0.0
 10
28.6525
 20
7.9994
 30
0.0
 10
28.6525
 20
7.9994
 30
0.0
  0
SPLINE
  5
B9
330
1F
100
AcDbEntity
  8
Vrstva 1
 62
   250
370
    30
100
AcDbSpline
210
0.0
220
0.0
230
1.0
 70
    24
 71
     3
 72
     8
 73
     4
 74
     0
 42
0.0000000001
 43
0.0000000001
 40
0.0
 40
0.0
 40
0.0
 40
0.0
 40
1.0
 40
1.0
 40
1.0
 40
1.0
 10
29.2471
 20
8.4128
 30
0.0
 10
29.2471
 20
8.4128
 30
0.0
 10
29.2594
 20
8.4175
 30
0.0
 10
29.2594
 20
8.4175
 30
0.0
  0
SPLINE
  5
BA
330
1F
100
AcDbEntity
  8
Vrstva 1
 62
   250
370
    30
100
AcDbSpline
210
0.0
220
0.0
230
1.0
 70
    24
 71
     3
 72
     8
 73
     4
 74
     0
 42
0.0000000001
 43
0.0000000001
 40
0.0
 40
0.0
 40
0.0
 40
0.0
 40
1.0
 40
1.0
 40
1.0
 40
1.0
 10
29.7878
 20
8.481
 30
0.0
 10
29.7878
 20
8.481
 30
0.0
 10
29.7978
 20
8.4797
 30
0.0
 10
29.7978
 20
8.4797
 30
0.0
  0
SPLINE
  5
BB
330
1F
100
AcDbEntity
  8
Vrstva 1
 62
   250
370
    30
100
AcDbSpline
210
0.0
220
0.0
230
1.0
 70
    24
 71
     3
 72
     8
 73
     4
 74
     0
 42
0.0000000001
 43
0.0000000001
 40
0.0
 40
0.0
 40
0.0
 40
0.0
 40
1.0
 40
1.0
 40
1.0
 40
1.0
 10
29.8043
 20
8.4793
 30
0.0
 10
29.8043
 20
8.4793
 30
0.0
 10
29.8122
 20
8.4787
 30
0.0
 10
29.8122
 20
8.4787
 30
0.0
  0
SPLINE
  5
BC
330
1F
100
AcDbEntity
  8
Vrstva 1
 62
   250
370
    30
100
AcDbSpline
210
0.0
220
0.0
230
1.0
 70
    24
 71
     3
 72
     8
 73
     4
 74
     0
 42
0.0000000001
 43
0.0000000001
 40
0.0
 40
0.0
 40
0.0
 40
0.0
 40
1.0
 40
1.0
 40
1.0
 40
1.0
 10
29.0812
 20
8.3429
 30
0.0
 10
29.0812
 20
8.3429
 30
0.0
 10
29.1182
 20
8.3612
 30
0.0
 10
29.1182
 20
8.3612
 30
0.0
  0
SPLINE
  5
BD
330
1F
100
AcDbEntity
  8
Vrstva 1
 62
   250
370
    30
100
AcDbSpline
210
0.0
220
0.0
230
1.0
 70
    24
 71
     3
 72
     8
 73
     4
 74
     0
 42
0.0000000001
 43
0.0000000001
 40
0.0
 40
0.0
 40
0.0
 40
0.0
 40
1.0
 40
1.0
 40
1.0
 40
1.0
 10
28.7184
 20
8.0737
 30
0.0
 10
28.7184
 20
8.0737
 30
0.0
 10
28.7212
 20
8.077
 30
0.0
 10
28.7212
 20
8.077
 30
0.0
  0
SPLINE
  5
BE
330
1F
100
AcDbEntity
  8
Vrstva 1
 62
   250
370
    30
100
AcDbSpline
210
0.0
220
0.0
230
1.0
 70
    24
 71
     3
 72
     8
 73
     4
 74
     0
 42
0.0000000001
 43
0.0000000001
 40
0.0
 40
0.0
 40
0.0
 40
0.0
 40
1.0
 40
1.0
 40
1.0
 40
1.0
 10
28.7197
 20
8.075
 30
0.0
 10
28.7197
 20
8.075
 30
0.0
 10
28.7238
 20
8.0796
 30
0.0
 10
28.7238
 20
8.0796
 30
0.0
  0
SPLINE
  5
BF
330
1F
100
AcDbEntity
  8
Vrstva 1
 62
   250
370
    30
100
AcDbSpline
210
0.0
220
0.0
230
1.0
 70
    24
 71
     3
 72
     8
 73
     4
 74
     0
 42
0.0000000001
 43
0.0000000001
 40
0.0
 40
0.0
 40
0.0
 40
0.0
 40
1.0
 40
1.0
 40
1.0
 40
1.0
 10
28.7493
 20
8.1041
 30
0.0
 10
28.7493
 20
8.1041
 30
0.0
 10
28.7256
 20
8.0813
 30
0.0
 10
28.7256
 20
8.0813
 30
0.0
  0
SPLINE
  5
C0
330
1F
100
AcDbEntity
  8
Vrstva 1
 62
   250
370
    30
100
AcDbSpline
210
0.0
220
0.0
230
1.0
 70
    24
 71
     3
 72
     8
 73
     4
 74
     0
 42
0.0000000001
 43
0.0000000001
 40
0.0
 40
0.0
 40
0.0
 40
0.0
 40
1.0
 40
1.0
 40
1.0
 40
1.0
 10
28.9625
 20
8.2751
 30
0.0
 10
28.9625
 20
8.2751
 30
0.0
 10
28.9697
 20
8.28
 30
0.0
 10
28.9697
 20
8.28
 30
0.0
  0
SPLINE
  5
C1
330
1F
100
AcDbEntity
  8
Vrstva 1
 62
   250
370
    30
100
AcDbSpline
210
0.0
220
0.0
230
1.0
 70
    24
 71
     3
 72
     8
 73
     4
 74
     0
 42
0.0000000001
 43
0.0000000001
 40
0.0
 40
0.0
 40
0.0
 40
0.0
 40
1.0
 40
1.0
 40
1.0
 40
1.0
 10
29.4674
 20
8.4686
 30
0.0
 10
29.4674
 20
8.4686
 30
0.0
 10
29.4834
 20
8.4705
 30
0.0
 10
29.4834
 20
8.4705
 30
0.0
  0
SPLINE
  5
C2
330
1F
100
AcDbEntity
  8
Vrstva 1
 62
   250
370
    30
100
AcDbSpline
210
0.0
220
0.0
230
1.0
 70
    24
 71
     3
 72
     8
 73
     4
 74
     0
 42
0.0000000001
 43
0.0000000001
 40
0.0
 40
0.0
 40
0.0
 40
0.0
 40
1.0
 40
1.0
 40
1.0
 40
1.0
 10
29.2923
 20
8.4273
 30
0.0
 10
29.2923
 20
8.4273
 30
0.0
 10
29.2838
 20
8.4249
 30
0.0
 10
29.2838
 20
8.4249
 30
0.0
  0
SPLINE
  5
C3
330
1F
100
AcDbEntity
  8
Vrstva 1
 62
   250
370
    30
100
AcDbSpline
210
0.0
220
0.0
230
1.0
 70
    24
 71
     3
 72
     8
 73
     4
 74
     0
 42
0.0000000001
 43
0.0000000001
 40
0.0
 40
0.0
 40
0.0
 40
0.0
 40
1.0
 40
1.0
 40
1.0
 40
1.0
 10
29.1459
 20
8.3733
 30
0.0
 10
29.1459
 20
8.3733
 30
0.0
 10
29.1721
 20
8.3849
 30
0.0
 10
29.1721
 20
8.3849
 30
0.0
  0
SPLINE
  5
C4
330
1F
100
AcDbEntity
  8
Vrstva 1
 62
   250
370
    30
100
AcDbSpline
210
0.0
220
0.0
230
1.0
 70
    24
 71
     3
 72
     8
 73
     4
 74
     0
 42
0.0000000001
 43
0.0000000001
 40
0.0
 40
0.0
 40
0.0
 40
0.0
 40
1.0
 40
1.0
 40
1.0
 40
1.0
 10
29.4761
 20
8.4697
 30
0.0
 10
29.4761
 20
8.4697
 30
0.0
 10
29.4864
 20
8.4714
 30
0.0
 10
29.4864
 20
8.4714
 30
0.0
  0
SPLINE
  5
C5
330
1F
100
AcDbEntity
  8
Vrstva 1
 62
   250
370
    30
100
AcDbSpline
210
0.0
220
0.0
230
1.0
 70
    24
 71
     3
 72
     8
 73
     4
 74
     0
 42
0.0000000001
 43
0.0000000001
 40
0.0
 40
0.0
 40
0.0
 40
0.0
 40
1.0
 40
1.0
 40
1.0
 40
1.0
 10
28.9144
 20
8.242
 30
0.0
 10
28.9144
 20
8.242
 30
0.0
 10
28.8885
 20
8.2243
 30
0.0
 10
28.8885
 20
8.2243
 30
0.0
  0
SPLINE
  5
C6
330
1F
100
AcDbEntity
  8
Vrstva 1
 62
   250
370
    30
100
AcDbSpline
210
0.0
220
0.0
230
1.0
 70
    24
 71
     3
 72
     8
 73
     4
 74
     0
 42
0.0000000001
 43
0.0000000001
 40
0.0
 40
0.0
 40
0.0
 40
0.0
 40
1.0
 40
1.0
 40
1.0
 40
1.0
 10
28.9821
 20
8.2877
 30
0.0
 10
28.9821
 20
8.2877
 30
0.0
 10
29.0022
 20
8.2991
 30
0.0
 10
29.0022
 20
8.2991
 30
0.0
  0
SPLINE
  5
C7
330
1F
100
AcDbEntity
  8
Vrstva 1
 62
   250
370
    30
100
AcDbSpline
210
0.0
220
0.0
230
1.0
 70
    24
 71
     3
 72
     8
 73
     4
 74
     0
 42
0.0000000001
 43
0.0000000001
 40
0.0
 40
0.0
 40
0.0
 40
0.0
 40
1.0
 40
1.0
 40
1.0
 40
1.0
 10
28.9655
 20
8.2768
 30
0.0
 10
28.9655
 20
8.2768
 30
0.0
 10
28.9756
 20
8.2838
 30
0.0
 10
28.9756
 20
8.2838
 30
0.0
  0
SPLINE
  5
C8
330
1F
100
AcDbEntity
  8
Vrstva 1
 62
   250
370
    30
100
AcDbSpline
210
0.0
220
0.0
230
1.0
 70
    24
 71
     3
 72
     8
 73
     4
 74
     0
 42
0.0000000001
 43
0.0000000001
 40
0.0
 40
0.0
 40
0.0
 40
0.0
 40
1.0
 40
1.0
 40
1.0
 40
1.0
 10
28.9693
 20
5.815
 30
0.0
 10
28.9693
 20
5.815
 30
0.0
 10
28.8833
 20
6.0058
 30
0.0
 10
28.8833
 20
6.0058
 30
0.0
  0
SPLINE
  5
C9
330
1F
100
AcDbEntity
  8
Vrstva 1
 62
   250
370
    30
100
AcDbSpline
210
0.0
220
0.0
230
1.0
 70
     8
 71
     3
 72
    20
 73
    16
 74
     0
 42
0.0000000001
 43
0.0000000001
 40
0.0
 40
0.0
 40
0.0
 40
0.0
 40
0.2
 40
0.2
 40
0.2
 40
0.2
 40
0.4
 40
0.4
 40
0.4
 40
0.4
 40
0.6
 40
0.6
 40
0.6
 40
0.6
 40
1.0
 40
1.0
 40
1.0
 40
1.0
 10
29.7505
 20
0.1069
 30
0.0
 10
29.7505
 20
0.1069
 30
0.0
 10
29.7493
 20
0.1201
 30
0.0
 10
29.7493
 20
0.1201
 30
0.0
 10
29.7493
 20
0.1201
 30
0.0
 10
29.7493
 20
0.1201
 30
0.0
 10
29.706
 20
0.4488
 30
0.0
 10
29.706
 20
0.4488
 30
0.0
 10
29.706
 20
0.4488
 30
0.0
 10
29.706
 20
0.4488
 30
0.0
 10
29.417
 20
2.6442
 30
0.0
 10
29.417
 20
2.6442
 30
0.0
 10
29.417
 20
2.6442
 30
0.0
 10
29.417
 20
2.6442
 30
0.0
 10
29.3737
 20
2.9729
 30
0.0
 10
29.3737
 20
2.9729
 30
0.0
  0
SPLINE
  5
CA
330
1F
100
AcDbEntity
  8
Vrstva 1
 62
   250
370
    30
100
AcDbSpline
210
0.0
220
0.0
230
1.0
 70
     8
 71
     3
 72
    20
 73
    16
 74
     0
 42
0.0000000001
 43
0.0000000001
 40
0.0
 40
0.0
 40
0.0
 40
0.0
 40
0.2
 40
0.2
 40
0.2
 40
0.2
 40
0.4
 40
0.4
 40
0.4
 40
0.4
 40
0.6
 40
0.6
 40
0.6
 40
0.6
 40
1.0
 40
1.0
 40
1.0
 40
1.0
 10
29.7496
 20
0.0794
 30
0.0
 10
29.7233
 20
-0.1249
 30
0.0
 10
29.4078
 20
-0.0845
 30
0.0
 10
29.2856
 20
-0.096
 30
0.0
 10
29.2856
 20
-0.096
 30
0.0
 10
29.076
 20
-0.1155
 30
0.0
 10
28.8189
 20
-0.0888
 30
0.0
 10
28.706
 20
-0.3049
 30
0.0
 10
28.706
 20
-0.3049
 30
0.0
 10
28.6918
 20
-0.3322
 30
0.0
 10
28.6819
 20
-0.362
 30
0.0
 10
28.6761
 20
-0.3921
 30
0.0
 10
28.6761
 20
-0.3921
 30
0.0
 10
28.6686
 20
-0.4308
 30
0.0
 10
28.668
 20
-0.4705
 30
0.0
 10
28.6744
 20
-0.5093
 30
0.0
  0
SPLINE
  5
CB
330
1F
100
AcDbEntity
  8
Vrstva 1
 62
   250
370
    30
100
AcDbSpline
210
0.0
220
0.0
230
1.0
 70
     8
 71
     3
 72
    16
 73
    12
 74
     0
 42
0.0000000001
 43
0.0000000001
 40
0.0
 40
0.0
 40
0.0
 40
0.0
 40
0.25
 40
0.25
 40
0.25
 40
0.25
 40
0.5
 40
0.5
 40
0.5
 40
0.5
 40
1.0
 40
1.0
 40
1.0
 40
1.0
 10
28.6744
 20
-0.5093
 30
0.0
 10
28.6744
 20
-0.5093
 30
0.0
 10
28.7282
 20
-0.8363
 30
0.0
 10
28.7282
 20
-0.8363
 30
0.0
 10
28.7282
 20
-0.8363
 30
0.0
 10
28.7282
 20
-0.8363
 30
0.0
 10
28.7625
 20
-1.045
 30
0.0
 10
28.7625
 20
-1.045
 30
0.0
 10
28.7625
 20
-1.045
 30
0.0
 10
28.7625
 20
-1.045
 30
0.0
 10
28.8164
 20
-1.372
 30
0.0
 10
28.8164
 20
-1.372
 30
0.0
  0
SPLINE
  5
CC
330
1F
100
AcDbEntity
  8
Vrstva 1
 62
   250
370
    30
100
AcDbSpline
210
0.0
220
0.0
230
1.0
 70
    24
 71
     3
 72
     8
 73
     4
 74
     0
 42
0.0000000001
 43
0.0000000001
 40
0.0
 40
0.0
 40
0.0
 40
0.0
 40
1.0
 40
1.0
 40
1.0
 40
1.0
 10
29.7493
 20
0.1201
 30
0.0
 10
29.7493
 20
0.1201
 30
0.0
 10
29.745
 20
0.0562
 30
0.0
 10
29.745
 20
0.0562
 30
0.0
  0
SPLINE
  5
CD
330
1F
100
AcDbEntity
  8
Vrstva 1
 62
   250
370
    30
100
AcDbSpline
210
0.0
220
0.0
230
1.0
 70
     8
 71
     3
 72
     8
 73
     4
 74
     0
 42
0.0000000001
 43
0.0000000001
 40
0.0
 40
0.0
 40
0.0
 40
0.0
 40
1.0
 40
1.0
 40
1.0
 40
1.0
 10
29.1421
 20
8.3719
 30
0.0
 10
29.1574
 20
8.3787
 30
0.0
 10
29.1727
 20
8.3851
 30
0.0
 10
29.1886
 20
8.391
 30
0.0
  0
SPLINE
  5
CE
330
1F
100
AcDbEntity
  8
Vrstva 1
 62
   250
370
    30
100
AcDbSpline
210
0.0
220
0.0
230
1.0
 70
     8
 71
     3
 72
     8
 73
     4
 74
     0
 42
0.0000000001
 43
0.0000000001
 40
0.0
 40
0.0
 40
0.0
 40
0.0
 40
1.0
 40
1.0
 40
1.0
 40
1.0
 10
29.7501
 20
8.4835
 30
0.0
 10
29.7714
 20
8.4821
 30
0.0
 10
29.7938
 20
8.4812
 30
0.0
 10
29.8152
 20
8.4783
 30
0.0
  0
SPLINE
  5
CF
330
1F
100
AcDbEntity
  8
Vrstva 1
 62
   250
370
    30
100
AcDbSpline
210
0.0
220
0.0
230
1.0
 70
     8
 71
     3
 72
     8
 73
     4
 74
     0
 42
0.0000000001
 43
0.0000000001
 40
0.0
 40
0.0
 40
0.0
 40
0.0
 40
1.0
 40
1.0
 40
1.0
 40
1.0
 10
29.5739
 20
8.4813
 30
0.0
 10
29.5838
 20
8.4821
 30
0.0
 10
29.5939
 20
8.4821
 30
0.0
 10
29.6039
 20
8.483
 30
0.0
  0
SPLINE
  5
D0
330
1F
100
AcDbEntity
  8
Vrstva 1
 62
   250
370
    30
100
AcDbSpline
210
0.0
220
0.0
230
1.0
 70
    24
 71
     3
 72
     8
 73
     4
 74
     0
 42
0.0000000001
 43
0.0000000001
 40
0.0
 40
0.0
 40
0.0
 40
0.0
 40
1.0
 40
1.0
 40
1.0
 40
1.0
 10
29.0624
 20
8.3336
 30
0.0
 10
29.0624
 20
8.3336
 30
0.0
 10
29.1182
 20
8.3612
 30
0.0
 10
29.1182
 20
8.3612
 30
0.0
  0
SPLINE
  5
D1
330
1F
100
AcDbEntity
  8
Vrstva 1
 62
   250
370
    30
100
AcDbSpline
210
0.0
220
0.0
230
1.0
 70
     8
 71
     3
 72
     8
 73
     4
 74
     0
 42
0.0000000001
 43
0.0000000001
 40
0.0
 40
0.0
 40
0.0
 40
0.0
 40
1.0
 40
1.0
 40
1.0
 40
1.0
 10
28.8736
 20
8.213
 30
0.0
 10
28.8879
 20
8.2241
 30
0.0
 10
28.9022
 20
8.2337
 30
0.0
 10
28.9173
 20
8.244
 30
0.0
  0
SPLINE
  5
D2
330
1F
100
AcDbEntity
  8
Vrstva 1
 62
   250
370
    30
100
AcDbSpline
210
0.0
220
0.0
230
1.0
 70
    24
 71
     3
 72
     8
 73
     4
 74
     0
 42
0.0000000001
 43
0.0000000001
 40
0.0
 40
0.0
 40
0.0
 40
0.0
 40
1.0
 40
1.0
 40
1.0
 40
1.0
 10
28.9697
 20
8.28
 30
0.0
 10
28.9697
 20
8.28
 30
0.0
 10
29.006
 20
8.3013
 30
0.0
 10
29.006
 20
8.3013
 30
0.0
  0
SPLINE
  5
D3
330
1F
100
AcDbEntity
  8
Vrstva 1
 62
   250
370
    30
100
AcDbSpline
210
0.0
220
0.0
230
1.0
 70
     8
 71
     3
 72
     8
 73
     4
 74
     0
 42
0.0000000001
 43
0.0000000001
 40
0.0
 40
0.0
 40
0.0
 40
0.0
 40
1.0
 40
1.0
 40
1.0
 40
1.0
 10
29.92
 20
8.4633
 30
0.0
 10
29.9059
 20
8.4659
 30
0.0
 10
29.8917
 20
8.4681
 30
0.0
 10
29.8775
 20
8.47
 30
0.0
  0
SPLINE
  5
D4
330
1F
100
AcDbEntity
  8
Vrstva 1
 62
   250
370
    30
100
AcDbSpline
210
0.0
220
0.0
230
1.0
 70
     8
 71
     3
 72
     8
 73
     4
 74
     0
 42
0.0000000001
 43
0.0000000001
 40
0.0
 40
0.0
 40
0.0
 40
0.0
 40
1.0
 40
1.0
 40
1.0
 40
1.0
 10
29.2552
 20
8.4152
 30
0.0
 10
29.2683
 20
8.4202
 30
0.0
 10
29.2814
 20
8.4244
 30
0.0
 10
29.2951
 20
8.4282
 30
0.0
  0
SPLINE
  5
D5
330
1F
100
AcDbEntity
  8
Vrstva 1
 62
   250
370
    30
100
AcDbSpline
210
0.0
220
0.0
230
1.0
 70
    24
 71
     3
 72
     8
 73
     4
 74
     0
 42
0.0000000001
 43
0.0000000001
 40
0.0
 40
0.0
 40
0.0
 40
0.0
 40
1.0
 40
1.0
 40
1.0
 40
1.0
 10
28.5869
 20
7.912
 30
0.0
 10
28.5869
 20
7.912
 30
0.0
 10
28.6399
 20
7.9834
 30
0.0
 10
28.6399
 20
7.9834
 30
0.0
  0
SPLINE
  5
D6
330
1F
100
AcDbEntity
  8
Vrstva 1
 62
   250
370
    30
100
AcDbSpline
210
0.0
220
0.0
230
1.0
 70
    24
 71
     3
 72
     8
 73
     4
 74
     0
 42
0.0000000001
 43
0.0000000001
 40
0.0
 40
0.0
 40
0.0
 40
0.0
 40
1.0
 40
1.0
 40
1.0
 40
1.0
 10
29.3914
 20
8.4536
 30
0.0
 10
29.3914
 20
8.4536
 30
0.0
 10
29.3624
 20
8.4472
 30
0.0
 10
29.3624
 20
8.4472
 30
0.0
  0
SPLINE
  5
D7
330
1F
100
AcDbEntity
  8
Vrstva 1
 62
   250
370
    30
100
AcDbSpline
210
0.0
220
0.0
230
1.0
 70
     8
 71
     3
 72
     8
 73
     4
 74
     0
 42
0.0000000001
 43
0.0000000001
 40
0.0
 40
0.0
 40
0.0
 40
0.0
 40
1.0
 40
1.0
 40
1.0
 40
1.0
 10
29.44
 20
8.4637
 30
0.0
 10
29.4596
 20
8.4672
 30
0.0
 10
29.4789
 20
8.4706
 30
0.0
 10
29.4986
 20
8.4728
 30
0.0
  0
SPLINE
  5
D8
330
1F
100
AcDbEntity
  8
Vrstva 1
 62
   250
370
    30
100
AcDbSpline
210
0.0
220
0.0
230
1.0
 70
     8
 71
     3
 72
     8
 73
     4
 74
     0
 42
0.0000000001
 43
0.0000000001
 40
0.0
 40
0.0
 40
0.0
 40
0.0
 40
1.0
 40
1.0
 40
1.0
 40
1.0
 10
30.1137
 20
8.412
 30
0.0
 10
30.095
 20
8.4185
 30
0.0
 10
30.0762
 20
8.4245
 30
0.0
 10
30.0573
 20
8.4301
 30
0.0
  0
SPLINE
  5
D9
330
1F
100
AcDbEntity
  8
Vrstva 1
 62
   250
370
    30
100
AcDbSpline
210
0.0
220
0.0
230
1.0
 70
     8
 71
     3
 72
     8
 73
     4
 74
     0
 42
0.0000000001
 43
0.0000000001
 40
0.0
 40
0.0
 40
0.0
 40
0.0
 40
1.0
 40
1.0
 40
1.0
 40
1.0
 10
28.8566
 20
8.1996
 30
0.0
 10
28.8367
 20
8.1841
 30
0.0
 10
28.8175
 20
8.168
 30
0.0
 10
28.7986
 20
8.1513
 30
0.0
  0
SPLINE
  5
DA
330
1F
100
AcDbEntity
  8
Vrstva 1
 62
   250
370
    30
100
AcDbSpline
210
0.0
220
0.0
230
1.0
 70
    24
 71
     3
 72
     8
 73
     4
 74
     0
 42
0.0000000001
 43
0.0000000001
 40
0.0
 40
0.0
 40
0.0
 40
0.0
 40
1.0
 40
1.0
 40
1.0
 40
1.0
 10
30.2212
 20
8.3693
 30
0.0
 10
30.2212
 20
8.3693
 30
0.0
 10
30.1889
 20
8.383
 30
0.0
 10
30.1889
 20
8.383
 30
0.0
  0
SPLINE
  5
DB
330
1F
100
AcDbEntity
  8
Vrstva 1
 62
   250
370
    30
100
AcDbSpline
210
0.0
220
0.0
230
1.0
 70
    24
 71
     3
 72
     8
 73
     4
 74
     0
 42
0.0000000001
 43
0.0000000001
 40
0.0
 40
0.0
 40
0.0
 40
0.0
 40
1.0
 40
1.0
 40
1.0
 40
1.0
 10
30.2913
 20
8.3352
 30
0.0
 10
30.2913
 20
8.3352
 30
0.0
 10
30.301
 20
8.3303
 30
0.0
 10
30.301
 20
8.3303
 30
0.0
  0
SPLINE
  5
DC
330
1F
100
AcDbEntity
  8
Vrstva 1
 62
   250
370
    30
100
AcDbSpline
210
0.0
220
0.0
230
1.0
 70
    24
 71
     3
 72
     8
 73
     4
 74
     0
 42
0.0000000001
 43
0.0000000001
 40
0.0
 40
0.0
 40
0.0
 40
0.0
 40
1.0
 40
1.0
 40
1.0
 40
1.0
 10
30.0085
 20
8.4435
 30
0.0
 10
30.0085
 20
8.4435
 30
0.0
 10
29.9839
 20
8.4494
 30
0.0
 10
29.9839
 20
8.4494
 30
0.0
  0
SPLINE
  5
DD
330
1F
100
AcDbEntity
  8
Vrstva 1
 62
   250
370
    30
100
AcDbSpline
210
0.0
220
0.0
230
1.0
 70
    24
 71
     3
 72
     8
 73
     4
 74
     0
 42
0.0000000001
 43
0.0000000001
 40
0.0
 40
0.0
 40
0.0
 40
0.0
 40
1.0
 40
1.0
 40
1.0
 40
1.0
 10
29.3505
 20
8.4438
 30
0.0
 10
29.3505
 20
8.4438
 30
0.0
 10
29.3737
 20
8.4497
 30
0.0
 10
29.3737
 20
8.4497
 30
0.0
  0
SPLINE
  5
DE
330
1F
100
AcDbEntity
  8
Vrstva 1
 62
   250
370
    30
100
AcDbSpline
210
0.0
220
0.0
230
1.0
 70
    24
 71
     3
 72
     8
 73
     4
 74
     0
 42
0.0000000001
 43
0.0000000001
 40
0.0
 40
0.0
 40
0.0
 40
0.0
 40
1.0
 40
1.0
 40
1.0
 40
1.0
 10
29.0546
 20
8.3291
 30
0.0
 10
29.0546
 20
8.3291
 30
0.0
 10
29.0697
 20
8.3372
 30
0.0
 10
29.0697
 20
8.3372
 30
0.0
  0
SPLINE
  5
DF
330
1F
100
AcDbEntity
  8
Vrstva 1
 62
   250
370
    30
100
AcDbSpline
210
0.0
220
0.0
230
1.0
 70
    24
 71
     3
 72
     8
 73
     4
 74
     0
 42
0.0000000001
 43
0.0000000001
 40
0.0
 40
0.0
 40
0.0
 40
0.0
 40
1.0
 40
1.0
 40
1.0
 40
1.0
 10
28.7943
 20
8.1472
 30
0.0
 10
28.7943
 20
8.1472
 30
0.0
 10
28.8435
 20
8.1894
 30
0.0
 10
28.8435
 20
8.1894
 30
0.0
  0
SPLINE
  5
E0
330
1F
100
AcDbEntity
  8
Vrstva 1
 62
   250
370
    30
100
AcDbSpline
210
0.0
220
0.0
230
1.0
 70
    24
 71
     3
 72
     8
 73
     4
 74
     0
 42
0.0000000001
 43
0.0000000001
 40
0.0
 40
0.0
 40
0.0
 40
0.0
 40
1.0
 40
1.0
 40
1.0
 40
1.0
 10
29.7505
 20
0.1069
 30
0.0
 10
29.7505
 20
0.1069
 30
0.0
 10
29.7496
 20
0.0794
 30
0.0
 10
29.7496
 20
0.0794
 30
0.0
  0
SPLINE
  5
E1
330
1F
100
AcDbEntity
  8
Vrstva 1
 62
   250
370
    30
100
AcDbSpline
210
0.0
220
0.0
230
1.0
 70
    24
 71
     3
 72
     8
 73
     4
 74
     0
 42
0.0000000001
 43
0.0000000001
 40
0.0
 40
0.0
 40
0.0
 40
0.0
 40
1.0
 40
1.0
 40
1.0
 40
1.0
 10
30.6233
 20
7.4177
 30
0.0
 10
30.6233
 20
7.4177
 30
0.0
 10
28.6501
 20
7.4521
 30
0.0
 10
28.6501
 20
7.4521
 30
0.0
  0
SPLINE
  5
E2
330
1F
100
AcDbEntity
  8
Vrstva 1
 62
   250
370
    30
100
AcDbSpline
210
0.0
220
0.0
230
1.0
 70
    24
 71
     3
 72
     8
 73
     4
 74
     0
 42
0.0000000001
 43
0.0000000001
 40
0.0
 40
0.0
 40
0.0
 40
0.0
 40
1.0
 40
1.0
 40
1.0
 40
1.0
 10
28.7278
 20
7.4507
 30
0.0
 10
28.7278
 20
7.4507
 30
0.0
 10
28.6501
 20
7.4521
 30
0.0
 10
28.6501
 20
7.4521
 30
0.0
  0
SPLINE
  5
E3
330
1F
100
AcDbEntity
  8
Vrstva 1
 62
   250
370
    30
100
AcDbSpline
210
0.0
220
0.0
230
1.0
 70
    24
 71
     3
 72
     8
 73
     4
 74
     0
 42
0.0000000001
 43
0.0000000001
 40
0.0
 40
0.0
 40
0.0
 40
0.0
 40
1.0
 40
1.0
 40
1.0
 40
1.0
 10
29.2146
 20
-6.871
 30
0.0
 10
29.2146
 20
-6.871
 30
0.0
 10
29.2621
 20
-6.871
 30
0.0
 10
29.2621
 20
-6.871
 30
0.0
  0
SPLINE
  5
E4
330
1F
100
AcDbEntity
  8
Vrstva 1
 62
   250
370
    30
100
AcDbSpline
210
0.0
220
0.0
230
1.0
 70
    24
 71
     3
 72
     8
 73
     4
 74
     0
 42
0.0000000001
 43
0.0000000001
 40
0.0
 40
0.0
 40
0.0
 40
0.0
 40
1.0
 40
1.0
 40
1.0
 40
1.0
 10
29.2146
 20
-6.8698
 30
0.0
 10
29.2146
 20
-6.8698
 30
0.0
 10
29.2143
 20
-6.8667
 30
0.0
 10
29.2143
 20
-6.8667
 30
0.0
  0
SPLINE
  5
E5
330
1F
100
AcDbEntity
  8
Vrstva 1
 62
   250
370
    30
100
AcDbSpline
210
0.0
220
0.0
230
1.0
 70
    24
 71
     3
 72
     8
 73
     4
 74
     0
 42
0.0000000001
 43
0.0000000001
 40
0.0
 40
0.0
 40
0.0
 40
0.0
 40
1.0
 40
1.0
 40
1.0
 40
1.0
 10
29.2134
 20
-6.8607
 30
0.0
 10
29.2134
 20
-6.8607
 30
0.0
 10
29.214
 20
-6.8637
 30
0.0
 10
29.214
 20
-6.8637
 30
0.0
  0
SPLINE
  5
E6
330
1F
100
AcDbEntity
  8
Vrstva 1
 62
   250
370
    30
100
AcDbSpline
210
0.0
220
0.0
230
1.0
 70
    24
 71
     3
 72
     8
 73
     4
 74
     0
 42
0.0000000001
 43
0.0000000001
 40
0.0
 40
0.0
 40
0.0
 40
0.0
 40
1.0
 40
1.0
 40
1.0
 40
1.0
 10
29.1767
 20
-6.8189
 30
0.0
 10
29.1767
 20
-6.8189
 30
0.0
 10
29.1784
 20
-6.8212
 30
0.0
 10
29.1784
 20
-6.8212
 30
0.0
  0
SPLINE
  5
E7
330
1F
100
AcDbEntity
  8
Vrstva 1
 62
   250
370
    30
100
AcDbSpline
210
0.0
220
0.0
230
1.0
 70
    24
 71
     3
 72
     8
 73
     4
 74
     0
 42
0.0000000001
 43
0.0000000001
 40
0.0
 40
0.0
 40
0.0
 40
0.0
 40
1.0
 40
1.0
 40
1.0
 40
1.0
 10
29.1665
 20
-6.7751
 30
0.0
 10
29.1665
 20
-6.7751
 30
0.0
 10
29.166
 20
-6.7718
 30
0.0
 10
29.166
 20
-6.7718
 30
0.0
  0
SPLINE
  5
E8
330
1F
100
AcDbEntity
  8
Vrstva 1
 62
   250
370
    30
100
AcDbSpline
210
0.0
220
0.0
230
1.0
 70
    24
 71
     3
 72
     8
 73
     4
 74
     0
 42
0.0000000001
 43
0.0000000001
 40
0.0
 40
0.0
 40
0.0
 40
0.0
 40
1.0
 40
1.0
 40
1.0
 40
1.0
 10
30.6233
 20
0.3454
 30
0.0
 10
30.6233
 20
0.3454
 30
0.0
 10
30.6232
 20
0.1411
 30
0.0
 10
30.6232
 20
0.1411
 30
0.0
  0
SPLINE
  5
E9
330
1F
100
AcDbEntity
  8
Vrstva 1
 62
   250
370
    30
100
AcDbSpline
210
0.0
220
0.0
230
1.0
 70
     8
 71
     3
 72
    24
 73
    20
 74
     0
 42
0.0000000001
 43
0.0000000001
 40
0.0
 40
0.0
 40
0.0
 40
0.0
 40
0.1666666666666667
 40
0.1666666666666667
 40
0.1666666666666667
 40
0.1666666666666667
 40
0.3333333333333333
 40
0.3333333333333333
 40
0.3333333333333333
 40
0.3333333333333333
 40
0.5
 40
0.5
 40
0.5
 40
0.5
 40
0.6666666666666666
 40
0.6666666666666666
 40
0.6666666666666666
 40
0.6666666666666666
 40
1.0
 40
1.0
 40
1.0
 40
1.0
 10
30.6233
 20
5.735
 30
0.0
 10
30.5733
 20
5.7412
 30
0.0
 10
30.5754
 20
5.7795
 30
0.0
 10
30.5536
 20
5.8228
 30
0.0
 10
30.5536
 20
5.8228
 30
0.0
 10
30.5254
 20
5.8796
 30
0.0
 10
30.4887
 20
5.9323
 30
0.0
 10
30.4455
 20
5.9788
 30
0.0
 10
30.4455
 20
5.9788
 30
0.0
 10
30.3216
 20
6.1118
 30
0.0
 10
30.1542
 20
6.1806
 30
0.0
 10
29.9746
 20
6.1897
 30
0.0
 10
29.9746
 20
6.1897
 30
0.0
 10
29.8547
 20
6.1888
 30
0.0
 10
29.7458
 20
6.1623
 30
0.0
 10
29.6394
 20
6.107
 30
0.0
 10
29.6394
 20
6.107
 30
0.0
 10
29.5245
 20
6.107
 30
0.0
 10
29.4136
 20
6.0935
 30
0.0
 10
29.3122
 20
6.1541
 30
0.0
  0
SPLINE
  5
EA
330
1F
100
AcDbEntity
  8
Vrstva 1
 62
   250
370
    30
100
AcDbSpline
210
0.0
220
0.0
230
1.0
 70
     8
 71
     3
 72
    16
 73
    12
 74
     0
 42
0.0000000001
 43
0.0000000001
 40
0.0
 40
0.0
 40
0.0
 40
0.0
 40
0.25
 40
0.25
 40
0.25
 40
0.25
 40
0.5
 40
0.5
 40
0.5
 40
0.5
 40
1.0
 40
1.0
 40
1.0
 40
1.0
 10
29.3122
 20
6.1541
 30
0.0
 10
29.3122
 20
6.1541
 30
0.0
 10
29.0375
 20
6.3185
 30
0.0
 10
29.0375
 20
6.3185
 30
0.0
 10
29.0375
 20
6.3185
 30
0.0
 10
29.0375
 20
6.3185
 30
0.0
 10
28.7625
 20
6.4829
 30
0.0
 10
28.7625
 20
6.4829
 30
0.0
 10
28.7625
 20
6.4829
 30
0.0
 10
28.7625
 20
6.4829
 30
0.0
 10
28.7385
 20
6.4988
 30
0.0
 10
28.7385
 20
6.4988
 30
0.0
  0
SPLINE
  5
EB
330
1F
100
AcDbEntity
  8
Vrstva 1
 62
   250
370
    30
100
AcDbSpline
210
0.0
220
0.0
230
1.0
 70
     8
 71
     3
 72
    12
 73
     8
 74
     0
 42
0.0000000001
 43
0.0000000001
 40
0.0
 40
0.0
 40
0.0
 40
0.0
 40
0.3333333333333333
 40
0.3333333333333333
 40
0.3333333333333333
 40
0.3333333333333333
 40
1.0
 40
1.0
 40
1.0
 40
1.0
 10
28.7385
 20
6.4988
 30
0.0
 10
28.6586
 20
6.5564
 30
0.0
 10
28.6063
 20
6.6504
 30
0.0
 10
28.6017
 20
6.749
 30
0.0
 10
28.6017
 20
6.749
 30
0.0
 10
28.6002
 20
6.7842
 30
0.0
 10
28.5883
 20
6.8471
 30
0.0
 10
28.6333
 20
6.8637
 30
0.0
  0
SPLINE
  5
EC
330
1F
100
AcDbEntity
  8
Vrstva 1
 62
   250
370
    30
100
AcDbSpline
210
0.0
220
0.0
230
1.0
 70
     8
 71
     3
 72
    20
 73
    16
 74
     0
 42
0.0000000001
 43
0.0000000001
 40
0.0
 40
0.0
 40
0.0
 40
0.0
 40
0.2
 40
0.2
 40
0.2
 40
0.2
 40
0.4
 40
0.4
 40
0.4
 40
0.4
 40
0.6
 40
0.6
 40
0.6
 40
0.6
 40
1.0
 40
1.0
 40
1.0
 40
1.0
 10
28.6333
 20
6.8637
 30
0.0
 10
28.6333
 20
6.8637
 30
0.0
 10
28.6501
 20
6.8669
 30
0.0
 10
28.6501
 20
6.8669
 30
0.0
 10
28.6501
 20
6.8669
 30
0.0
 10
28.6501
 20
6.8669
 30
0.0
 10
28.9815
 20
6.8727
 30
0.0
 10
28.9815
 20
6.8727
 30
0.0
 10
28.9815
 20
6.8727
 30
0.0
 10
28.9815
 20
6.8727
 30
0.0
 10
30.2919
 20
6.8955
 30
0.0
 10
30.2919
 20
6.8955
 30
0.0
 10
30.2919
 20
6.8955
 30
0.0
 10
30.2919
 20
6.8955
 30
0.0
 10
30.6233
 20
6.9014
 30
0.0
 10
30.6233
 20
6.9014
 30
0.0
  0
SPLINE
  5
ED
330
1F
100
AcDbEntity
  8
Vrstva 1
 62
   250
370
    30
100
AcDbSpline
210
0.0
220
0.0
230
1.0
 70
     8
 71
     3
 72
     8
 73
     4
 74
     0
 42
0.0000000001
 43
0.0000000001
 40
0.0
 40
0.0
 40
0.0
 40
0.0
 40
1.0
 40
1.0
 40
1.0
 40
1.0
 10
28.6067
 20
7.6117
 30
0.0
 10
28.5996
 20
7.5713
 30
0.0
 10
28.5872
 20
7.5123
 30
0.0
 10
28.6095
 20
7.4744
 30
0.0
  0
SPLINE
  5
EE
330
1F
100
AcDbEntity
  8
Vrstva 1
 62
   250
370
    30
100
AcDbSpline
210
0.0
220
0.0
230
1.0
 70
     8
 71
     3
 72
     8
 73
     4
 74
     0
 42
0.0000000001
 43
0.0000000001
 40
0.0
 40
0.0
 40
0.0
 40
0.0
 40
1.0
 40
1.0
 40
1.0
 40
1.0
 10
28.7251
 20
6.8769
 30
0.0
 10
28.7145
 20
6.9134
 30
0.0
 10
28.7063
 20
6.9501
 30
0.0
 10
28.6991
 20
6.9875
 30
0.0
  0
SPLINE
  5
EF
330
1F
100
AcDbEntity
  8
Vrstva 1
 62
   250
370
    30
100
AcDbSpline
210
0.0
220
0.0
230
1.0
 70
     8
 71
     3
 72
     8
 73
     4
 74
     0
 42
0.0000000001
 43
0.0000000001
 40
0.0
 40
0.0
 40
0.0
 40
0.0
 40
1.0
 40
1.0
 40
1.0
 40
1.0
 10
28.6161
 20
7.4664
 30
0.0
 10
28.6258
 20
7.4578
 30
0.0
 10
28.6355
 20
7.4536
 30
0.0
 10
28.6482
 20
7.4522
 30
0.0
  0
SPLINE
  5
F0
330
1F
100
AcDbEntity
  8
Vrstva 1
 62
   250
370
    30
100
AcDbSpline
210
0.0
220
0.0
230
1.0
 70
     8
 71
     3
 72
    24
 73
    20
 74
     0
 42
0.0000000001
 43
0.0000000001
 40
0.0
 40
0.0
 40
0.0
 40
0.0
 40
0.1666666666666667
 40
0.1666666666666667
 40
0.1666666666666667
 40
0.1666666666666667
 40
0.3333333333333333
 40
0.3333333333333333
 40
0.3333333333333333
 40
0.3333333333333333
 40
0.5
 40
0.5
 40
0.5
 40
0.5
 40
0.6666666666666666
 40
0.6666666666666666
 40
0.6666666666666666
 40
0.6666666666666666
 40
1.0
 40
1.0
 40
1.0
 40
1.0
 10
30.6233
 20
8.5841
 30
0.0
 10
30.5736
 20
8.5779
 30
0.0
 10
30.5752
 20
8.5394
 30
0.0
 10
30.5536
 20
8.4962
 30
0.0
 10
30.5536
 20
8.4962
 30
0.0
 10
30.5254
 20
8.4394
 30
0.0
 10
30.4887
 20
8.3867
 30
0.0
 10
30.4455
 20
8.3402
 30
0.0
 10
30.4455
 20
8.3402
 30
0.0
 10
30.3216
 20
8.2072
 30
0.0
 10
30.1542
 20
8.1385
 30
0.0
 10
29.9746
 20
8.1293
 30
0.0
 10
29.9746
 20
8.1293
 30
0.0
 10
29.8948
 20
8.1299
 30
0.0
 10
29.8176
 20
8.1397
 30
0.0
 10
29.742
 20
8.1661
 30
0.0
 10
29.742
 20
8.1661
 30
0.0
 10
29.7136
 20
8.176
 30
0.0
 10
29.6682
 20
8.2097
 30
0.0
 10
29.6394
 20
8.2119
 30
0.0
  0
SPLINE
  5
F1
330
1F
100
AcDbEntity
  8
Vrstva 1
 62
   250
370
    30
100
AcDbSpline
210
0.0
220
0.0
230
1.0
 70
    24
 71
     3
 72
     8
 73
     4
 74
     0
 42
0.0000000001
 43
0.0000000001
 40
0.0
 40
0.0
 40
0.0
 40
0.0
 40
1.0
 40
1.0
 40
1.0
 40
1.0
 10
29.6394
 20
8.2119
 30
0.0
 10
29.6394
 20
8.2119
 30
0.0
 10
29.4823
 20
8.2119
 30
0.0
 10
29.4823
 20
8.2119
 30
0.0
  0
SPLINE
  5
F2
330
1F
100
AcDbEntity
  8
Vrstva 1
 62
   250
370
    30
100
AcDbSpline
210
0.0
220
0.0
230
1.0
 70
     8
 71
     3
 72
     8
 73
     4
 74
     0
 42
0.0000000001
 43
0.0000000001
 40
0.0
 40
0.0
 40
0.0
 40
0.0
 40
1.0
 40
1.0
 40
1.0
 40
1.0
 10
29.4823
 20
8.2119
 30
0.0
 10
29.3157
 20
8.208
 30
0.0
 10
29.1681
 20
8.0788
 30
0.0
 10
29.0375
 20
8.0006
 30
0.0
  0
SPLINE
  5
F3
330
1F
100
AcDbEntity
  8
Vrstva 1
 62
   250
370
    30
100
AcDbSpline
210
0.0
220
0.0
230
1.0
 70
    24
 71
     3
 72
     8
 73
     4
 74
     0
 42
0.0000000001
 43
0.0000000001
 40
0.0
 40
0.0
 40
0.0
 40
0.0
 40
1.0
 40
1.0
 40
1.0
 40
1.0
 10
29.0375
 20
8.0006
 30
0.0
 10
29.0375
 20
8.0006
 30
0.0
 10
28.7625
 20
7.8361
 30
0.0
 10
28.7625
 20
7.8361
 30
0.0
  0
SPLINE
  5
F4
330
1F
100
AcDbEntity
  8
Vrstva 1
 62
   250
370
    30
100
AcDbSpline
210
0.0
220
0.0
230
1.0
 70
     8
 71
     3
 72
     8
 73
     4
 74
     0
 42
0.0000000001
 43
0.0000000001
 40
0.0
 40
0.0
 40
0.0
 40
0.0
 40
1.0
 40
1.0
 40
1.0
 40
1.0
 10
28.7625
 20
7.8361
 30
0.0
 10
28.7458
 20
7.8261
 30
0.0
 10
28.7317
 20
7.815
 30
0.0
 10
28.7165
 20
7.8029
 30
0.0
  0
SPLINE
  5
F5
330
1F
100
AcDbEntity
  8
Vrstva 1
 62
   250
370
    30
100
AcDbSpline
210
0.0
220
0.0
230
1.0
 70
     8
 71
     3
 72
     8
 73
     4
 74
     0
 42
0.0000000001
 43
0.0000000001
 40
0.0
 40
0.0
 40
0.0
 40
0.0
 40
1.0
 40
1.0
 40
1.0
 40
1.0
 10
28.6907
 20
7.2739
 30
0.0
 10
28.6978
 20
7.3309
 30
0.0
 10
28.7091
 20
7.3868
 30
0.0
 10
28.725
 20
7.4419
 30
0.0
  0
SPLINE
  5
F6
330
1F
100
AcDbEntity
  8
Vrstva 1
 62
   250
370
    30
100
AcDbSpline
210
0.0
220
0.0
230
1.0
 70
     8
 71
     3
 72
     8
 73
     4
 74
     0
 42
0.0000000001
 43
0.0000000001
 40
0.0
 40
0.0
 40
0.0
 40
0.0
 40
1.0
 40
1.0
 40
1.0
 40
1.0
 10
28.6909
 20
7.0442
 30
0.0
 10
28.6931
 20
7.0257
 30
0.0
 10
28.6958
 20
7.008
 30
0.0
 10
28.6988
 20
6.9894
 30
0.0
  0
SPLINE
  5
F7
330
1F
100
AcDbEntity
  8
Vrstva 1
 62
   250
370
    30
100
AcDbSpline
210
0.0
220
0.0
230
1.0
 70
    24
 71
     3
 72
     8
 73
     4
 74
     0
 42
0.0000000001
 43
0.0000000001
 40
0.0
 40
0.0
 40
0.0
 40
0.0
 40
1.0
 40
1.0
 40
1.0
 40
1.0
 10
28.6858
 20
7.1016
 30
0.0
 10
28.6858
 20
7.1016
 30
0.0
 10
28.6906
 20
7.0464
 30
0.0
 10
28.6906
 20
7.0464
 30
0.0
  0
SPLINE
  5
F8
330
1F
100
AcDbEntity
  8
Vrstva 1
 62
   250
370
    30
100
AcDbSpline
210
0.0
220
0.0
230
1.0
 70
     8
 71
     3
 72
     8
 73
     4
 74
     0
 42
0.0000000001
 43
0.0000000001
 40
0.0
 40
0.0
 40
0.0
 40
0.0
 40
1.0
 40
1.0
 40
1.0
 40
1.0
 10
28.6956
 20
7.7833
 30
0.0
 10
28.6558
 20
7.7419
 30
0.0
 10
28.6272
 20
7.6918
 30
0.0
 10
28.6123
 20
7.6362
 30
0.0
  0
SPLINE
  5
F9
330
1F
100
AcDbEntity
  8
Vrstva 1
 62
   250
370
    30
100
AcDbSpline
210
0.0
220
0.0
230
1.0
 70
    24
 71
     3
 72
     8
 73
     4
 74
     0
 42
0.0000000001
 43
0.0000000001
 40
0.0
 40
0.0
 40
0.0
 40
0.0
 40
1.0
 40
1.0
 40
1.0
 40
1.0
 10
28.6857
 20
7.217
 30
0.0
 10
28.6857
 20
7.217
 30
0.0
 10
28.6905
 20
7.2718
 30
0.0
 10
28.6905
 20
7.2718
 30
0.0
  0
SPLINE
  5
FA
330
1F
100
AcDbEntity
  8
Vrstva 1
 62
   250
370
    30
100
AcDbSpline
210
0.0
220
0.0
230
1.0
 70
    24
 71
     3
 72
     8
 73
     4
 74
     0
 42
0.0000000001
 43
0.0000000001
 40
0.0
 40
0.0
 40
0.0
 40
0.0
 40
1.0
 40
1.0
 40
1.0
 40
1.0
 10
28.6857
 20
7.1038
 30
0.0
 10
28.6857
 20
7.1038
 30
0.0
 10
28.6857
 20
7.2148
 30
0.0
 10
28.6857
 20
7.2148
 30
0.0
  0
SPLINE
  5
FB
330
1F
100
AcDbEntity
  8
Vrstva 1
 62
   250
370
    30
100
AcDbSpline
210
0.0
220
0.0
230
1.0
 70
     8
 71
     3
 72
     8
 73
     4
 74
     0
 42
0.0000000001
 43
0.0000000001
 40
0.0
 40
0.0
 40
0.0
 40
0.0
 40
1.0
 40
1.0
 40
1.0
 40
1.0
 10
28.7625
 20
6.4829
 30
0.0
 10
28.7453
 20
6.4939
 30
0.0
 10
28.7296
 20
6.5053
 30
0.0
 10
28.7139
 20
6.5184
 30
0.0
  0
SPLINE
  5
FC
330
1F
100
AcDbEntity
  8
Vrstva 1
 62
   250
370
    30
100
AcDbSpline
210
0.0
220
0.0
230
1.0
 70
     8
 71
     3
 72
     8
 73
     4
 74
     0
 42
0.0000000001
 43
0.0000000001
 40
0.0
 40
0.0
 40
0.0
 40
0.0
 40
1.0
 40
1.0
 40
1.0
 40
1.0
 10
28.6927
 20
7.2901
 30
0.0
 10
28.6822
 20
7.2027
 30
0.0
 10
28.6822
 20
7.1162
 30
0.0
 10
28.6927
 20
7.0289
 30
0.0
  0
SPLINE
  5
FD
330
1F
100
AcDbEntity
  8
Vrstva 1
 62
   250
370
    30
100
AcDbSpline
210
0.0
220
0.0
230
1.0
 70
    24
 71
     3
 72
     8
 73
     4
 74
     0
 42
0.0000000001
 43
0.0000000001
 40
0.0
 40
0.0
 40
0.0
 40
0.0
 40
1.0
 40
1.0
 40
1.0
 40
1.0
 10
28.7218
 20
6.8886
 30
0.0
 10
28.7218
 20
6.8886
 30
0.0
 10
28.7278
 20
6.8682
 30
0.0
 10
28.7278
 20
6.8682
 30
0.0
  0
SPLINE
  5
FE
330
1F
100
AcDbEntity
  8
Vrstva 1
 62
   250
370
    30
100
AcDbSpline
210
0.0
220
0.0
230
1.0
 70
     8
 71
     3
 72
     8
 73
     4
 74
     0
 42
0.0000000001
 43
0.0000000001
 40
0.0
 40
0.0
 40
0.0
 40
0.0
 40
1.0
 40
1.0
 40
1.0
 40
1.0
 10
28.6478
 20
7.4526
 30
0.0
 10
28.645
 20
7.4544
 30
0.0
 10
28.6435
 20
7.4563
 30
0.0
 10
28.6417
 20
7.4591
 30
0.0
  0
SPLINE
  5
FF
330
1F
100
AcDbEntity
  8
Vrstva 1
 62
   250
370
    30
100
AcDbSpline
210
0.0
220
0.0
230
1.0
 70
     8
 71
     3
 72
     8
 73
     4
 74
     0
 42
0.0000000001
 43
0.0000000001
 40
0.0
 40
0.0
 40
0.0
 40
0.0
 40
1.0
 40
1.0
 40
1.0
 40
1.0
 10
28.6453
 20
7.7169
 30
0.0
 10
28.6704
 20
7.7574
 30
0.0
 10
28.7002
 20
7.7916
 30
0.0
 10
28.7384
 20
7.8202
 30
0.0
  0
SPLINE
  5
100
330
1F
100
AcDbEntity
  8
Vrstva 1
 62
   250
370
    30
100
AcDbSpline
210
0.0
220
0.0
230
1.0
 70
    24
 71
     3
 72
     8
 73
     4
 74
     0
 42
0.0000000001
 43
0.0000000001
 40
0.0
 40
0.0
 40
0.0
 40
0.0
 40
1.0
 40
1.0
 40
1.0
 40
1.0
 10
28.7054
 20
7.3635
 30
0.0
 10
28.7054
 20
7.3635
 30
0.0
 10
28.6984
 20
7.3274
 30
0.0
 10
28.6984
 20
7.3274
 30
0.0
  0
SPLINE
  5
101
330
1F
100
AcDbEntity
  8
Vrstva 1
 62
   250
370
    30
100
AcDbSpline
210
0.0
220
0.0
230
1.0
 70
     8
 71
     3
 72
     8
 73
     4
 74
     0
 42
0.0000000001
 43
0.0000000001
 40
0.0
 40
0.0
 40
0.0
 40
0.0
 40
1.0
 40
1.0
 40
1.0
 40
1.0
 10
28.6931
 20
6.5382
 30
0.0
 10
28.6744
 20
6.5588
 30
0.0
 10
28.6589
 20
6.5801
 30
0.0
 10
28.6444
 20
6.6038
 30
0.0
  0
SPLINE
  5
102
330
1F
100
AcDbEntity
  8
Vrstva 1
 62
   250
370
    30
100
AcDbSpline
210
0.0
220
0.0
230
1.0
 70
    24
 71
     3
 72
     8
 73
     4
 74
     0
 42
0.0000000001
 43
0.0000000001
 40
0.0
 40
0.0
 40
0.0
 40
0.0
 40
1.0
 40
1.0
 40
1.0
 40
1.0
 10
28.7278
 20
7.4508
 30
0.0
 10
28.7278
 20
7.4508
 30
0.0
 10
28.7216
 20
7.4302
 30
0.0
 10
28.7216
 20
7.4302
 30
0.0
  0
SPLINE
  5
103
330
1F
100
AcDbEntity
  8
Vrstva 1
 62
   250
370
    30
100
AcDbSpline
210
0.0
220
0.0
230
1.0
 70
     8
 71
     3
 72
     8
 73
     4
 74
     0
 42
0.0000000001
 43
0.0000000001
 40
0.0
 40
0.0
 40
0.0
 40
0.0
 40
1.0
 40
1.0
 40
1.0
 40
1.0
 10
28.6937
 20
7.0218
 30
0.0
 10
28.6972
 20
6.9995
 30
0.0
 10
28.7008
 20
6.9773
 30
0.0
 10
28.7054
 20
6.9551
 30
0.0
  0
SPLINE
  5
104
330
1F
100
AcDbEntity
  8
Vrstva 1
 62
   250
370
    30
100
AcDbSpline
210
0.0
220
0.0
230
1.0
 70
     8
 71
     3
 72
     8
 73
     4
 74
     0
 42
0.0000000001
 43
0.0000000001
 40
0.0
 40
0.0
 40
0.0
 40
0.0
 40
1.0
 40
1.0
 40
1.0
 40
1.0
 10
28.6131
 20
7.6396
 30
0.0
 10
28.6211
 20
7.6663
 30
0.0
 10
28.6315
 20
7.6905
 30
0.0
 10
28.6444
 20
7.7152
 30
0.0
  0
SPLINE
  5
105
330
1F
100
AcDbEntity
  8
Vrstva 1
 62
   250
370
    30
100
AcDbSpline
210
0.0
220
0.0
230
1.0
 70
     8
 71
     3
 72
     8
 73
     4
 74
     0
 42
0.0000000001
 43
0.0000000001
 40
0.0
 40
0.0
 40
0.0
 40
0.0
 40
1.0
 40
1.0
 40
1.0
 40
1.0
 10
28.6123
 20
7.6362
 30
0.0
 10
28.6048
 20
7.6082
 30
0.0
 10
28.602
 20
7.5804
 30
0.0
 10
28.6014
 20
7.5516
 30
0.0
  0
SPLINE
  5
106
330
1F
100
AcDbEntity
  8
Vrstva 1
 62
   250
370
    30
100
AcDbSpline
210
0.0
220
0.0
230
1.0
 70
     8
 71
     3
 72
     8
 73
     4
 74
     0
 42
0.0000000001
 43
0.0000000001
 40
0.0
 40
0.0
 40
0.0
 40
0.0
 40
1.0
 40
1.0
 40
1.0
 40
1.0
 10
28.6434
 20
6.6056
 30
0.0
 10
28.6304
 20
6.6307
 30
0.0
 10
28.6204
 20
6.6557
 30
0.0
 10
28.6123
 20
6.6828
 30
0.0
  0
SPLINE
  5
107
330
1F
100
AcDbEntity
  8
Vrstva 1
 62
   250
370
    30
100
AcDbSpline
210
0.0
220
0.0
230
1.0
 70
    24
 71
     3
 72
     8
 73
     4
 74
     0
 42
0.0000000001
 43
0.0000000001
 40
0.0
 40
0.0
 40
0.0
 40
0.0
 40
1.0
 40
1.0
 40
1.0
 40
1.0
 10
28.6024
 20
6.7384
 30
0.0
 10
28.6024
 20
6.7384
 30
0.0
 10
28.6061
 20
6.7107
 30
0.0
 10
28.6061
 20
6.7107
 30
0.0
  0
SPLINE
  5
108
330
1F
100
AcDbEntity
  8
Vrstva 1
 62
   250
370
    30
100
AcDbSpline
210
0.0
220
0.0
230
1.0
 70
     8
 71
     3
 72
     8
 73
     4
 74
     0
 42
0.0000000001
 43
0.0000000001
 40
0.0
 40
0.0
 40
0.0
 40
0.0
 40
1.0
 40
1.0
 40
1.0
 40
1.0
 10
28.0632
 20
-10.2242
 30
0.0
 10
28.0577
 20
-10.2363
 30
0.0
 10
28.0545
 20
-10.2482
 30
0.0
 10
28.0543
 20
-10.2616
 30
0.0
  0
SPLINE
  5
109
330
1F
100
AcDbEntity
  8
Vrstva 1
 62
   250
370
    30
100
AcDbSpline
210
0.0
220
0.0
230
1.0
 70
     8
 71
     3
 72
     8
 73
     4
 74
     0
 42
0.0000000001
 43
0.0000000001
 40
0.0
 40
0.0
 40
0.0
 40
0.0
 40
1.0
 40
1.0
 40
1.0
 40
1.0
 10
28.146
 20
-6.5953
 30
0.0
 10
28.1452
 20
-6.6043
 30
0.0
 10
28.1457
 20
-6.6119
 30
0.0
 10
28.1484
 20
-6.6205
 30
0.0
  0
SPLINE
  5
10A
330
1F
100
AcDbEntity
  8
Vrstva 1
 62
   250
370
    30
100
AcDbSpline
210
0.0
220
0.0
230
1.0
 70
     8
 71
     3
 72
     8
 73
     4
 74
     0
 42
0.0000000001
 43
0.0000000001
 40
0.0
 40
0.0
 40
0.0
 40
0.0
 40
1.0
 40
1.0
 40
1.0
 40
1.0
 10
28.1636
 20
-6.6417
 30
0.0
 10
28.1666
 20
-6.644
 30
0.0
 10
28.1696
 20
-6.6458
 30
0.0
 10
28.1727
 20
-6.6476
 30
0.0
  0
SPLINE
  5
10B
330
1F
100
AcDbEntity
  8
Vrstva 1
 62
   250
370
    30
100
AcDbSpline
210
0.0
220
0.0
230
1.0
 70
     8
 71
     3
 72
     8
 73
     4
 74
     0
 42
0.0000000001
 43
0.0000000001
 40
0.0
 40
0.0
 40
0.0
 40
0.0
 40
1.0
 40
1.0
 40
1.0
 40
1.0
 10
28.2724
 20
-5.8654
 30
0.0
 10
28.2763
 20
-5.8478
 30
0.0
 10
28.287
 20
-5.8349
 30
0.0
 10
28.3037
 20
-5.8279
 30
0.0
  0
SPLINE
  5
10C
330
1F
100
AcDbEntity
  8
Vrstva 1
 62
   250
370
    30
100
AcDbSpline
210
0.0
220
0.0
230
1.0
 70
     8
 71
     3
 72
     8
 73
     4
 74
     0
 42
0.0000000001
 43
0.0000000001
 40
0.0
 40
0.0
 40
0.0
 40
0.0
 40
1.0
 40
1.0
 40
1.0
 40
1.0
 10
29.2064
 20
-6.8437
 30
0.0
 10
29.2046
 20
-6.8413
 30
0.0
 10
29.2026
 20
-6.8389
 30
0.0
 10
29.2005
 20
-6.8366
 30
0.0
  0
SPLINE
  5
10D
330
1F
100
AcDbEntity
  8
Vrstva 1
 62
   250
370
    30
100
AcDbSpline
210
0.0
220
0.0
230
1.0
 70
     8
 71
     3
 72
     8
 73
     4
 74
     0
 42
0.0000000001
 43
0.0000000001
 40
0.0
 40
0.0
 40
0.0
 40
0.0
 40
1.0
 40
1.0
 40
1.0
 40
1.0
 10
29.2119
 20
-9.7848
 30
0.0
 10
29.2106
 20
-9.7894
 30
0.0
 10
29.209
 20
-9.7939
 30
0.0
 10
29.2071
 20
-9.7983
 30
0.0
  0
SPLINE
  5
10E
330
1F
100
AcDbEntity
  8
Vrstva 1
 62
   250
370
    30
100
AcDbSpline
210
0.0
220
0.0
230
1.0
 70
     8
 71
     3
 72
     8
 73
     4
 74
     0
 42
0.0000000001
 43
0.0000000001
 40
0.0
 40
0.0
 40
0.0
 40
0.0
 40
1.0
 40
1.0
 40
1.0
 40
1.0
 10
29.1945
 20
-9.8183
 30
0.0
 10
29.198
 20
-9.8136
 30
0.0
 10
29.2014
 20
-9.8091
 30
0.0
 10
29.2042
 20
-9.8042
 30
0.0
  0
SPLINE
  5
10F
330
1F
100
AcDbEntity
  8
Vrstva 1
 62
   250
370
    30
100
AcDbSpline
210
0.0
220
0.0
230
1.0
 70
     8
 71
     3
 72
     8
 73
     4
 74
     0
 42
0.0000000001
 43
0.0000000001
 40
0.0
 40
0.0
 40
0.0
 40
0.0
 40
1.0
 40
1.0
 40
1.0
 40
1.0
 10
30.6233
 20
-11.011
 30
0.0
 10
30.6233
 20
-12.175
 30
0.0
 10
30.6256
 20
-13.3389
 30
0.0
 10
30.6233
 20
-14.5027
 30
0.0
  0
SPLINE
  5
110
330
1F
100
AcDbEntity
  8
Vrstva 1
 62
   250
370
    30
100
AcDbSpline
210
0.0
220
0.0
230
1.0
 70
     8
 71
     3
 72
     8
 73
     4
 74
     0
 42
0.0000000001
 43
0.0000000001
 40
0.0
 40
0.0
 40
0.0
 40
0.0
 40
1.0
 40
1.0
 40
1.0
 40
1.0
 10
31.464
 20
-14.4884
 30
0.0
 10
31.187
 20
-14.505
 30
0.0
 10
30.9007
 20
-14.4986
 30
0.0
 10
30.6233
 20
-14.5034
 30
0.0
  0
SPLINE
  5
111
330
1F
100
AcDbEntity
  8
Vrstva 1
 62
   250
370
    30
100
AcDbSpline
210
0.0
220
0.0
230
1.0
 70
     8
 71
     3
 72
     8
 73
     4
 74
     0
 42
0.0000000001
 43
0.0000000001
 40
0.0
 40
0.0
 40
0.0
 40
0.0
 40
1.0
 40
1.0
 40
1.0
 40
1.0
 10
30.6233
 20
12.8773
 30
0.0
 10
30.6237
 20
12.7418
 30
0.0
 10
30.6233
 20
12.6062
 30
0.0
 10
30.6233
 20
12.4708
 30
0.0
  0
SPLINE
  5
112
330
1F
100
AcDbEntity
  8
Vrstva 1
 62
   250
370
    30
100
AcDbSpline
210
0.0
220
0.0
230
1.0
 70
    24
 71
     3
 72
    12
 73
     8
 74
     0
 42
0.0000000001
 43
0.0000000001
 40
0.0
 40
0.0
 40
0.0
 40
0.0
 40
0.3333333333333333
 40
0.3333333333333333
 40
0.3333333333333333
 40
0.3333333333333333
 40
1.0
 40
1.0
 40
1.0
 40
1.0
 10
30.6233
 20
12.4708
 30
0.0
 10
30.6233
 20
12.4708
 30
0.0
 10
30.6233
 20
-14.0725
 30
0.0
 10
30.6233
 20
-14.0725
 30
0.0
 10
30.6233
 20
-14.0725
 30
0.0
 10
30.6233
 20
-14.0725
 30
0.0
 10
30.6233
 20
-14.4041
 30
0.0
 10
30.6233
 20
-14.4041
 30
0.0
  0
SPLINE
  5
113
330
1F
100
AcDbEntity
  8
Vrstva 1
 62
   250
370
    30
100
AcDbSpline
210
0.0
220
0.0
230
1.0
 70
     8
 71
     3
 72
     8
 73
     4
 74
     0
 42
0.0000000001
 43
0.0000000001
 40
0.0
 40
0.0
 40
0.0
 40
0.0
 40
1.0
 40
1.0
 40
1.0
 40
1.0
 10
31.5922
 20
-14.4074
 30
0.0
 10
31.5599
 20
-14.478
 30
0.0
 10
31.5182
 20
-14.4793
 30
0.0
 10
31.4654
 20
-14.4876
 30
0.0
  0
SPLINE
  5
114
330
1F
100
AcDbEntity
  8
Vrstva 1
 62
   250
370
    30
100
AcDbSpline
210
0.0
220
0.0
230
1.0
 70
     8
 71
     3
 72
     8
 73
     4
 74
     0
 42
0.0000000001
 43
0.0000000001
 40
0.0
 40
0.0
 40
0.0
 40
0.0
 40
1.0
 40
1.0
 40
1.0
 40
1.0
 10
31.6004
 20
-14.3671
 30
0.0
 10
31.5995
 20
-14.3818
 30
0.0
 10
31.5968
 20
-14.3948
 30
0.0
 10
31.591
 20
-14.4084
 30
0.0
  0
SPLINE
  5
115
330
1F
100
AcDbEntity
  8
Vrstva 1
 62
   250
370
    30
100
AcDbSpline
210
0.0
220
0.0
230
1.0
 70
     8
 71
     3
 72
    12
 73
     8
 74
     0
 42
0.0000000001
 43
0.0000000001
 40
0.0
 40
0.0
 40
0.0
 40
0.0
 40
0.3333333333333333
 40
0.3333333333333333
 40
0.3333333333333333
 40
0.3333333333333333
 40
1.0
 40
1.0
 40
1.0
 40
1.0
 10
28.0549
 20
-10.2522
 30
0.0
 10
28.0374
 20
-10.558
 30
0.0
 10
28.2498
 20
-10.8371
 30
0.0
 10
28.5403
 20
-10.92
 30
0.0
 10
28.5403
 20
-10.92
 30
0.0
 10
28.6913
 20
-10.9631
 30
0.0
 10
28.8841
 20
-10.9503
 30
0.0
 10
29.0254
 20
-10.9552
 30
0.0
  0
SPLINE
  5
116
330
1F
100
AcDbEntity
  8
Vrstva 1
 62
   250
370
    30
100
AcDbSpline
210
0.0
220
0.0
230
1.0
 70
     8
 71
     3
 72
    12
 73
     8
 74
     0
 42
0.0000000001
 43
0.0000000001
 40
0.0
 40
0.0
 40
0.0
 40
0.0
 40
0.3333333333333333
 40
0.3333333333333333
 40
0.3333333333333333
 40
0.3333333333333333
 40
1.0
 40
1.0
 40
1.0
 40
1.0
 10
29.0254
 20
-10.9552
 30
0.0
 10
29.0254
 20
-10.9552
 30
0.0
 10
30.292
 20
-10.9995
 30
0.0
 10
30.292
 20
-10.9995
 30
0.0
 10
30.292
 20
-10.9995
 30
0.0
 10
30.292
 20
-10.9995
 30
0.0
 10
30.6233
 20
-11.011
 30
0.0
 10
30.6233
 20
-11.011
 30
0.0
  0
SPLINE
  5
117
330
1F
100
AcDbEntity
  8
Vrstva 1
 62
   250
370
    30
100
AcDbSpline
210
0.0
220
0.0
230
1.0
 70
     8
 71
     3
 72
     8
 73
     4
 74
     0
 42
0.0000000001
 43
0.0000000001
 40
0.0
 40
0.0
 40
0.0
 40
0.0
 40
1.0
 40
1.0
 40
1.0
 40
1.0
 10
28.1021
 20
-10.1865
 30
0.0
 10
28.2692
 20
-10.1175
 30
0.0
 10
28.6913
 20
-9.9944
 30
0.0
 10
28.8419
 20
-9.9454
 30
0.0
  0
SPLINE
  5
118
330
1F
100
AcDbEntity
  8
Vrstva 1
 62
   250
370
    30
100
AcDbSpline
210
0.0
220
0.0
230
1.0
 70
     8
 71
     3
 72
    16
 73
    12
 74
     0
 42
0.0000000001
 43
0.0000000001
 40
0.0
 40
0.0
 40
0.0
 40
0.0
 40
0.25
 40
0.25
 40
0.25
 40
0.25
 40
0.5
 40
0.5
 40
0.5
 40
0.5
 40
1.0
 40
1.0
 40
1.0
 40
1.0
 10
28.8419
 20
-9.9454
 30
0.0
 10
28.8419
 20
-9.9454
 30
0.0
 10
29.1572
 20
-9.843
 30
0.0
 10
29.1572
 20
-9.843
 30
0.0
 10
29.1572
 20
-9.843
 30
0.0
 10
29.1572
 20
-9.843
 30
0.0
 10
29.1653
 20
-9.8399
 30
0.0
 10
29.1653
 20
-9.8399
 30
0.0
 10
29.1653
 20
-9.8399
 30
0.0
 10
29.1653
 20
-9.8399
 30
0.0
 10
29.1572
 20
-9.843
 30
0.0
 10
29.1572
 20
-9.843
 30
0.0
  0
SPLINE
  5
119
330
1F
100
AcDbEntity
  8
Vrstva 1
 62
   250
370
    30
100
AcDbSpline
210
0.0
220
0.0
230
1.0
 70
     8
 71
     3
 72
     8
 73
     4
 74
     0
 42
0.0000000001
 43
0.0000000001
 40
0.0
 40
0.0
 40
0.0
 40
0.0
 40
1.0
 40
1.0
 40
1.0
 40
1.0
 10
29.2032
 20
-9.8061
 30
0.0
 10
29.1925
 20
-9.8212
 30
0.0
 10
29.1822
 20
-9.8317
 30
0.0
 10
29.1653
 20
-9.8399
 30
0.0
  0
SPLINE
  5
11A
330
1F
100
AcDbEntity
  8
Vrstva 1
 62
   250
370
    30
100
AcDbSpline
210
0.0
220
0.0
230
1.0
 70
    24
 71
     3
 72
    16
 73
    12
 74
     0
 42
0.0000000001
 43
0.0000000001
 40
0.0
 40
0.0
 40
0.0
 40
0.0
 40
0.25
 40
0.25
 40
0.25
 40
0.25
 40
0.5
 40
0.5
 40
0.5
 40
0.5
 40
1.0
 40
1.0
 40
1.0
 40
1.0
 10
29.2146
 20
-8.4369
 30
0.0
 10
29.2146
 20
-8.4369
 30
0.0
 10
29.2146
 20
-8.7683
 30
0.0
 10
29.2146
 20
-8.7683
 30
0.0
 10
29.2146
 20
-8.7683
 30
0.0
 10
29.2146
 20
-8.7683
 30
0.0
 10
29.2146
 20
-9.4327
 30
0.0
 10
29.2146
 20
-9.4327
 30
0.0
 10
29.2146
 20
-9.4327
 30
0.0
 10
29.2146
 20
-9.4327
 30
0.0
 10
29.2146
 20
-9.7642
 30
0.0
 10
29.2146
 20
-9.7642
 30
0.0
  0
SPLINE
  5
11B
330
1F
100
AcDbEntity
  8
Vrstva 1
 62
   250
370
    30
100
AcDbSpline
210
0.0
220
0.0
230
1.0
 70
     8
 71
     3
 72
     8
 73
     4
 74
     0
 42
0.0000000001
 43
0.0000000001
 40
0.0
 40
0.0
 40
0.0
 40
0.0
 40
1.0
 40
1.0
 40
1.0
 40
1.0
 10
29.2146
 20
-9.7642
 30
0.0
 10
29.2146
 20
-9.7851
 30
0.0
 10
29.2062
 20
-9.8012
 30
0.0
 10
29.1945
 20
-9.8181
 30
0.0
  0
SPLINE
  5
11C
330
1F
100
AcDbEntity
  8
Vrstva 1
 62
   250
370
    30
100
AcDbSpline
210
0.0
220
0.0
230
1.0
 70
     8
 71
     3
 72
    20
 73
    16
 74
     0
 42
0.0000000001
 43
0.0000000001
 40
0.0
 40
0.0
 40
0.0
 40
0.0
 40
0.2
 40
0.2
 40
0.2
 40
0.2
 40
0.4
 40
0.4
 40
0.4
 40
0.4
 40
0.6
 40
0.6
 40
0.6
 40
0.6
 40
1.0
 40
1.0
 40
1.0
 40
1.0
 10
29.2146
 20
-6.871
 30
0.0
 10
29.2146
 20
-6.871
 30
0.0
 10
29.2146
 20
-7.2025
 30
0.0
 10
29.2146
 20
-7.2025
 30
0.0
 10
29.2146
 20
-7.2025
 30
0.0
 10
29.2146
 20
-7.2025
 30
0.0
 10
29.2146
 20
-9.4327
 30
0.0
 10
29.2146
 20
-9.4327
 30
0.0
 10
29.2146
 20
-9.4327
 30
0.0
 10
29.2146
 20
-9.4327
 30
0.0
 10
29.2146
 20
-9.7642
 30
0.0
 10
29.2146
 20
-9.7642
 30
0.0
 10
29.2146
 20
-9.7642
 30
0.0
 10
29.2146
 20
-9.7642
 30
0.0
 10
29.2119
 20
-9.7848
 30
0.0
 10
29.2119
 20
-9.7848
 30
0.0
  0
SPLINE
  5
11D
330
1F
100
AcDbEntity
  8
Vrstva 1
 62
   250
370
    30
100
AcDbSpline
210
0.0
220
0.0
230
1.0
 70
     8
 71
     3
 72
     8
 73
     4
 74
     0
 42
0.0000000001
 43
0.0000000001
 40
0.0
 40
0.0
 40
0.0
 40
0.0
 40
1.0
 40
1.0
 40
1.0
 40
1.0
 10
29.1721
 20
-6.8039
 30
0.0
 10
29.1714
 20
-6.8004
 30
0.0
 10
29.1708
 20
-6.7969
 30
0.0
 10
29.1701
 20
-6.7935
 30
0.0
  0
SPLINE
  5
11E
330
1F
100
AcDbEntity
  8
Vrstva 1
 62
   250
370
    30
100
AcDbSpline
210
0.0
220
0.0
230
1.0
 70
     8
 71
     3
 72
    12
 73
     8
 74
     0
 42
0.0000000001
 43
0.0000000001
 40
0.0
 40
0.0
 40
0.0
 40
0.0
 40
0.3333333333333333
 40
0.3333333333333333
 40
0.3333333333333333
 40
0.3333333333333333
 40
1.0
 40
1.0
 40
1.0
 40
1.0
 10
29.1935
 20
-6.8306
 30
0.0
 10
29.1935
 20
-6.8306
 30
0.0
 10
29.1739
 20
-6.8228
 30
0.0
 10
29.1739
 20
-6.8228
 30
0.0
 10
29.1739
 20
-6.8228
 30
0.0
 10
29.1739
 20
-6.8228
 30
0.0
 10
28.8473
 20
-6.7662
 30
0.0
 10
28.8473
 20
-6.7662
 30
0.0
  0
SPLINE
  5
11F
330
1F
100
AcDbEntity
  8
Vrstva 1
 62
   250
370
    30
100
AcDbSpline
210
0.0
220
0.0
230
1.0
 70
     8
 71
     3
 72
     8
 73
     4
 74
     0
 42
0.0000000001
 43
0.0000000001
 40
0.0
 40
0.0
 40
0.0
 40
0.0
 40
1.0
 40
1.0
 40
1.0
 40
1.0
 10
28.8473
 20
-6.7662
 30
0.0
 10
28.748
 20
-6.7491
 30
0.0
 10
28.2679
 20
-6.684
 30
0.0
 10
28.1738
 20
-6.648
 30
0.0
  0
SPLINE
  5
120
330
1F
100
AcDbEntity
  8
Vrstva 1
 62
   250
370
    30
100
AcDbSpline
210
0.0
220
0.0
230
1.0
 70
     8
 71
     3
 72
     8
 73
     4
 74
     0
 42
0.0000000001
 43
0.0000000001
 40
0.0
 40
0.0
 40
0.0
 40
0.0
 40
1.0
 40
1.0
 40
1.0
 40
1.0
 10
28.1523
 20
-6.6287
 30
0.0
 10
28.1553
 20
-6.6334
 30
0.0
 10
28.1587
 20
-6.6375
 30
0.0
 10
28.163
 20
-6.6412
 30
0.0
  0
SPLINE
  5
121
330
1F
100
AcDbEntity
  8
Vrstva 1
 62
   250
370
    30
100
AcDbSpline
210
0.0
220
0.0
230
1.0
 70
     8
 71
     3
 72
     8
 73
     4
 74
     0
 42
0.0000000001
 43
0.0000000001
 40
0.0
 40
0.0
 40
0.0
 40
0.0
 40
1.0
 40
1.0
 40
1.0
 40
1.0
 10
28.2742
 20
-5.8586
 30
0.0
 10
28.2207
 20
-6.0837
 30
0.0
 10
28.1855
 20
-6.3672
 30
0.0
 10
28.146
 20
-6.5953
 30
0.0
  0
SPLINE
  5
122
330
1F
100
AcDbEntity
  8
Vrstva 1
 62
   250
370
    30
100
AcDbSpline
210
0.0
220
0.0
230
1.0
 70
     8
 71
     3
 72
    24
 73
    20
 74
     0
 42
0.0000000001
 43
0.0000000001
 40
0.0
 40
0.0
 40
0.0
 40
0.0
 40
0.1666666666666667
 40
0.1666666666666667
 40
0.1666666666666667
 40
0.1666666666666667
 40
0.3333333333333333
 40
0.3333333333333333
 40
0.3333333333333333
 40
0.3333333333333333
 40
0.5
 40
0.5
 40
0.5
 40
0.5
 40
0.6666666666666666
 40
0.6666666666666666
 40
0.6666666666666666
 40
0.6666666666666666
 40
1.0
 40
1.0
 40
1.0
 40
1.0
 10
29.5352
 20
-5.7127
 30
0.0
 10
29.5352
 20
-5.7127
 30
0.0
 10
29.5225
 20
-5.7156
 30
0.0
 10
29.5225
 20
-5.7156
 30
0.0
 10
29.5225
 20
-5.7156
 30
0.0
 10
29.5225
 20
-5.7156
 30
0.0
 10
29.1923
 20
-5.7456
 30
0.0
 10
29.1923
 20
-5.7456
 30
0.0
 10
29.1923
 20
-5.7456
 30
0.0
 10
29.1923
 20
-5.7456
 30
0.0
 10
28.6462
 20
-5.7951
 30
0.0
 10
28.6462
 20
-5.7951
 30
0.0
 10
28.6462
 20
-5.7951
 30
0.0
 10
28.6462
 20
-5.7951
 30
0.0
 10
28.3162
 20
-5.8251
 30
0.0
 10
28.3162
 20
-5.8251
 30
0.0
 10
28.3162
 20
-5.8251
 30
0.0
 10
28.3162
 20
-5.8251
 30
0.0
 10
28.3037
 20
-5.8279
 30
0.0
 10
28.3037
 20
-5.8279
 30
0.0
  0
SPLINE
  5
123
330
1F
100
AcDbEntity
  8
Vrstva 1
 62
   250
370
    30
100
AcDbSpline
210
0.0
220
0.0
230
1.0
 70
     8
 71
     3
 72
    20
 73
    16
 74
     0
 42
0.0000000001
 43
0.0000000001
 40
0.0
 40
0.0
 40
0.0
 40
0.0
 40
0.2
 40
0.2
 40
0.2
 40
0.2
 40
0.4
 40
0.4
 40
0.4
 40
0.4
 40
0.6
 40
0.6
 40
0.6
 40
0.6
 40
1.0
 40
1.0
 40
1.0
 40
1.0
 10
30.6234
 20
0.4304
 30
0.0
 10
30.6234
 20
0.4304
 30
0.0
 10
30.5669
 20
0.1037
 30
0.0
 10
30.5669
 20
0.1037
 30
0.0
 10
30.5669
 20
0.1037
 30
0.0
 10
30.5669
 20
0.1037
 30
0.0
 10
29.6235
 20
-5.3479
 30
0.0
 10
29.6235
 20
-5.3479
 30
0.0
 10
29.6235
 20
-5.3479
 30
0.0
 10
29.6235
 20
-5.3479
 30
0.0
 10
29.567
 20
-5.6745
 30
0.0
 10
29.567
 20
-5.6745
 30
0.0
 10
29.567
 20
-5.6745
 30
0.0
 10
29.567
 20
-5.6745
 30
0.0
 10
29.5632
 20
-5.687
 30
0.0
 10
29.5632
 20
-5.687
 30
0.0
  0
SPLINE
  5
124
330
1F
100
AcDbEntity
  8
Vrstva 1
 62
   250
370
    30
100
AcDbSpline
210
0.0
220
0.0
230
1.0
 70
     8
 71
     3
 72
     8
 73
     4
 74
     0
 42
0.0000000001
 43
0.0000000001
 40
0.0
 40
0.0
 40
0.0
 40
0.0
 40
1.0
 40
1.0
 40
1.0
 40
1.0
 10
28.0725
 20
-10.2097
 30
0.0
 10
28.0789
 20
-10.2025
 30
0.0
 10
28.0856
 20
-10.1965
 30
0.0
 10
28.0936
 20
-10.1912
 30
0.0
  0
SPLINE
  5
125
330
1F
100
AcDbEntity
  8
Vrstva 1
 62
   250
370
    30
100
AcDbSpline
210
0.0
220
0.0
230
1.0
 70
     8
 71
     3
 72
     8
 73
     4
 74
     0
 42
0.0000000001
 43
0.0000000001
 40
0.0
 40
0.0
 40
0.0
 40
0.0
 40
1.0
 40
1.0
 40
1.0
 40
1.0
 10
28.0569
 20
-10.241
 30
0.0
 10
28.0589
 20
-10.2346
 30
0.0
 10
28.061
 20
-10.2286
 30
0.0
 10
28.064
 20
-10.2225
 30
0.0
  0
SPLINE
  5
126
330
1F
100
AcDbEntity
  8
Vrstva 1
 62
   250
370
    30
100
AcDbSpline
210
0.0
220
0.0
230
1.0
 70
    24
 71
     3
 72
     8
 73
     4
 74
     0
 42
0.0000000001
 43
0.0000000001
 40
0.0
 40
0.0
 40
0.0
 40
0.0
 40
1.0
 40
1.0
 40
1.0
 40
1.0
 10
31.5998
 20
-14.3664
 30
0.0
 10
31.5998
 20
-14.3664
 30
0.0
 10
31.5998
 20
12.7394
 30
0.0
 10
31.5998
 20
12.7394
 30
0.0
  0
SPLINE
  5
127
330
1F
100
AcDbEntity
  8
Vrstva 1
 62
   250
370
    30
100
AcDbSpline
210
0.0
220
0.0
230
1.0
 70
     8
 71
     3
 72
     8
 73
     4
 74
     0
 42
0.0000000001
 43
0.0000000001
 40
0.0
 40
0.0
 40
0.0
 40
0.0
 40
1.0
 40
1.0
 40
1.0
 40
1.0
 10
31.4632
 20
12.8615
 30
0.0
 10
31.1864
 20
12.8781
 30
0.0
 10
30.8999
 20
12.8716
 30
0.0
 10
30.6225
 20
12.8764
 30
0.0
  0
SPLINE
  5
128
330
1F
100
AcDbEntity
  8
Vrstva 1
 62
   250
370
    30
100
AcDbSpline
210
0.0
220
0.0
230
1.0
 70
     8
 71
     3
 72
     8
 73
     4
 74
     0
 42
0.0000000001
 43
0.0000000001
 40
0.0
 40
0.0
 40
0.0
 40
0.0
 40
1.0
 40
1.0
 40
1.0
 40
1.0
 10
31.5914
 20
12.7804
 30
0.0
 10
31.5593
 20
12.8509
 30
0.0
 10
31.5174
 20
12.8523
 30
0.0
 10
31.4647
 20
12.8606
 30
0.0
  0
SPLINE
  5
129
330
1F
100
AcDbEntity
  8
Vrstva 1
 62
   250
370
    30
100
AcDbSpline
210
0.0
220
0.0
230
1.0
 70
     8
 71
     3
 72
     8
 73
     4
 74
     0
 42
0.0000000001
 43
0.0000000001
 40
0.0
 40
0.0
 40
0.0
 40
0.0
 40
1.0
 40
1.0
 40
1.0
 40
1.0
 10
31.5996
 20
12.7401
 30
0.0
 10
31.5988
 20
12.7549
 30
0.0
 10
31.5959
 20
12.7677
 30
0.0
 10
31.5902
 20
12.7814
 30
0.0
  0
ENDSEC
  0
SECTION
  2
OBJECTS
  0
DICTIONARY
  5
C
330
0
100
AcDbDictionary
281
     1
  3
ACAD_GROUP
350
D
  3
ACAD_LAYOUT
350
1A
  3
ACAD_MATERIAL
350
3B
  3
ACAD_MLEADERSTYLE
350
12C
  3
ACAD_MLINESTYLE
350
17
  3
ACAD_PLOTSETTINGS
350
19
  3
ACAD_PLOTSTYLENAME
350
E
  3
ACAD_VISUALSTYLE
350
2A
  3
AcDbVariableDictionary
350
12A
  0
DICTIONARY
  5
D
102
{ACAD_REACTORS
330
C
102
}
330
C
100
AcDbDictionary
281
     1
  0
DICTIONARY
  5
1A
102
{ACAD_REACTORS
330
C
102
}
330
C
100
AcDbDictionary
281
     1
  3
Layout1
350
1E
  3
Layout2
350
26
  3
Model
350
22
  0
DICTIONARY
  5
3B
102
{ACAD_REACTORS
330
C
102
}
330
C
100
AcDbDictionary
281
     1
  3
ByBlock
350
3D
  3
ByLayer
350
3C
  3
Global
350
3E
  0
DICTIONARY
  5
12C
102
{ACAD_REACTORS
330
C
102
}
330
C
100
AcDbDictionary
281
     1
  0
DICTIONARY
  5
17
102
{ACAD_REACTORS
330
C
102
}
330
C
100
AcDbDictionary
281
     1
  3
Standard
350
18
  0
DICTIONARY
  5
19
102
{ACAD_REACTORS
330
C
102
}
330
C
100
AcDbDictionary
281
     1
  0
ACDBDICTIONARYWDFLT
  5
E
102
{ACAD_REACTORS
330
C
102
}
330
C
100
AcDbDictionary
281
     1
  3
Normal
350
F
100
AcDbDictionaryWithDefault
340
F
  0
DICTIONARY
  5
2A
102
{ACAD_REACTORS
330
C
102
}
330
C
100
AcDbDictionary
281
     1
  3
2dWireframe
350
2F
  3
3D Hidden
350
31
  3
3dWireframe
350
30
  3
Basic
350
32
  3
Brighten
350
36
  3
ColorChange
350
3A
  3
Conceptual
350
34
  3
Dim
350
35
  3
Facepattern
350
39
  3
Flat
350
2B
  3
FlatWithEdges
350
2C
  3
Gouraud
350
2D
  3
GouraudWithEdges
350
2E
  3
Linepattern
350
38
  3
Realistic
350
33
  3
Thicken
350
37
  0
DICTIONARY
  5
12A
102
{ACAD_REACTORS
330
C
102
}
330
C
100
AcDbDictionary
281
     1
  3
DIMASSOC
350
12D
  3
HIDETEXT
350
12E
  0
LAYOUT
  5
1E
102
{ACAD_REACTORS
330
1A
102
}
330
1A
100
AcDbPlotSettings
  1

  2
none_device
  4

  6

 40
0.0
 41
0.0
 42
0.0
 43
0.0
 44
0.0
 45
0.0
 46
0.0
 47
0.0
 48
0.0
 49
0.0
140
0.0
141
0.0
142
1.0
143
1.0
 70
   688
 72
     0
 73
     0
 74
     5
  7

 75
    16
147
1.0
148
0.0
149
0.0
100
AcDbLayout
  1
Layout1
 70
     1
 71
     1
 10
0.0
 20
0.0
 11
12.0
 21
9.0
 12
0.0
 22
0.0
 32
0.0
 14
1.000000000000000E+20
 24
1.000000000000000E+20
 34
1.000000000000000E+20
 15
-1.000000000000000E+20
 25
-1.000000000000000E+20
 35
-1.000000000000000E+20
146
0.0
 13
0.0
 23
0.0
 33
0.0
 16
1.0
 26
0.0
 36
0.0
 17
0.0
 27
1.0
 37
0.0
 76
     0
330
1B
  0
LAYOUT
  5
26
102
{ACAD_REACTORS
330
1A
102
}
330
1A
100
AcDbPlotSettings
  1

  2
none_device
  4

  6

 40
0.0
 41
0.0
 42
0.0
 43
0.0
 44
0.0
 45
0.0
 46
0.0
 47
0.0
 48
0.0
 49
0.0
140
0.0
141
0.0
142
1.0
143
1.0
 70
   688
 72
     0
 73
     0
 74
     5
  7

 75
    16
147
1.0
148
0.0
149
0.0
100
AcDbLayout
  1
Layout2
 70
     1
 71
     2
 10
0.0
 20
0.0
 11
0.0
 21
0.0
 12
0.0
 22
0.0
 32
0.0
 14
0.0
 24
0.0
 34
0.0
 15
0.0
 25
0.0
 35
0.0
146
0.0
 13
0.0
 23
0.0
 33
0.0
 16
1.0
 26
0.0
 36
0.0
 17
0.0
 27
1.0
 37
0.0
 76
     0
330
23
  0
LAYOUT
  5
22
102
{ACAD_REACTORS
330
1A
102
}
330
1A
100
AcDbPlotSettings
  1

  2
none_device
  4

  6

 40
0.0
 41
0.0
 42
0.0
 43
0.0
 44
0.0
 45
0.0
 46
0.0
 47
0.0
 48
0.0
 49
0.0
140
0.0
141
0.0
142
1.0
143
1.0
 70
  1712
 72
     0
 73
     0
 74
     0
  7

 75
     0
147
1.0
148
0.0
149
0.0
100
AcDbLayout
  1
Model
 70
     1
 71
     0
 10
0.0
 20
0.0
 11
12.0
 21
9.0
 12
0.0
 22
0.0
 32
0.0
 14
-34.1602
 24
-19.7898
 34
0.0
 15
34.1601
 25
19.7898
 35
0.0
146
0.0
 13
0.0
 23
0.0
 33
0.0
 16
1.0
 26
0.0
 36
0.0
 17
0.0
 27
1.0
 37
0.0
 76
     0
330
1F
331
29
  0
MATERIAL
  5
3D
102
{ACAD_REACTORS
330
3B
102
}
102
{ACAD_XDICTIONARY
360
151
102
}
330
3B
100
AcDbMaterial
  1
ByBlock
  0
MATERIAL
  5
3C
102
{ACAD_REACTORS
330
3B
102
}
102
{ACAD_XDICTIONARY
360
14F
102
}
330
3B
100
AcDbMaterial
  1
ByLayer
  0
MATERIAL
  5
3E
102
{ACAD_REACTORS
330
3B
102
}
102
{ACAD_XDICTIONARY
360
153
102
}
330
3B
100
AcDbMaterial
  1
Global
  0
MLINESTYLE
  5
18
102
{ACAD_REACTORS
330
17
102
}
330
17
100
AcDbMlineStyle
  2
Standard
 70
     0
  3

 62
   256
 51
90.0
 52
90.0
 71
     2
 49
0.5
 62
   256
  6
BYLAYER
 49
-0.5
 62
   256
  6
BYLAYER
  0
ACDBPLACEHOLDER
  5
F
102
{ACAD_REACTORS
330
E
102
}
330
E
  0
VISUALSTYLE
  5
2F
102
{ACAD_REACTORS
330
2A
102
}
102
{ACAD_XDICTIONARY
360
137
102
}
330
2A
100
AcDbVisualStyle
  2
2dWireframe
 70
     4
 71
     0
 72
     2
 73
     0
 90
        0
 40
-0.6
 41
-30.0
 62
     5
 63
     7
 74
     1
 91
        4
 64
     7
 65
   257
 75
     1
175
     1
 42
1.0
 92
        0
 66
   257
 43
1.0
 76
     1
 77
     6
 78
     2
 67
     7
 79
     5
170
     0
171
     0
290
     0
174
     0
 93
        1
 44
0.0
173
     0
291
     0
 45
0.0
1001
ACAD
1000
AcDbSavedByObjectVersion
1070
     0
  0
VISUALSTYLE
  5
31
102
{ACAD_REACTORS
330
2A
102
}
102
{ACAD_XDICTIONARY
360
13B
102
}
330
2A
100
AcDbVisualStyle
  2
3D Hidden
 70
     6
 71
     1
 72
     2
 73
     2
 90
        0
 40
-0.6
 41
-30.0
 62
     5
 63
     7
 74
     2
 91
        2
 64
     7
 65
   257
 75
     2
175
     1
 42
40.0
 92
        0
 66
   257
 43
1.0
 76
     1
 77
     6
 78
     2
 67
     7
 79
     3
170
     0
171
     0
290
     0
174
     0
 93
        1
 44
0.0
173
     0
291
     0
 45
0.0
1001
ACAD
1000
AcDbSavedByObjectVersion
1070
     0
  0
VISUALSTYLE
  5
30
102
{ACAD_REACTORS
330
2A
102
}
102
{ACAD_XDICTIONARY
360
139
102
}
330
2A
100
AcDbVisualStyle
  2
3dWireframe
 70
     5
 71
     0
 72
     2
 73
     0
 90
        0
 40
-0.6
 41
-30.0
 62
     5
 63
     7
 74
     1
 91
        4
 64
     7
 65
   257
 75
     1
175
     1
 42
1.0
 92
        0
 66
   257
 43
1.0
 76
     1
 77
     6
 78
     2
 67
     7
 79
     5
170
     0
171
     0
290
     0
174
     0
 93
        1
 44
0.0
173
     0
291
     0
 45
0.0
1001
ACAD
1000
AcDbSavedByObjectVersion
1070
     0
  0
VISUALSTYLE
  5
32
102
{ACAD_REACTORS
330
2A
102
}
102
{ACAD_XDICTIONARY
360
13D
102
}
330
2A
100
AcDbVisualStyle
  2
Basic
 70
     7
 71
     1
 72
     0
 73
     1
 90
        0
 40
-0.6
 41
-30.0
 62
     5
 63
     7
 74
     0
 91
        4
 64
     7
 65
   257
 75
     1
175
     1
 42
1.0
 92
        8
 66
     7
 43
1.0
 76
     1
 77
     6
 78
     2
 67
     7
 79
     5
170
     0
171
     0
290
     0
174
     0
 93
        1
 44
0.0
173
     0
291
     1
 45
0.0
1001
ACAD
1000
AcDbSavedByObjectVersion
1070
     0
  0
VISUALSTYLE
  5
36
102
{ACAD_REACTORS
330
2A
102
}
102
{ACAD_XDICTIONARY
360
145
102
}
330
2A
100
AcDbVisualStyle
  2
Brighten
 70
    12
 71
     2
 72
     2
 73
     0
 90
        0
 40
-0.6
 41
-30.0
 62
     5
 63
     7
 74
     1
 91
        4
 64
     7
 65
   257
 75
     1
175
     1
 42
1.0
 92
        8
 66
     7
 43
1.0
 76
     1
 77
     6
 78
     2
 67
     7
 79
     5
170
     0
171
     0
290
     0
174
     0
 93
        1
 44
50.0
173
     0
291
     1
 45
0.0
1001
ACAD
1000
AcDbSavedByObjectVersion
1070
     0
  0
VISUALSTYLE
  5
3A
102
{ACAD_REACTORS
330
2A
102
}
102
{ACAD_XDICTIONARY
360
14D
102
}
330
2A
100
AcDbVisualStyle
  2
ColorChange
 70
    16
 71
     2
 72
     2
 73
     3
 90
        0
 40
-0.6
 41
-30.0
 62
     5
 63
     8
 74
     1
 91
        4
 64
     7
 65
   257
 75
     1
175
     1
 42
1.0
 92
        8
 66
     8
 43
1.0
 76
     1
 77
     6
 78
     2
 67
     7
 79
     5
170
     0
171
     0
290
     0
174
     0
 93
        1
 44
0.0
173
     0
291
     1
 45
0.0
1001
ACAD
1000
AcDbSavedByObjectVersion
1070
     0
  0
VISUALSTYLE
  5
34
102
{ACAD_REACTORS
330
2A
102
}
102
{ACAD_XDICTIONARY
360
141
102
}
330
2A
100
AcDbVisualStyle
  2
Conceptual
 70
     9
 71
     3
 72
     2
 73
     0
 90
        0
 40
-0.6
 41
-30.0
 62
     5
 63
     7
 74
     2
 91
        2
 64
     7
 65
   257
 75
     1
175
     1
 42
40.0
 92
        8
 66
     7
 43
1.0
 76
     1
 77
     6
 78
     2
 67
     7
 79
     3
170
     0
171
     0
290
     0
174
     0
 93
        1
 44
0.0
173
     0
291
     0
 45
0.0
1001
ACAD
1000
AcDbSavedByObjectVersion
1070
     0
  0
VISUALSTYLE
  5
35
102
{ACAD_REACTORS
330
2A
102
}
102
{ACAD_XDICTIONARY
360
143
102
}
330
2A
100
AcDbVisualStyle
  2
Dim
 70
    11
 71
     2
 72
     2
 73
     0
 90
        0
 40
-0.6
 41
-30.0
 62
     5
 63
     7
 74
     1
 91
        4
 64
     7
 65
   257
 75
     1
175
     1
 42
1.0
 92
        8
 66
     7
 43
1.0
 76
     1
 77
     6
 78
     2
 67
     7
 79
     5
170
     0
171
     0
290
     0
174
     0
 93
        1
 44
-50.0
173
     0
291
     1
 45
0.0
1001
ACAD
1000
AcDbSavedByObjectVersion
1070
     0
  0
VISUALSTYLE
  5
39
102
{ACAD_REACTORS
330
2A
102
}
102
{ACAD_XDICTIONARY
360
14B
102
}
330
2A
100
AcDbVisualStyle
  2
Facepattern
 70
    15
 71
     2
 72
     2
 73
     0
 90
        0
 40
-0.6
 41
-30.0
 62
     5
 63
     7
 74
     1
 91
        4
 64
     7
 65
   257
 75
     1
175
     1
 42
1.0
 92
        8
 66
     7
 43
1.0
 76
     1
 77
     6
 78
     2
 67
     7
 79
     5
170
     0
171
     0
290
     0
174
     0
 93
        1
 44
0.0
173
     0
291
     1
 45
0.0
1001
ACAD
1000
AcDbSavedByObjectVersion
1070
     0
  0
VISUALSTYLE
  5
2B
102
{ACAD_REACTORS
330
2A
102
}
102
{ACAD_XDICTIONARY
360
12F
102
}
330
2A
100
AcDbVisualStyle
  2
Flat
 70
     0
 71
     2
 72
     1
 73
     1
 90
        2
 40
-0.6
 41
30.0
 62
     5
 63
     7
 74
     0
 91
        4
 64
     7
 65
   257
 75
     1
175
     1
 42
1.0
 92
        8
 66
     7
 43
1.0
 76
     1
 77
     6
 78
     2
 67
     7
 79
     5
170
     0
171
     0
290
     0
174
     0
 93
       13
 44
0.0
173
     0
291
     1
 45
0.0
1001
ACAD
1000
AcDbSavedByObjectVersion
1070
     0
  0
VISUALSTYLE
  5
2C
102
{ACAD_REACTORS
330
2A
102
}
102
{ACAD_XDICTIONARY
360
131
102
}
330
2A
100
AcDbVisualStyle
  2
FlatWithEdges
 70
     1
 71
     2
 72
     1
 73
     1
 90
        2
 40
-0.6
 41
30.0
 62
     5
 63
     7
 74
     1
 91
        4
 64
     7
 65
   257
 75
     1
175
     1
 42
1.0
 92
        0
 66
   257
 43
1.0
 76
     1
 77
     6
 78
     2
 67
     7
 79
     5
170
     0
171
     0
290
     0
174
     0
 93
       13
 44
0.0
173
     0
291
     1
 45
0.0
1001
ACAD
1000
AcDbSavedByObjectVersion
1070
     0
  0
VISUALSTYLE
  5
2D
102
{ACAD_REACTORS
330
2A
102
}
102
{ACAD_XDICTIONARY
360
133
102
}
330
2A
100
AcDbVisualStyle
  2
Gouraud
 70
     2
 71
     2
 72
     2
 73
     1
 90
        2
 40
-0.6
 41
30.0
 62
     5
 63
     7
 74
     0
 91
        4
 64
     7
 65
   257
 75
     1
175
     1
 42
1.0
 92
        0
 66
     7
 43
1.0
 76
     1
 77
     6
 78
     2
 67
     7
 79
     5
170
     0
171
     0
290
     0
174
     0
 93
       13
 44
0.0
173
     0
291
     1
 45
0.0
1001
ACAD
1000
AcDbSavedByObjectVersion
1070
     0
  0
VISUALSTYLE
  5
2E
102
{ACAD_REACTORS
330
2A
102
}
102
{ACAD_XDICTIONARY
360
135
102
}
330
2A
100
AcDbVisualStyle
  2
GouraudWithEdges
 70
     3
 71
     2
 72
     2
 73
     1
 90
        2
 40
-0.6
 41
30.0
 62
     5
 63
     7
 74
     1
 91
        4
 64
     7
 65
   257
 75
     1
175
     1
 42
1.0
 92
        0
 66
   257
 43
1.0
 76
     1
 77
     6
 78
     2
 67
     7
 79
     5
170
     0
171
     0
290
     0
174
     0
 93
       13
 44
0.0
173
     0
291
     1
 45
0.0
1001
ACAD
1000
AcDbSavedByObjectVersion
1070
     0
  0
VISUALSTYLE
  5
38
102
{ACAD_REACTORS
330
2A
102
}
102
{ACAD_XDICTIONARY
360
149
102
}
330
2A
100
AcDbVisualStyle
  2
Linepattern
 70
    14
 71
     2
 72
     2
 73
     0
 90
        0
 40
-0.6
 41
-30.0
 62
     5
 63
     7
 74
     1
 91
        4
 64
     7
 65
   257
 75
     7
175
     7
 42
1.0
 92
        8
 66
     7
 43
1.0
 76
     1
 77
     6
 78
     2
 67
     7
 79
     5
170
     0
171
     0
290
     0
174
     0
 93
        1
 44
0.0
173
     0
291
     1
 45
0.0
1001
ACAD
1000
AcDbSavedByObjectVersion
1070
     0
  0
VISUALSTYLE
  5
33
102
{ACAD_REACTORS
330
2A
102
}
102
{ACAD_XDICTIONARY
360
13F
102
}
330
2A
100
AcDbVisualStyle
  2
Realistic
 70
     8
 71
     2
 72
     2
 73
     0
 90
        0
 40
-0.6
 41
-30.0
 62
     5
 63
     7
 74
     1
 91
        0
 64
     7
 65
   257
 75
     1
175
     1
 42
1.0
 92
        8
 66
     8
 43
1.0
 76
     1
 77
     6
 78
     2
 67
     7
 79
     5
170
     0
171
     0
290
     0
174
     0
 93
       13
 44
0.0
173
     0
291
     0
 45
0.0
1001
ACAD
1000
AcDbSavedByObjectVersion
1070
     0
  0
VISUALSTYLE
  5
37
102
{ACAD_REACTORS
330
2A
102
}
102
{ACAD_XDICTIONARY
360
147
102
}
330
2A
100
AcDbVisualStyle
  2
Thicken
 70
    13
 71
     2
 72
     2
 73
     0
 90
        0
 40
-0.6
 41
-30.0
 62
     5
 63
     7
 74
     1
 91
        4
 64
     7
 65
   257
 75
     1
175
     1
 42
1.0
 92
       12
 66
     7
 43
1.0
 76
     1
 77
     6
 78
     2
 67
     7
 79
     5
170
     0
171
     0
290
     0
174
     0
 93
        1
 44
0.0
173
     0
291
     1
 45
0.0
1001
ACAD
1000
AcDbSavedByObjectVersion
1070
     0
  0
DICTIONARYVAR
  5
12D
102
{ACAD_REACTORS
330
12A
102
}
330
12A
100
DictionaryVariables
280
     0
  1
2
  0
DICTIONARYVAR
  5
12E
102
{ACAD_REACTORS
330
12A
102
}
330
12A
100
DictionaryVariables
280
     0
  1
1
  0
DICTIONARY
  5
151
330
3D
100
AcDbDictionary
280
     1
281
     1
  3
ACAD_XREC_ROUNDTRIP
360
152
  0
DICTIONARY
  5
14F
330
3C
100
AcDbDictionary
280
     1
281
     1
  3
ACAD_XREC_ROUNDTRIP
360
150
  0
DICTIONARY
  5
153
330
3E
100
AcDbDictionary
280
     1
281
     1
  3
ACAD_XREC_ROUNDTRIP
360
154
  0
DICTIONARY
  5
137
330
2F
100
AcDbDictionary
280
     1
281
     1
  3
ACAD_XREC_ROUNDTRIP
360
138
  0
DICTIONARY
  5
13B
330
31
100
AcDbDictionary
280
     1
281
     1
  3
ACAD_XREC_ROUNDTRIP
360
13C
  0
DICTIONARY
  5
139
330
30
100
AcDbDictionary
280
     1
281
     1
  3
ACAD_XREC_ROUNDTRIP
360
13A
  0
DICTIONARY
  5
13D
330
32
100
AcDbDictionary
280
     1
281
     1
  3
ACAD_XREC_ROUNDTRIP
360
13E
  0
DICTIONARY
  5
145
330
36
100
AcDbDictionary
280
     1
281
     1
  3
ACAD_XREC_ROUNDTRIP
360
146
  0
DICTIONARY
  5
14D
330
3A
100
AcDbDictionary
280
     1
281
     1
  3
ACAD_XREC_ROUNDTRIP
360
14E
  0
DICTIONARY
  5
141
330
34
100
AcDbDictionary
280
     1
281
     1
  3
ACAD_XREC_ROUNDTRIP
360
142
  0
DICTIONARY
  5
143
330
35
100
AcDbDictionary
280
     1
281
     1
  3
ACAD_XREC_ROUNDTRIP
360
144
  0
DICTIONARY
  5
14B
330
39
100
AcDbDictionary
280
     1
281
     1
  3
ACAD_XREC_ROUNDTRIP
360
14C
  0
DICTIONARY
  5
12F
330
2B
100
AcDbDictionary
280
     1
281
     1
  3
ACAD_XREC_ROUNDTRIP
360
130
  0
DICTIONARY
  5
131
330
2C
100
AcDbDictionary
280
     1
281
     1
  3
ACAD_XREC_ROUNDTRIP
360
132
  0
DICTIONARY
  5
133
330
2D
100
AcDbDictionary
280
     1
281
     1
  3
ACAD_XREC_ROUNDTRIP
360
134
  0
DICTIONARY
  5
135
330
2E
100
AcDbDictionary
280
     1
281
     1
  3
ACAD_XREC_ROUNDTRIP
360
136
  0
DICTIONARY
  5
149
330
38
100
AcDbDictionary
280
     1
281
     1
  3
ACAD_XREC_ROUNDTRIP
360
14A
  0
DICTIONARY
  5
13F
330
33
100
AcDbDictionary
280
     1
281
     1
  3
ACAD_XREC_ROUNDTRIP
360
140
  0
DICTIONARY
  5
147
330
37
100
AcDbDictionary
280
     1
281
     1
  3
ACAD_XREC_ROUNDTRIP
360
148
  0
XRECORD
  5
152
102
{ACAD_REACTORS
330
151
102
}
330
151
100
AcDbXrecord
280
     1
102
MATERIAL
148
0.0
149
0.0
149
0.0
 93
        0
 94
      127
282
     0
 72
     1
 77
     1
171
     1
175
     1
179
     1
273
     0
  0
XRECORD
  5
150
102
{ACAD_REACTORS
330
14F
102
}
330
14F
100
AcDbXrecord
280
     1
102
MATERIAL
148
0.0
149
0.0
149
0.0
 93
        0
 94
      127
282
     0
 72
     1
 77
     1
171
     1
175
     1
179
     1
273
     0
  0
XRECORD
  5
154
102
{ACAD_REACTORS
330
153
102
}
330
153
100
AcDbXrecord
280
     1
102
MATERIAL
148
0.0
149
0.0
149
0.0
 93
        0
 94
      127
282
     0
 72
     1
 77
     1
171
     1
175
     1
179
     1
273
     0
  0
XRECORD
  5
138
102
{ACAD_REACTORS
330
137
102
}
330
137
100
AcDbXrecord
280
     1
102
RTVSPropertyOp0
 70
     1
102
RTVSPropertyOp1
 70
     1
102
RTVSPropertyOp2
 70
     1
102
RTVSPropertyOp3
 70
     1
102
RTVSPropertyOp4
 70
     1
102
RTVSPropertyOp5
 70
     1
102
RTVSPropertyOp6
 70
     1
102
RTVSPropertyOp7
 70
     1
102
RTVSPropertyOp8
 70
     1
102
RTVSPropertyOp9
 70
     1
102
RTVSPropertyOp10
 70
     1
102
RTVSPropertyOp11
 70
     1
102
RTVSPropertyOp12
 70
     1
102
RTVSPropertyOp13
 70
     1
102
RTVSPropertyOp14
 70
     1
102
RTVSPropertyOp15
 70
     1
102
RTVSPropertyOp16
 70
     1
102
RTVSPropertyOp17
 70
     1
102
RTVSPropertyOp18
 70
     1
102
RTVSPropertyOp19
 70
     1
102
RTVSPropertyOp20
 70
     1
102
RTVSPropertyOp21
 70
     1
102
RTVSPropertyOp22
 70
     1
102
RTVSPropertyOp23
 70
     1
102
RTVSPropertyOp24
 70
     1
102
RTVSPropertyOp25
 70
     1
102
RTVSPropertyOp26
 70
     1
102
RTVSPropertyOp27
 70
     1
  0
XRECORD
  5
13C
102
{ACAD_REACTORS
330
13B
102
}
330
13B
100
AcDbXrecord
280
     1
102
RTVSPropertyOp0
 70
     1
102
RTVSPropertyOp1
 70
     1
102
RTVSPropertyOp2
 70
     1
102
RTVSPropertyOp3
 70
     1
102
RTVSPropertyOp4
 70
     1
102
RTVSPropertyOp5
 70
     1
102
RTVSPropertyOp6
 70
     1
102
RTVSPropertyOp7
 70
     1
102
RTVSPropertyOp8
 70
     1
102
RTVSPropertyOp9
 70
     1
102
RTVSPropertyOp10
 70
     1
102
RTVSPropertyOp11
 70
     1
102
RTVSPropertyOp12
 70
     1
102
RTVSPropertyOp13
 70
     1
102
RTVSPropertyOp14
 70
     1
102
RTVSPropertyOp15
 70
     1
102
RTVSPropertyOp16
 70
     1
102
RTVSPropertyOp17
 70
     1
102
RTVSPropertyOp18
 70
     1
102
RTVSPropertyOp19
 70
     1
102
RTVSPropertyOp20
 70
     1
102
RTVSPropertyOp21
 70
     1
102
RTVSPropertyOp22
 70
     1
102
RTVSPropertyOp23
 70
     1
102
RTVSPropertyOp24
 70
     1
102
RTVSPropertyOp25
 70
     1
102
RTVSPropertyOp26
 70
     1
102
RTVSPropertyOp27
 70
     1
  0
XRECORD
  5
13A
102
{ACAD_REACTORS
330
139
102
}
330
139
100
AcDbXrecord
280
     1
102
RTVSPropertyOp0
 70
     1
102
RTVSPropertyOp1
 70
     1
102
RTVSPropertyOp2
 70
     1
102
RTVSPropertyOp3
 70
     1
102
RTVSPropertyOp4
 70
     1
102
RTVSPropertyOp5
 70
     1
102
RTVSPropertyOp6
 70
     1
102
RTVSPropertyOp7
 70
     1
102
RTVSPropertyOp8
 70
     1
102
RTVSPropertyOp9
 70
     1
102
RTVSPropertyOp10
 70
     1
102
RTVSPropertyOp11
 70
     1
102
RTVSPropertyOp12
 70
     1
102
RTVSPropertyOp13
 70
     1
102
RTVSPropertyOp14
 70
     1
102
RTVSPropertyOp15
 70
     1
102
RTVSPropertyOp16
 70
     1
102
RTVSPropertyOp17
 70
     1
102
RTVSPropertyOp18
 70
     1
102
RTVSPropertyOp19
 70
     1
102
RTVSPropertyOp20
 70
     1
102
RTVSPropertyOp21
 70
     1
102
RTVSPropertyOp22
 70
     1
102
RTVSPropertyOp23
 70
     1
102
RTVSPropertyOp24
 70
     1
102
RTVSPropertyOp25
 70
     1
102
RTVSPropertyOp26
 70
     1
102
RTVSPropertyOp27
 70
     1
  0
XRECORD
  5
13E
102
{ACAD_REACTORS
330
13D
102
}
330
13D
100
AcDbXrecord
280
     1
102
RTVSPropertyOp0
 70
     1
102
RTVSPropertyOp1
 70
     1
102
RTVSPropertyOp2
 70
     1
102
RTVSPropertyOp3
 70
     1
102
RTVSPropertyOp4
 70
     1
102
RTVSPropertyOp5
 70
     1
102
RTVSPropertyOp6
 70
     1
102
RTVSPropertyOp7
 70
     1
102
RTVSPropertyOp8
 70
     1
102
RTVSPropertyOp9
 70
     1
102
RTVSPropertyOp10
 70
     1
102
RTVSPropertyOp11
 70
     1
102
RTVSPropertyOp12
 70
     1
102
RTVSPropertyOp13
 70
     1
102
RTVSPropertyOp14
 70
     1
102
RTVSPropertyOp15
 70
     1
102
RTVSPropertyOp16
 70
     1
102
RTVSPropertyOp17
 70
     1
102
RTVSPropertyOp18
 70
     1
102
RTVSPropertyOp19
 70
     1
102
RTVSPropertyOp20
 70
     1
102
RTVSPropertyOp21
 70
     1
102
RTVSPropertyOp22
 70
     1
102
RTVSPropertyOp23
 70
     1
102
RTVSPropertyOp24
 70
     1
102
RTVSPropertyOp25
 70
     1
102
RTVSPropertyOp26
 70
     1
102
RTVSPropertyOp27
 70
     1
  0
XRECORD
  5
146
102
{ACAD_REACTORS
330
145
102
}
330
145
100
AcDbXrecord
280
     1
102
RTVSPropertyOp0
 70
     1
102
RTVSPropertyOp1
 70
     1
102
RTVSPropertyOp2
 70
     1
102
RTVSPropertyOp3
 70
     1
102
RTVSPropertyOp4
 70
     1
102
RTVSPropertyOp5
 70
     1
102
RTVSPropertyOp6
 70
     1
102
RTVSPropertyOp7
 70
     1
102
RTVSPropertyOp8
 70
     1
102
RTVSPropertyOp9
 70
     1
102
RTVSPropertyOp10
 70
     1
102
RTVSPropertyOp11
 70
     1
102
RTVSPropertyOp12
 70
     1
102
RTVSPropertyOp13
 70
     1
102
RTVSPropertyOp14
 70
     1
102
RTVSPropertyOp15
 70
     1
102
RTVSPropertyOp16
 70
     1
102
RTVSPropertyOp17
 70
     1
102
RTVSPropertyOp18
 70
     1
102
RTVSPropertyOp19
 70
     1
102
RTVSPropertyOp20
 70
     1
102
RTVSPropertyOp21
 70
     1
102
RTVSPropertyOp22
 70
     1
102
RTVSPropertyOp23
 70
     1
102
RTVSPropertyOp24
 70
     1
102
RTVSPropertyOp25
 70
     1
102
RTVSPropertyOp26
 70
     1
102
RTVSPropertyOp27
 70
     1
  0
XRECORD
  5
14E
102
{ACAD_REACTORS
330
14D
102
}
330
14D
100
AcDbXrecord
280
     1
102
RTVSPropertyOp0
 70
     1
102
RTVSPropertyOp1
 70
     1
102
RTVSPropertyOp2
 70
     1
102
RTVSPropertyOp3
 70
     1
102
RTVSPropertyOp4
 70
     1
102
RTVSPropertyOp5
 70
     1
102
RTVSPropertyOp6
 70
     1
102
RTVSPropertyOp7
 70
     1
102
RTVSPropertyOp8
 70
     1
102
RTVSPropertyOp9
 70
     1
102
RTVSPropertyOp10
 70
     1
102
RTVSPropertyOp11
 70
     1
102
RTVSPropertyOp12
 70
     1
102
RTVSPropertyOp13
 70
     1
102
RTVSPropertyOp14
 70
     1
102
RTVSPropertyOp15
 70
     1
102
RTVSPropertyOp16
 70
     1
102
RTVSPropertyOp17
 70
     1
102
RTVSPropertyOp18
 70
     1
102
RTVSPropertyOp19
 70
     1
102
RTVSPropertyOp20
 70
     1
102
RTVSPropertyOp21
 70
     1
102
RTVSPropertyOp22
 70
     1
102
RTVSPropertyOp23
 70
     1
102
RTVSPropertyOp24
 70
     1
102
RTVSPropertyOp25
 70
     1
102
RTVSPropertyOp26
 70
     1
102
RTVSPropertyOp27
 70
     1
  0
XRECORD
  5
142
102
{ACAD_REACTORS
330
141
102
}
330
141
100
AcDbXrecord
280
     1
102
RTVSPropertyOp0
 70
     1
102
RTVSPropertyOp1
 70
     1
102
RTVSPropertyOp2
 70
     1
102
RTVSPropertyOp3
 70
     1
102
RTVSPropertyOp4
 70
     1
102
RTVSPropertyOp5
 70
     1
102
RTVSPropertyOp6
 70
     1
102
RTVSPropertyOp7
 70
     1
102
RTVSPropertyOp8
 70
     1
102
RTVSPropertyOp9
 70
     1
102
RTVSPropertyOp10
 70
     1
102
RTVSPropertyOp11
 70
     1
102
RTVSPropertyOp12
 70
     1
102
RTVSPropertyOp13
 70
     1
102
RTVSPropertyOp14
 70
     1
102
RTVSPropertyOp15
 70
     1
102
RTVSPropertyOp16
 70
     1
102
RTVSPropertyOp17
 70
     1
102
RTVSPropertyOp18
 70
     1
102
RTVSPropertyOp19
 70
     1
102
RTVSPropertyOp20
 70
     1
102
RTVSPropertyOp21
 70
     1
102
RTVSPropertyOp22
 70
     1
102
RTVSPropertyOp23
 70
     1
102
RTVSPropertyOp24
 70
     1
102
RTVSPropertyOp25
 70
     1
102
RTVSPropertyOp26
 70
     1
102
RTVSPropertyOp27
 70
     1
  0
XRECORD
  5
144
102
{ACAD_REACTORS
330
143
102
}
330
143
100
AcDbXrecord
280
     1
102
RTVSPropertyOp0
 70
     1
102
RTVSPropertyOp1
 70
     1
102
RTVSPropertyOp2
 70
     1
102
RTVSPropertyOp3
 70
     1
102
RTVSPropertyOp4
 70
     1
102
RTVSPropertyOp5
 70
     1
102
RTVSPropertyOp6
 70
     1
102
RTVSPropertyOp7
 70
     1
102
RTVSPropertyOp8
 70
     1
102
RTVSPropertyOp9
 70
     1
102
RTVSPropertyOp10
 70
     1
102
RTVSPropertyOp11
 70
     1
102
RTVSPropertyOp12
 70
     1
102
RTVSPropertyOp13
 70
     1
102
RTVSPropertyOp14
 70
     1
102
RTVSPropertyOp15
 70
     1
102
RTVSPropertyOp16
 70
     1
102
RTVSPropertyOp17
 70
     1
102
RTVSPropertyOp18
 70
     1
102
RTVSPropertyOp19
 70
     1
102
RTVSPropertyOp20
 70
     1
102
RTVSPropertyOp21
 70
     1
102
RTVSPropertyOp22
 70
     1
102
RTVSPropertyOp23
 70
     1
102
RTVSPropertyOp24
 70
     1
102
RTVSPropertyOp25
 70
     1
102
RTVSPropertyOp26
 70
     1
102
RTVSPropertyOp27
 70
     1
  0
XRECORD
  5
14C
102
{ACAD_REACTORS
330
14B
102
}
330
14B
100
AcDbXrecord
280
     1
102
RTVSPropertyOp0
 70
     1
102
RTVSPropertyOp1
 70
     1
102
RTVSPropertyOp2
 70
     1
102
RTVSPropertyOp3
 70
     1
102
RTVSPropertyOp4
 70
     1
102
RTVSPropertyOp5
 70
     1
102
RTVSPropertyOp6
 70
     1
102
RTVSPropertyOp7
 70
     1
102
RTVSPropertyOp8
 70
     1
102
RTVSPropertyOp9
 70
     1
102
RTVSPropertyOp10
 70
     1
102
RTVSPropertyOp11
 70
     1
102
RTVSPropertyOp12
 70
     1
102
RTVSPropertyOp13
 70
     1
102
RTVSPropertyOp14
 70
     1
102
RTVSPropertyOp15
 70
     1
102
RTVSPropertyOp16
 70
     1
102
RTVSPropertyOp17
 70
     1
102
RTVSPropertyOp18
 70
     1
102
RTVSPropertyOp19
 70
     1
102
RTVSPropertyOp20
 70
     1
102
RTVSPropertyOp21
 70
     1
102
RTVSPropertyOp22
 70
     1
102
RTVSPropertyOp23
 70
     1
102
RTVSPropertyOp24
 70
     1
102
RTVSPropertyOp25
 70
     1
102
RTVSPropertyOp26
 70
     1
102
RTVSPropertyOp27
 70
     1
  0
XRECORD
  5
130
102
{ACAD_REACTORS
330
12F
102
}
330
12F
100
AcDbXrecord
280
     1
102
RTVSPropertyOp0
 70
     1
102
RTVSPropertyOp1
 70
     1
102
RTVSPropertyOp2
 70
     1
102
RTVSPropertyOp3
 70
     1
102
RTVSPropertyOp4
 70
     1
102
RTVSPropertyOp5
 70
     1
102
RTVSPropertyOp6
 70
     1
102
RTVSPropertyOp7
 70
     1
102
RTVSPropertyOp8
 70
     1
102
RTVSPropertyOp9
 70
     1
102
RTVSPropertyOp10
 70
     1
102
RTVSPropertyOp11
 70
     1
102
RTVSPropertyOp12
 70
     1
102
RTVSPropertyOp13
 70
     1
102
RTVSPropertyOp14
 70
     1
102
RTVSPropertyOp15
 70
     1
102
RTVSPropertyOp16
 70
     1
102
RTVSPropertyOp17
 70
     1
102
RTVSPropertyOp18
 70
     1
102
RTVSPropertyOp19
 70
     1
102
RTVSPropertyOp20
 70
     1
102
RTVSPropertyOp21
 70
     1
102
RTVSPropertyOp22
 70
     1
102
RTVSPropertyOp23
 70
     1
102
RTVSPropertyOp24
 70
     1
102
RTVSPropertyOp25
 70
     1
102
RTVSPropertyOp26
 70
     1
102
RTVSPropertyOp27
 70
     1
  0
XRECORD
  5
132
102
{ACAD_REACTORS
330
131
102
}
330
131
100
AcDbXrecord
280
     1
102
RTVSPropertyOp0
 70
     1
102
RTVSPropertyOp1
 70
     1
102
RTVSPropertyOp2
 70
     1
102
RTVSPropertyOp3
 70
     1
102
RTVSPropertyOp4
 70
     1
102
RTVSPropertyOp5
 70
     1
102
RTVSPropertyOp6
 70
     1
102
RTVSPropertyOp7
 70
     1
102
RTVSPropertyOp8
 70
     1
102
RTVSPropertyOp9
 70
     1
102
RTVSPropertyOp10
 70
     1
102
RTVSPropertyOp11
 70
     1
102
RTVSPropertyOp12
 70
     1
102
RTVSPropertyOp13
 70
     1
102
RTVSPropertyOp14
 70
     1
102
RTVSPropertyOp15
 70
     1
102
RTVSPropertyOp16
 70
     1
102
RTVSPropertyOp17
 70
     1
102
RTVSPropertyOp18
 70
     1
102
RTVSPropertyOp19
 70
     1
102
RTVSPropertyOp20
 70
     1
102
RTVSPropertyOp21
 70
     1
102
RTVSPropertyOp22
 70
     1
102
RTVSPropertyOp23
 70
     1
102
RTVSPropertyOp24
 70
     1
102
RTVSPropertyOp25
 70
     1
102
RTVSPropertyOp26
 70
     1
102
RTVSPropertyOp27
 70
     1
  0
XRECORD
  5
134
102
{ACAD_REACTORS
330
133
102
}
330
133
100
AcDbXrecord
280
     1
102
RTVSPropertyOp0
 70
     1
102
RTVSPropertyOp1
 70
     1
102
RTVSPropertyOp2
 70
     1
102
RTVSPropertyOp3
 70
     1
102
RTVSPropertyOp4
 70
     1
102
RTVSPropertyOp5
 70
     1
102
RTVSPropertyOp6
 70
     1
102
RTVSPropertyOp7
 70
     1
102
RTVSPropertyOp8
 70
     1
102
RTVSPropertyOp9
 70
     1
102
RTVSPropertyOp10
 70
     1
102
RTVSPropertyOp11
 70
     1
102
RTVSPropertyOp12
 70
     1
102
RTVSPropertyOp13
 70
     1
102
RTVSPropertyOp14
 70
     1
102
RTVSPropertyOp15
 70
     1
102
RTVSPropertyOp16
 70
     1
102
RTVSPropertyOp17
 70
     1
102
RTVSPropertyOp18
 70
     1
102
RTVSPropertyOp19
 70
     1
102
RTVSPropertyOp20
 70
     1
102
RTVSPropertyOp21
 70
     1
102
RTVSPropertyOp22
 70
     1
102
RTVSPropertyOp23
 70
     1
102
RTVSPropertyOp24
 70
     1
102
RTVSPropertyOp25
 70
     1
102
RTVSPropertyOp26
 70
     1
102
RTVSPropertyOp27
 70
     1
  0
XRECORD
  5
136
102
{ACAD_REACTORS
330
135
102
}
330
135
100
AcDbXrecord
280
     1
102
RTVSPropertyOp0
 70
     1
102
RTVSPropertyOp1
 70
     1
102
RTVSPropertyOp2
 70
     1
102
RTVSPropertyOp3
 70
     1
102
RTVSPropertyOp4
 70
     1
102
RTVSPropertyOp5
 70
     1
102
RTVSPropertyOp6
 70
     1
102
RTVSPropertyOp7
 70
     1
102
RTVSPropertyOp8
 70
     1
102
RTVSPropertyOp9
 70
     1
102
RTVSPropertyOp10
 70
     1
102
RTVSPropertyOp11
 70
     1
102
RTVSPropertyOp12
 70
     1
102
RTVSPropertyOp13
 70
     1
102
RTVSPropertyOp14
 70
     1
102
RTVSPropertyOp15
 70
     1
102
RTVSPropertyOp16
 70
     1
102
RTVSPropertyOp17
 70
     1
102
RTVSPropertyOp18
 70
     1
102
RTVSPropertyOp19
 70
     1
102
RTVSPropertyOp20
 70
     1
102
RTVSPropertyOp21
 70
     1
102
RTVSPropertyOp22
 70
     1
102
RTVSPropertyOp23
 70
     1
102
RTVSPropertyOp24
 70
     1
102
RTVSPropertyOp25
 70
     1
102
RTVSPropertyOp26
 70
     1
102
RTVSPropertyOp27
 70
     1
  0
XRECORD
  5
14A
102
{ACAD_REACTORS
330
149
102
}
330
149
100
AcDbXrecord
280
     1
102
RTVSPropertyOp0
 70
     1
102
RTVSPropertyOp1
 70
     1
102
RTVSPropertyOp2
 70
     1
102
RTVSPropertyOp3
 70
     1
102
RTVSPropertyOp4
 70
     1
102
RTVSPropertyOp5
 70
     1
102
RTVSPropertyOp6
 70
     1
102
RTVSPropertyOp7
 70
     1
102
RTVSPropertyOp8
 70
     1
102
RTVSPropertyOp9
 70
     1
102
RTVSPropertyOp10
 70
     1
102
RTVSPropertyOp11
 70
     1
102
RTVSPropertyOp12
 70
     1
102
RTVSPropertyOp13
 70
     1
102
RTVSPropertyOp14
 70
     1
102
RTVSPropertyOp15
 70
     1
102
RTVSPropertyOp16
 70
     1
102
RTVSPropertyOp17
 70
     1
102
RTVSPropertyOp18
 70
     1
102
RTVSPropertyOp19
 70
     1
102
RTVSPropertyOp20
 70
     1
102
RTVSPropertyOp21
 70
     1
102
RTVSPropertyOp22
 70
     1
102
RTVSPropertyOp23
 70
     1
102
RTVSPropertyOp24
 70
     1
102
RTVSPropertyOp25
 70
     1
102
RTVSPropertyOp26
 70
     1
102
RTVSPropertyOp27
 70
     1
  0
XRECORD
  5
140
102
{ACAD_REACTORS
330
13F
102
}
330
13F
100
AcDbXrecord
280
     1
102
RTVSPropertyOp0
 70
     1
102
RTVSPropertyOp1
 70
     1
102
RTVSPropertyOp2
 70
     1
102
RTVSPropertyOp3
 70
     1
102
RTVSPropertyOp4
 70
     1
102
RTVSPropertyOp5
 70
     1
102
RTVSPropertyOp6
 70
     1
102
RTVSPropertyOp7
 70
     1
102
RTVSPropertyOp8
 70
     1
102
RTVSPropertyOp9
 70
     1
102
RTVSPropertyOp10
 70
     1
102
RTVSPropertyOp11
 70
     1
102
RTVSPropertyOp12
 70
     1
102
RTVSPropertyOp13
 70
     1
102
RTVSPropertyOp14
 70
     1
102
RTVSPropertyOp15
 70
     1
102
RTVSPropertyOp16
 70
     1
102
RTVSPropertyOp17
 70
     1
102
RTVSPropertyOp18
 70
     1
102
RTVSPropertyOp19
 70
     1
102
RTVSPropertyOp20
 70
     1
102
RTVSPropertyOp21
 70
     1
102
RTVSPropertyOp22
 70
     1
102
RTVSPropertyOp23
 70
     1
102
RTVSPropertyOp24
 70
     1
102
RTVSPropertyOp25
 70
     1
102
RTVSPropertyOp26
 70
     1
102
RTVSPropertyOp27
 70
     1
  0
XRECORD
  5
148
102
{ACAD_REACTORS
330
147
102
}
330
147
100
AcDbXrecord
280
     1
102
RTVSPropertyOp0
 70
     1
102
RTVSPropertyOp1
 70
     1
102
RTVSPropertyOp2
 70
     1
102
RTVSPropertyOp3
 70
     1
102
RTVSPropertyOp4
 70
     1
102
RTVSPropertyOp5
 70
     1
102
RTVSPropertyOp6
 70
     1
102
RTVSPropertyOp7
 70
     1
102
RTVSPropertyOp8
 70
     1
102
RTVSPropertyOp9
 70
     1
102
RTVSPropertyOp10
 70
     1
102
RTVSPropertyOp11
 70
     1
102
RTVSPropertyOp12
 70
     1
102
RTVSPropertyOp13
 70
     1
102
RTVSPropertyOp14
 70
     1
102
RTVSPropertyOp15
 70
     1
102
RTVSPropertyOp16
 70
     1
102
RTVSPropertyOp17
 70
     1
102
RTVSPropertyOp18
 70
     1
102
RTVSPropertyOp19
 70
     1
102
RTVSPropertyOp20
 70
     1
102
RTVSPropertyOp21
 70
     1
102
RTVSPropertyOp22
 70
     1
102
RTVSPropertyOp23
 70
     1
102
RTVSPropertyOp24
 70
     1
102
RTVSPropertyOp25
 70
     1
102
RTVSPropertyOp26
 70
     1
102
RTVSPropertyOp27
 70
     1
  0
ENDSEC
  0
EOF
