  0
SECTION
  2
HEADER
  9
$ACADVER
  1
AC1014
  9
$ACADMAINTVER
 70
     9
  9
$DWGCODEPAGE
  3
ANSI_1250
  9
$INSBASE
 10
0.0
 20
0.0
 30
0.0
  9
$EXTMIN
 10
-27.9877
 20
-26.4347
 30
0.0
  9
$EXTMAX
 10
27.9877
 20
26.3527
 30
0.0
  9
$LIMMIN
 10
0.0
 20
0.0
  9
$LIMMAX
 10
12.0
 20
9.0
  9
$ORTHOMODE
 70
     0
  9
$REGENMODE
 70
     1
  9
$FILLMODE
 70
     1
  9
$QTEXTMODE
 70
     0
  9
$MIRRTEXT
 70
     1
  9
$DRAGMODE
 70
     2
  9
$LTSCALE
 40
1.0
  9
$OSMODE
 70
    37
  9
$ATTMODE
 70
     1
  9
$TEXTSIZE
 40
0.2
  9
$TRACEWID
 40
0.05
  9
$TEXTSTYLE
  7
STANDARD
  9
$CLAYER
  8
0
  9
$CELTYPE
  6
BYLAYER
  9
$CECOLOR
 62
   256
  9
$CELTSCALE
 40
1.0
  9
$DELOBJ
 70
     1
  9
$DISPSILH
 70
     0
  9
$DIMSCALE
 40
1.0
  9
$DIMASZ
 40
0.18
  9
$DIMEXO
 40
0.0625
  9
$DIMDLI
 40
0.38
  9
$DIMRND
 40
0.0
  9
$DIMDLE
 40
0.0
  9
$DIMEXE
 40
0.18
  9
$DIMTP
 40
0.0
  9
$DIMTM
 40
0.0
  9
$DIMTXT
 40
0.18
  9
$DIMCEN
 40
0.09
  9
$DIMTSZ
 40
0.0
  9
$DIMTOL
 70
     0
  9
$DIMLIM
 70
     0
  9
$DIMTIH
 70
     1
  9
$DIMTOH
 70
     1
  9
$DIMSE1
 70
     0
  9
$DIMSE2
 70
     0
  9
$DIMTAD
 70
     0
  9
$DIMZIN
 70
     0
  9
$DIMBLK
  1

  9
$DIMASO
 70
     1
  9
$DIMSHO
 70
     1
  9
$DIMPOST
  1

  9
$DIMAPOST
  1

  9
$DIMALT
 70
     0
  9
$DIMALTD
 70
     2
  9
$DIMALTF
 40
25.4
  9
$DIMLFAC
 40
1.0
  9
$DIMTOFL
 70
     0
  9
$DIMTVP
 40
0.0
  9
$DIMTIX
 70
     0
  9
$DIMSOXD
 70
     0
  9
$DIMSAH
 70
     0
  9
$DIMBLK1
  1

  9
$DIMBLK2
  1

  9
$DIMSTYLE
  2
STANDARD
  9
$DIMCLRD
 70
     0
  9
$DIMCLRE
 70
     0
  9
$DIMCLRT
 70
     0
  9
$DIMTFAC
 40
1.0
  9
$DIMGAP
 40
0.09
  9
$DIMJUST
 70
     0
  9
$DIMSD1
 70
     0
  9
$DIMSD2
 70
     0
  9
$DIMTOLJ
 70
     1
  9
$DIMTZIN
 70
     0
  9
$DIMALTZ
 70
     0
  9
$DIMALTTZ
 70
     0
  9
$DIMFIT
 70
     3
  9
$DIMUPT
 70
     0
  9
$DIMUNIT
 70
     2
  9
$DIMDEC
 70
     4
  9
$DIMTDEC
 70
     4
  9
$DIMALTU
 70
     2
  9
$DIMALTTD
 70
     2
  9
$DIMTXSTY
  7
STANDARD
  9
$DIMAUNIT
 70
     0
  9
$LUNITS
 70
     2
  9
$LUPREC
 70
     4
  9
$SKETCHINC
 40
0.1
  9
$FILLETRAD
 40
0.5
  9
$AUNITS
 70
     0
  9
$AUPREC
 70
     0
  9
$MENU
  1
.
  9
$ELEVATION
 40
0.0
  9
$PELEVATION
 40
0.0
  9
$THICKNESS
 40
0.0
  9
$LIMCHECK
 70
     0
  9
$CHAMFERA
 40
0.5
  9
$CHAMFERB
 40
0.5
  9
$CHAMFERC
 40
1.0
  9
$CHAMFERD
 40
0.0
  9
$SKPOLY
 70
     0
  9
$TDCREATE
 40
2456272.429380521
  9
$TDUPDATE
 40
2456272.429380532
  9
$TDINDWG
 40
0.0000000116
  9
$TDUSRTIMER
 40
0.0000000116
  9
$USRTIMER
 70
     1
  9
$ANGBASE
 50
0.0
  9
$ANGDIR
 70
     0
  9
$PDMODE
 70
     0
  9
$PDSIZE
 40
0.0
  9
$PLINEWID
 40
0.0
  9
$COORDS
 70
     1
  9
$SPLFRAME
 70
     0
  9
$SPLINETYPE
 70
     6
  9
$SPLINESEGS
 70
     8
  9
$ATTDIA
 70
     0
  9
$ATTREQ
 70
     1
  9
$HANDLING
 70
     1
  9
$HANDSEED
  5
BE
  9
$SURFTAB1
 70
     6
  9
$SURFTAB2
 70
     6
  9
$SURFTYPE
 70
     6
  9
$SURFU
 70
     6
  9
$SURFV
 70
     6
  9
$UCSNAME
  2

  9
$UCSORG
 10
0.0
 20
0.0
 30
0.0
  9
$UCSXDIR
 10
1.0
 20
0.0
 30
0.0
  9
$UCSYDIR
 10
0.0
 20
1.0
 30
0.0
  9
$PUCSNAME
  2

  9
$PUCSORG
 10
0.0
 20
0.0
 30
0.0
  9
$PUCSXDIR
 10
1.0
 20
0.0
 30
0.0
  9
$PUCSYDIR
 10
0.0
 20
1.0
 30
0.0
  9
$USERI1
 70
     0
  9
$USERI2
 70
     0
  9
$USERI3
 70
     0
  9
$USERI4
 70
     0
  9
$USERI5
 70
     0
  9
$USERR1
 40
0.0
  9
$USERR2
 40
0.0
  9
$USERR3
 40
0.0
  9
$USERR4
 40
0.0
  9
$USERR5
 40
0.0
  9
$WORLDVIEW
 70
     1
  9
$SHADEDGE
 70
     3
  9
$SHADEDIF
 70
    70
  9
$TILEMODE
 70
     1
  9
$MAXACTVP
 70
    64
  9
$PINSBASE
 10
0.0
 20
0.0
 30
0.0
  9
$PLIMCHECK
 70
     0
  9
$PEXTMIN
 10
1.000000000000000E+20
 20
1.000000000000000E+20
 30
1.000000000000000E+20
  9
$PEXTMAX
 10
-1.000000000000000E+20
 20
-1.000000000000000E+20
 30
-1.000000000000000E+20
  9
$PLIMMIN
 10
0.0
 20
0.0
  9
$PLIMMAX
 10
12.0
 20
9.0
  9
$UNITMODE
 70
     0
  9
$VISRETAIN
 70
     1
  9
$PLINEGEN
 70
     0
  9
$PSLTSCALE
 70
     1
  9
$TREEDEPTH
 70
  3020
  9
$PICKSTYLE
 70
     1
  9
$CMLSTYLE
  2
STANDARD
  9
$CMLJUST
 70
     0
  9
$CMLSCALE
 40
1.0
  9
$PROXYGRAPHICS
 70
     1
  9
$MEASUREMENT
 70
     0
  0
ENDSEC
  0
SECTION
  2
CLASSES
  0
CLASS
  1
ACDBDICTIONARYWDFLT
  2
AcDbDictionaryWithDefault
  3
ObjectDBX Classes
 90
        0
280
     0
281
     0
  0
CLASS
  1
VISUALSTYLE
  2
AcDbVisualStyle
  3
ObjectDBX Classes
 90
     4095
280
     0
281
     0
  0
CLASS
  1
MATERIAL
  2
AcDbMaterial
  3
ObjectDBX Classes
 90
     1153
280
     0
281
     0
  0
CLASS
  1
DICTIONARYVAR
  2
AcDbDictionaryVar
  3
ObjectDBX Classes
 90
        0
280
     0
281
     0
  0
CLASS
  1
XRECORD
  2
AcDbXrecord
  3
AutoCAD 2000
 90
        0
280
     0
281
     0
  0
CLASS
  1
LWPOLYLINE
  2
AcDbPolyline
  3
AutoCAD 2000
 90
        0
280
     0
281
     1
  0
CLASS
  1
HATCH
  2
AcDbHatch
  3
AutoCAD 2000
 90
        0
280
     0
281
     1
  0
CLASS
  1
ACDBPLACEHOLDER
  2
AcDbPlaceHolder
  3
ObjectDBX Classes
 90
        0
280
     0
281
     0
  0
CLASS
  1
LAYOUT
  2
AcDbLayout
  3
ObjectDBX Classes
 90
        0
280
     0
281
     0
  0
ENDSEC
  0
SECTION
  2
TABLES
  0
TABLE
  2
VPORT
  5
8
330
0
100
AcDbSymbolTable
 70
     1
  0
VPORT
  5
29
330
8
100
AcDbSymbolTableRecord
100
AcDbViewportTableRecord
  2
*ACTIVE
 70
     0
 10
0.0
 20
0.0
 11
1.0
 21
1.0
 12
10.42990654205607
 22
4.5
 13
0.0
 23
0.0
 14
0.5
 24
0.5
 15
0.5
 25
0.5
 16
0.0
 26
0.0
 36
1.0
 17
0.0
 27
0.0
 37
0.0
 40
9.0
 41
1.972972972850329
 42
50.0
 43
0.0
 44
0.0
 50
0.0
 51
0.0
 71
     0
 72
   100
 73
     1
 74
     3
 75
     0
 76
     0
 77
     0
 78
     0
  0
ENDTAB
  0
TABLE
  2
LTYPE
  5
5
330
0
100
AcDbSymbolTable
 70
     3
  0
LTYPE
  5
14
330
5
100
AcDbSymbolTableRecord
100
AcDbLinetypeTableRecord
  2
BYBLOCK
 70
     0
  3

 72
    65
 73
     0
 40
0.0
  0
LTYPE
  5
15
330
5
100
AcDbSymbolTableRecord
100
AcDbLinetypeTableRecord
  2
BYLAYER
 70
     0
  3

 72
    65
 73
     0
 40
0.0
  0
LTYPE
  5
16
330
5
100
AcDbSymbolTableRecord
100
AcDbLinetypeTableRecord
  2
CONTINUOUS
 70
     0
  3
Solid line
 72
    65
 73
     0
 40
0.0
  0
LTYPE
  5
5B
330
5
100
AcDbSymbolTableRecord
100
AcDbLinetypeTableRecord
  2
NEW_LINE1
 70
     0
  3

 72
    65
 73
     4
 40
1.2
 49
0.5
 74
     4
 75
     0
340
0
 46
1.0
 50
0.0
 44
0.0
 45
0.0
 49
-0.3
 74
     4
 75
     0
340
0
 46
1.0
 50
0.0
 44
0.0
 45
0.0
 49
0.1
 74
     4
 75
     0
340
0
 46
1.0
 50
0.0
 44
0.0
 45
0.0
 49
-0.3
 74
     4
 75
     0
340
0
 46
1.0
 50
0.0
 44
0.0
 45
0.0
  0
LTYPE
  5
8C
330
5
100
AcDbSymbolTableRecord
100
AcDbLinetypeTableRecord
  2
NEW_LINE2
 70
     0
  3

 72
    65
 73
     4
 40
1.2
 49
0.5
 74
     4
 75
     0
340
0
 46
1.0
 50
0.0
 44
0.0
 45
0.0
 49
-0.3
 74
     4
 75
     0
340
0
 46
1.0
 50
0.0
 44
0.0
 45
0.0
 49
0.1
 74
     4
 75
     0
340
0
 46
1.0
 50
0.0
 44
0.0
 45
0.0
 49
-0.3
 74
     4
 75
     0
340
0
 46
1.0
 50
0.0
 44
0.0
 45
0.0
  0
ENDTAB
  0
TABLE
  2
LAYER
  5
2
330
0
100
AcDbSymbolTable
 70
     2
  0
LAYER
  5
10
330
2
100
AcDbSymbolTableRecord
100
AcDbLayerTableRecord
  2
0
 70
     0
 62
     7
  6
CONTINUOUS
  0
LAYER
  5
40
330
2
100
AcDbSymbolTableRecord
100
AcDbLayerTableRecord
  2
ROUND
 70
     0
 62
     7
  6
CONTINUOUS
  0
ENDTAB
  0
TABLE
  2
STYLE
  5
3
330
0
100
AcDbSymbolTable
 70
     1
  0
STYLE
  5
11
330
3
100
AcDbSymbolTableRecord
100
AcDbTextStyleTableRecord
  2
STANDARD
 70
     0
 40
0.0
 41
1.0
 50
0.0
 71
     0
 42
0.2
  3
txt
  4

  0
ENDTAB
  0
TABLE
  2
VIEW
  5
6
330
0
100
AcDbSymbolTable
 70
     0
  0
ENDTAB
  0
TABLE
  2
UCS
  5
7
330
0
100
AcDbSymbolTable
 70
     0
  0
ENDTAB
  0
TABLE
  2
APPID
  5
9
330
0
100
AcDbSymbolTable
 70
     2
  0
APPID
  5
12
330
9
100
AcDbSymbolTableRecord
100
AcDbRegAppTableRecord
  2
ACAD
 70
     0
  0
APPID
  5
3F
330
9
100
AcDbSymbolTableRecord
100
AcDbRegAppTableRecord
  2
ODA
 70
     0
  0
ENDTAB
  0
TABLE
  2
DIMSTYLE
  5
A
330
0
100
AcDbSymbolTable
 70
     1
  0
DIMSTYLE
105
27
330
A
100
AcDbSymbolTableRecord
100
AcDbDimStyleTableRecord
  2
STANDARD
 70
     0
  3

  4

  5

  6

  7

 40
1.0
 41
0.18
 42
0.0625
 43
0.38
 44
0.18
 45
0.0
 46
0.0
 47
0.0
 48
0.0
140
0.18
141
0.09
142
0.0
143
25.4
144
1.0
145
0.0
146
1.0
147
0.09
 71
     0
 72
     0
 73
     1
 74
     1
 75
     0
 76
     0
 77
     0
 78
     0
170
     0
171
     2
172
     0
173
     0
174
     0
175
     0
176
     0
177
     0
178
     0
270
     2
271
     4
272
     4
273
     2
274
     2
340
11
275
     0
280
     0
281
     0
282
     0
283
     1
284
     0
285
     0
286
     0
287
     3
288
     0
  0
ENDTAB
  0
TABLE
  2
BLOCK_RECORD
  5
1
330
0
100
AcDbSymbolTable
 70
     1
  0
BLOCK_RECORD
  5
1F
330
1
100
AcDbSymbolTableRecord
100
AcDbBlockTableRecord
  2
*MODEL_SPACE
  0
BLOCK_RECORD
  5
1B
330
1
100
AcDbSymbolTableRecord
100
AcDbBlockTableRecord
  2
*PAPER_SPACE
  0
ENDTAB
  0
ENDSEC
  0
SECTION
  2
BLOCKS
  0
BLOCK
  5
20
330
1F
100
AcDbEntity
  8
0
100
AcDbBlockBegin
  2
*MODEL_SPACE
 70
     0
 10
0.0
 20
0.0
 30
0.0
  3
*MODEL_SPACE
  1

  0
ENDBLK
  5
21
330
1F
100
AcDbEntity
  8
0
100
AcDbBlockEnd
  0
BLOCK
  5
1C
330
1B
100
AcDbEntity
 67
     1
  8
0
100
AcDbBlockBegin
  2
*PAPER_SPACE
 70
     0
 10
0.0
 20
0.0
 30
0.0
  3
*PAPER_SPACE
  1

  0
ENDBLK
  5
1D
330
1B
100
AcDbEntity
 67
     1
  8
0
100
AcDbBlockEnd
  0
ENDSEC
  0
SECTION
  2
ENTITIES
  0
SPLINE
  5
41
330
1F
100
AcDbEntity
  8
ROUND
 62
   250
100
AcDbSpline
210
0.0
220
0.0
230
1.0
 70
    11
 71
     3
 72
    92
 73
    88
 74
     0
 42
0.0000000001
 43
0.0000000001
 40
0.0
 40
0.0
 40
0.0
 40
0.0
 40
0.0434782608695652
 40
0.0434782608695652
 40
0.0434782608695652
 40
0.0434782608695652
 40
0.0869565217391304
 40
0.0869565217391304
 40
0.0869565217391304
 40
0.0869565217391304
 40
0.1304347826086956
 40
0.1304347826086956
 40
0.1304347826086956
 40
0.1304347826086956
 40
0.1739130434782609
 40
0.1739130434782609
 40
0.1739130434782609
 40
0.1739130434782609
 40
0.2173913043478261
 40
0.2173913043478261
 40
0.2173913043478261
 40
0.2173913043478261
 40
0.2608695652173913
 40
0.2608695652173913
 40
0.2608695652173913
 40
0.2608695652173913
 40
0.3043478260869565
 40
0.3043478260869565
 40
0.3043478260869565
 40
0.3043478260869565
 40
0.3478260869565217
 40
0.3478260869565217
 40
0.3478260869565217
 40
0.3478260869565217
 40
0.391304347826087
 40
0.391304347826087
 40
0.391304347826087
 40
0.391304347826087
 40
0.4347826086956522
 40
0.4347826086956522
 40
0.4347826086956522
 40
0.4347826086956522
 40
0.4782608695652174
 40
0.4782608695652174
 40
0.4782608695652174
 40
0.4782608695652174
 40
0.5217391304347826
 40
0.5217391304347826
 40
0.5217391304347826
 40
0.5217391304347826
 40
0.5652173913043478
 40
0.5652173913043478
 40
0.5652173913043478
 40
0.5652173913043478
 40
0.6086956521739131
 40
0.6086956521739131
 40
0.6086956521739131
 40
0.6086956521739131
 40
0.6521739130434783
 40
0.6521739130434783
 40
0.6521739130434783
 40
0.6521739130434783
 40
0.6956521739130435
 40
0.6956521739130435
 40
0.6956521739130435
 40
0.6956521739130435
 40
0.7391304347826086
 40
0.7391304347826086
 40
0.7391304347826086
 40
0.7391304347826086
 40
0.782608695652174
 40
0.782608695652174
 40
0.782608695652174
 40
0.782608695652174
 40
0.8260869565217391
 40
0.8260869565217391
 40
0.8260869565217391
 40
0.8260869565217391
 40
0.8695652173913043
 40
0.8695652173913043
 40
0.8695652173913043
 40
0.8695652173913043
 40
0.9130434782608695
 40
0.9130434782608695
 40
0.9130434782608695
 40
0.9130434782608695
 40
1.0
 40
1.0
 40
1.0
 40
1.0
 10
-25.1261
 20
-4.1923
 30
0.0
 10
-25.1261
 20
-4.1923
 30
0.0
 10
-25.1663
 20
-3.7552
 30
0.0
 10
-25.1663
 20
-3.7552
 30
0.0
 10
-25.1663
 20
-3.7552
 30
0.0
 10
-24.961
 20
-3.7183
 30
0.0
 10
-24.8118
 20
-3.6478
 30
0.0
 10
-24.7187
 20
-3.5435
 30
0.0
 10
-24.7187
 20
-3.5435
 30
0.0
 10
-24.6261
 20
-3.4393
 30
0.0
 10
-24.5793
 20
-3.3057
 30
0.0
 10
-24.5792
 20
-3.1418
 30
0.0
 10
-24.5792
 20
-3.1418
 30
0.0
 10
-24.5792
 20
-3.0022
 30
0.0
 10
-24.6109
 20
-2.8799
 30
0.0
 10
-24.6754
 20
-2.7747
 30
0.0
 10
-24.6754
 20
-2.7747
 30
0.0
 10
-24.7392
 20
-2.6693
 30
0.0
 10
-24.8244
 20
-2.5829
 30
0.0
 10
-24.9313
 20
-2.5157
 30
0.0
 10
-24.9313
 20
-2.5157
 30
0.0
 10
-25.0382
 20
-2.4475
 30
0.0
 10
-25.183
 20
-2.3912
 30
0.0
 10
-25.3639
 20
-2.3454
 30
0.0
 10
-25.3639
 20
-2.3454
 30
0.0
 10
-25.5459
 20
-2.3003
 30
0.0
 10
-25.7312
 20
-2.2768
 30
0.0
 10
-25.92
 20
-2.2766
 30
0.0
 10
-25.92
 20
-2.2766
 30
0.0
 10
-25.9398
 20
-2.2766
 30
0.0
 10
-25.971
 20
-2.2774
 30
0.0
 10
-26.0106
 20
-2.279
 30
0.0
 10
-26.0106
 20
-2.279
 30
0.0
 10
-25.8667
 20
-2.3707
 30
0.0
 10
-25.7486
 20
-2.495
 30
0.0
 10
-25.6592
 20
-2.6519
 30
0.0
 10
-25.6592
 20
-2.6519
 30
0.0
 10
-25.5688
 20
-2.8099
 30
0.0
 10
-25.5243
 20
-2.9807
 30
0.0
 10
-25.5245
 20
-3.1635
 30
0.0
 10
-25.5245
 20
-3.1635
 30
0.0
 10
-25.5246
 20
-3.4703
 30
0.0
 10
-25.6361
 20
-3.7297
 30
0.0
 10
-25.8588
 20
-3.9416
 30
0.0
 10
-25.8588
 20
-3.9416
 30
0.0
 10
-26.0813
 20
-4.1535
 30
0.0
 10
-26.3739
 20
-4.2593
 30
0.0
 10
-26.7378
 20
-4.2589
 30
0.0
 10
-26.7378
 20
-4.2589
 30
0.0
 10
-27.1137
 20
-4.2585
 30
0.0
 10
-27.4152
 20
-4.1478
 30
0.0
 10
-27.6444
 20
-3.926
 30
0.0
 10
-27.6444
 20
-3.926
 30
0.0
 10
-27.8735
 20
-3.7042
 30
0.0
 10
-27.9879
 20
-3.4263
 30
0.0
 10
-27.9875
 20
-3.0927
 30
0.0
 10
-27.9875
 20
-3.0927
 30
0.0
 10
-27.9873
 20
-2.8522
 30
0.0
 10
-27.9215
 20
-2.6322
 30
0.0
 10
-27.7921
 20
-2.4324
 30
0.0
 10
-27.7921
 20
-2.4324
 30
0.0
 10
-27.6623
 20
-2.2336
 30
0.0
 10
-27.477
 20
-2.082
 30
0.0
 10
-27.2371
 20
-1.9786
 30
0.0
 10
-27.2371
 20
-1.9786
 30
0.0
 10
-26.9973
 20
-1.8756
 30
0.0
 10
-26.6498
 20
-1.8242
 30
0.0
 10
-26.1946
 20
-1.8246
 30
0.0
 10
-26.1946
 20
-1.8246
 30
0.0
 10
-25.7221
 20
-1.8252
 30
0.0
 10
-25.3454
 20
-1.8763
 30
0.0
 10
-25.0644
 20
-1.9793
 30
0.0
 10
-25.0644
 20
-1.9793
 30
0.0
 10
-24.7843
 20
-2.0829
 30
0.0
 10
-24.5715
 20
-2.2358
 30
0.0
 10
-24.4252
 20
-2.4385
 30
0.0
 10
-24.4252
 20
-2.4385
 30
0.0
 10
-24.2787
 20
-2.6421
 30
0.0
 10
-24.2058
 20
-2.8793
 30
0.0
 10
-24.2061
 20
-3.1526
 30
0.0
 10
-24.2061
 20
-3.1526
 30
0.0
 10
-24.2063
 20
-3.4423
 30
0.0
 10
-24.2868
 20
-3.6785
 30
0.0
 10
-24.4483
 20
-3.862
 30
0.0
 10
-24.4483
 20
-3.862
 30
0.0
 10
-24.6089
 20
-4.0455
 30
0.0
 10
-24.8347
 20
-4.1557
 30
0.0
 10
-25.1261
 20
-4.1923
 30
0.0
  0
SPLINE
  5
42
330
1F
100
AcDbEntity
  8
ROUND
 62
   250
100
AcDbSpline
210
0.0
220
0.0
230
1.0
 70
    11
 71
     3
 72
    36
 73
    32
 74
     0
 42
0.0000000001
 43
0.0000000001
 40
0.0
 40
0.0
 40
0.0
 40
0.0
 40
0.1111111111111111
 40
0.1111111111111111
 40
0.1111111111111111
 40
0.1111111111111111
 40
0.2222222222222222
 40
0.2222222222222222
 40
0.2222222222222222
 40
0.2222222222222222
 40
0.3333333333333333
 40
0.3333333333333333
 40
0.3333333333333333
 40
0.3333333333333333
 40
0.4444444444444444
 40
0.4444444444444444
 40
0.4444444444444444
 40
0.4444444444444444
 40
0.5555555555555556
 40
0.5555555555555556
 40
0.5555555555555556
 40
0.5555555555555556
 40
0.6666666666666666
 40
0.6666666666666666
 40
0.6666666666666666
 40
0.6666666666666666
 40
0.7777777777777778
 40
0.7777777777777778
 40
0.7777777777777778
 40
0.7777777777777778
 40
1.0
 40
1.0
 40
1.0
 40
1.0
 10
-26.759
 20
-2.3292
 30
0.0
 10
-27.0193
 20
-2.3291
 30
0.0
 10
-27.2272
 20
-2.3976
 30
0.0
 10
-27.38
 20
-2.5366
 30
0.0
 10
-27.38
 20
-2.5366
 30
0.0
 10
-27.5337
 20
-2.6761
 30
0.0
 10
-27.6105
 20
-2.8421
 30
0.0
 10
-27.6106
 20
-3.0379
 30
0.0
 10
-27.6106
 20
-3.0379
 30
0.0
 10
-27.6108
 20
-3.2397
 30
0.0
 10
-27.5283
 20
-3.4157
 30
0.0
 10
-27.3637
 20
-3.566
 30
0.0
 10
-27.3637
 20
-3.566
 30
0.0
 10
-27.1984
 20
-3.7161
 30
0.0
 10
-26.9847
 20
-3.7913
 30
0.0
 10
-26.7225
 20
-3.7915
 30
0.0
 10
-26.7225
 20
-3.7915
 30
0.0
 10
-26.4863
 20
-3.7918
 30
0.0
 10
-26.2949
 20
-3.7205
 30
0.0
 10
-26.1473
 20
-3.5783
 30
0.0
 10
-26.1473
 20
-3.5783
 30
0.0
 10
-25.9996
 20
-3.4362
 30
0.0
 10
-25.9261
 20
-3.2613
 30
0.0
 10
-25.9259
 20
-3.0527
 30
0.0
 10
-25.9259
 20
-3.0527
 30
0.0
 10
-25.9257
 20
-2.8414
 30
0.0
 10
-25.9989
 20
-2.6689
 30
0.0
 10
-26.1462
 20
-2.5333
 30
0.0
 10
-26.1462
 20
-2.5333
 30
0.0
 10
-26.2934
 20
-2.3971
 30
0.0
 10
-26.4978
 20
-2.3294
 30
0.0
 10
-26.759
 20
-2.3292
 30
0.0
  0
SPLINE
  5
43
330
1F
100
AcDbEntity
  8
ROUND
 62
   250
100
AcDbSpline
210
0.0
220
0.0
230
1.0
 70
    11
 71
     3
 72
    68
 73
    64
 74
     0
 42
0.0000000001
 43
0.0000000001
 40
0.0
 40
0.0
 40
0.0
 40
0.0
 40
0.0588235294117647
 40
0.0588235294117647
 40
0.0588235294117647
 40
0.0588235294117647
 40
0.1176470588235294
 40
0.1176470588235294
 40
0.1176470588235294
 40
0.1176470588235294
 40
0.1764705882352941
 40
0.1764705882352941
 40
0.1764705882352941
 40
0.1764705882352941
 40
0.2352941176470588
 40
0.2352941176470588
 40
0.2352941176470588
 40
0.2352941176470588
 40
0.2941176470588235
 40
0.2941176470588235
 40
0.2941176470588235
 40
0.2941176470588235
 40
0.3529411764705883
 40
0.3529411764705883
 40
0.3529411764705883
 40
0.3529411764705883
 40
0.4117647058823529
 40
0.4117647058823529
 40
0.4117647058823529
 40
0.4117647058823529
 40
0.4705882352941176
 40
0.4705882352941176
 40
0.4705882352941176
 40
0.4705882352941176
 40
0.5294117647058824
 40
0.5294117647058824
 40
0.5294117647058824
 40
0.5294117647058824
 40
0.5882352941176471
 40
0.5882352941176471
 40
0.5882352941176471
 40
0.5882352941176471
 40
0.6470588235294118
 40
0.6470588235294118
 40
0.6470588235294118
 40
0.6470588235294118
 40
0.7058823529411765
 40
0.7058823529411765
 40
0.7058823529411765
 40
0.7058823529411765
 40
0.7647058823529411
 40
0.7647058823529411
 40
0.7647058823529411
 40
0.7647058823529411
 40
0.8235294117647058
 40
0.8235294117647058
 40
0.8235294117647058
 40
0.8235294117647058
 40
0.8823529411764706
 40
0.8823529411764706
 40
0.8823529411764706
 40
0.8823529411764706
 40
1.0
 40
1.0
 40
1.0
 40
1.0
 10
-26.2745
 20
-0.6821
 30
0.0
 10
-26.3436
 20
-0.8709
 30
0.0
 10
-26.4421
 20
-1.0106
 30
0.0
 10
-26.5706
 20
-1.1017
 30
0.0
 10
-26.5706
 20
-1.1017
 30
0.0
 10
-26.6983
 20
-1.192
 30
0.0
 10
-26.8519
 20
-1.2375
 30
0.0
 10
-27.0303
 20
-1.2373
 30
0.0
 10
-27.0303
 20
-1.2373
 30
0.0
 10
-27.3001
 20
-1.2371
 30
0.0
 10
-27.526
 20
-1.1403
 30
0.0
 10
-27.7094
 20
-0.9462
 30
0.0
 10
-27.7094
 20
-0.9462
 30
0.0
 10
-27.8929
 20
-0.7521
 30
0.0
 10
-27.985
 20
-0.4949
 30
0.0
 10
-27.9846
 20
-0.1734
 30
0.0
 10
-27.9846
 20
-0.1734
 30
0.0
 10
-27.9842
 20
0.1499
 30
0.0
 10
-27.89
 20
0.4102
 30
0.0
 10
-27.7017
 20
0.6075
 30
0.0
 10
-27.7017
 20
0.6075
 30
0.0
 10
-27.5135
 20
0.8038
 30
0.0
 10
-27.2851
 20
0.902
 30
0.0
 10
-27.0153
 20
0.9017
 30
0.0
 10
-27.0153
 20
0.9017
 30
0.0
 10
-26.8437
 20
0.9015
 30
0.0
 10
-26.6945
 20
0.8566
 30
0.0
 10
-26.5671
 20
0.7668
 30
0.0
 10
-26.5671
 20
0.7668
 30
0.0
 10
-26.4402
 20
0.676
 30
0.0
 10
-26.3422
 20
0.5398
 30
0.0
 10
-26.2734
 20
0.356
 30
0.0
 10
-26.2734
 20
0.356
 30
0.0
 10
-26.199
 20
0.5827
 30
0.0
 10
-26.0799
 20
0.7558
 30
0.0
 10
-25.9142
 20
0.8745
 30
0.0
 10
-25.9142
 20
0.8745
 30
0.0
 10
-25.7494
 20
0.9926
 30
0.0
 10
-25.552
 20
1.0518
 30
0.0
 10
-25.3234
 20
1.0516
 30
0.0
 10
-25.3234
 20
1.0516
 30
0.0
 10
-25.0061
 20
1.0512
 30
0.0
 10
-24.7407
 20
0.9391
 30
0.0
 10
-24.5255
 20
0.7154
 30
0.0
 10
-24.5255
 20
0.7154
 30
0.0
 10
-24.3101
 20
0.4911
 30
0.0
 10
-24.2027
 20
0.1961
 30
0.0
 10
-24.203
 20
-0.1694
 30
0.0
 10
-24.203
 20
-0.1694
 30
0.0
 10
-24.2034
 20
-0.5351
 30
0.0
 10
-24.3114
 20
-0.8291
 30
0.0
 10
-24.528
 20
-1.0531
 30
0.0
 10
-24.528
 20
-1.0531
 30
0.0
 10
-24.7447
 20
-1.2769
 30
0.0
 10
-25.0147
 20
-1.3887
 30
0.0
 10
-25.338
 20
-1.3883
 30
0.0
 10
-25.338
 20
-1.3883
 30
0.0
 10
-25.5785
 20
-1.3882
 30
0.0
 10
-25.7802
 20
-1.3266
 30
0.0
 10
-25.9431
 20
-1.2041
 30
0.0
 10
-25.9431
 20
-1.2041
 30
0.0
 10
-26.105
 20
-1.0824
 30
0.0
 10
-26.2161
 20
-0.9081
 30
0.0
 10
-26.2745
 20
-0.6821
 30
0.0
  0
SPLINE
  5
44
330
1F
100
AcDbEntity
  8
ROUND
 62
   250
100
AcDbSpline
210
0.0
220
0.0
230
1.0
 70
    11
 71
     3
 72
    36
 73
    32
 74
     0
 42
0.0000000001
 43
0.0000000001
 40
0.0
 40
0.0
 40
0.0
 40
0.0
 40
0.1111111111111111
 40
0.1111111111111111
 40
0.1111111111111111
 40
0.1111111111111111
 40
0.2222222222222222
 40
0.2222222222222222
 40
0.2222222222222222
 40
0.2222222222222222
 40
0.3333333333333333
 40
0.3333333333333333
 40
0.3333333333333333
 40
0.3333333333333333
 40
0.4444444444444444
 40
0.4444444444444444
 40
0.4444444444444444
 40
0.4444444444444444
 40
0.5555555555555556
 40
0.5555555555555556
 40
0.5555555555555556
 40
0.5555555555555556
 40
0.6666666666666666
 40
0.6666666666666666
 40
0.6666666666666666
 40
0.6666666666666666
 40
0.7777777777777778
 40
0.7777777777777778
 40
0.7777777777777778
 40
0.7777777777777778
 40
1.0
 40
1.0
 40
1.0
 40
1.0
 10
-27.0453
 20
-0.7726
 30
0.0
 10
-26.8703
 20
-0.7728
 30
0.0
 10
-26.7271
 20
-0.7162
 30
0.0
 10
-26.6157
 20
-0.6042
 30
0.0
 10
-26.6157
 20
-0.6042
 30
0.0
 10
-26.5046
 20
-0.4913
 30
0.0
 10
-26.4483
 20
-0.3448
 30
0.0
 10
-26.4481
 20
-0.1646
 30
0.0
 10
-26.4481
 20
-0.1646
 30
0.0
 10
-26.4479
 20
0.0104
 30
0.0
 10
-26.5029
 20
0.1545
 30
0.0
 10
-26.6131
 20
0.2667
 30
0.0
 10
-26.6131
 20
0.2667
 30
0.0
 10
-26.7235
 20
0.3789
 30
0.0
 10
-26.8587
 20
0.4342
 30
0.0
 10
-27.0182
 20
0.4342
 30
0.0
 10
-27.0182
 20
0.4342
 30
0.0
 10
-27.1854
 20
0.4344
 30
0.0
 10
-27.3252
 20
0.3778
 30
0.0
 10
-27.4391
 20
0.2623
 30
0.0
 10
-27.4391
 20
0.2623
 30
0.0
 10
-27.5531
 20
0.1468
 30
0.0
 10
-27.6103
 20
0.0038
 30
0.0
 10
-27.6105
 20
-0.1685
 30
0.0
 10
-27.6105
 20
-0.1685
 30
0.0
 10
-27.6106
 20
-0.3419
 30
0.0
 10
-27.5547
 20
-0.4859
 30
0.0
 10
-27.4444
 20
-0.6007
 30
0.0
 10
-27.4444
 20
-0.6007
 30
0.0
 10
-27.3333
 20
-0.7156
 30
0.0
 10
-27.1997
 20
-0.7726
 30
0.0
 10
-27.0453
 20
-0.7726
 30
0.0
  0
SPLINE
  5
45
330
1F
100
AcDbEntity
  8
ROUND
 62
   250
100
AcDbSpline
210
0.0
220
0.0
230
1.0
 70
    11
 71
     3
 72
    40
 73
    36
 74
     0
 42
0.0000000001
 43
0.0000000001
 40
0.0
 40
0.0
 40
0.0
 40
0.0
 40
0.1
 40
0.1
 40
0.1
 40
0.1
 40
0.2
 40
0.2
 40
0.2
 40
0.2
 40
0.3
 40
0.3
 40
0.3
 40
0.3
 40
0.4
 40
0.4
 40
0.4
 40
0.4
 40
0.5
 40
0.5
 40
0.5
 40
0.5
 40
0.6
 40
0.6
 40
0.6
 40
0.6
 40
0.7
 40
0.7
 40
0.7
 40
0.7
 40
0.8
 40
0.8
 40
0.8
 40
0.8
 40
1.0
 40
1.0
 40
1.0
 40
1.0
 10
-25.3349
 20
-0.9211
 30
0.0
 10
-25.2055
 20
-0.9213
 30
0.0
 10
-25.0798
 20
-0.8901
 30
0.0
 10
-24.9588
 20
-0.8291
 30
0.0
 10
-24.9588
 20
-0.8291
 30
0.0
 10
-24.8373
 20
-0.768
 30
0.0
 10
-24.7432
 20
-0.6768
 30
0.0
 10
-24.6767
 20
-0.5554
 30
0.0
 10
-24.6767
 20
-0.5554
 30
0.0
 10
-24.6101
 20
-0.4337
 30
0.0
 10
-24.5764
 20
-0.3036
 30
0.0
 10
-24.5762
 20
-0.1639
 30
0.0
 10
-24.5762
 20
-0.1639
 30
0.0
 10
-24.576
 20
0.0533
 30
0.0
 10
-24.6457
 20
0.2328
 30
0.0
 10
-24.7861
 20
0.3743
 30
0.0
 10
-24.7861
 20
0.3743
 30
0.0
 10
-24.9256
 20
0.5158
 30
0.0
 10
-25.1032
 20
0.5868
 30
0.0
 10
-25.3188
 20
0.5869
 30
0.0
 10
-25.3188
 20
0.5869
 30
0.0
 10
-25.5378
 20
0.5871
 30
0.0
 10
-25.7188
 20
0.5149
 30
0.0
 10
-25.8621
 20
0.3694
 30
0.0
 10
-25.8621
 20
0.3694
 30
0.0
 10
-26.0055
 20
0.2238
 30
0.0
 10
-26.0771
 20
0.0411
 30
0.0
 10
-26.0773
 20
-0.178
 30
0.0
 10
-26.0773
 20
-0.178
 30
0.0
 10
-26.0775
 20
-0.3917
 30
0.0
 10
-26.0071
 20
-0.5686
 30
0.0
 10
-25.8658
 20
-0.7092
 30
0.0
 10
-25.8658
 20
-0.7092
 30
0.0
 10
-25.7237
 20
-0.85
 30
0.0
 10
-25.547
 20
-0.9209
 30
0.0
 10
-25.3349
 20
-0.9211
 30
0.0
  0
SPLINE
  5
46
330
1F
100
AcDbEntity
  8
ROUND
 62
   250
100
AcDbSpline
210
0.0
220
0.0
230
1.0
 70
    24
 71
     3
 72
     8
 73
     4
 74
     0
 42
0.0000000001
 43
0.0000000001
 40
0.0
 40
0.0
 40
0.0
 40
0.0
 40
1.0
 40
1.0
 40
1.0
 40
1.0
 10
-23.5028
 20
14.6374
 30
0.0
 10
-23.5028
 20
14.6374
 30
0.0
 10
-23.5028
 20
-16.6169
 30
0.0
 10
-23.5028
 20
-16.6169
 30
0.0
  0
SPLINE
  5
47
330
1F
100
AcDbEntity
  8
ROUND
 62
   250
100
AcDbSpline
210
0.0
220
0.0
230
1.0
 70
    11
 71
     3
 72
    20
 73
    16
 74
     0
 42
0.0000000001
 43
0.0000000001
 40
0.0
 40
0.0
 40
0.0
 40
0.0
 40
0.2
 40
0.2
 40
0.2
 40
0.2
 40
0.4
 40
0.4
 40
0.4
 40
0.4
 40
0.6
 40
0.6
 40
0.6
 40
0.6
 40
1.0
 40
1.0
 40
1.0
 40
1.0
 10
-22.6242
 20
9.7613
 30
0.0
 10
-22.6242
 20
9.7613
 30
0.0
 10
-23.3439
 20
15.2417
 30
0.0
 10
-23.3439
 20
15.2417
 30
0.0
 10
-23.3439
 20
15.2417
 30
0.0
 10
-23.3439
 20
15.2417
 30
0.0
 10
-23.6331
 20
15.2404
 30
0.0
 10
-23.6331
 20
15.2404
 30
0.0
 10
-23.6331
 20
15.2404
 30
0.0
 10
-23.6331
 20
15.2404
 30
0.0
 10
-24.4639
 20
9.7428
 30
0.0
 10
-24.4639
 20
9.7428
 30
0.0
 10
-24.4639
 20
9.7428
 30
0.0
 10
-24.4639
 20
9.7428
 30
0.0
 10
-22.6242
 20
9.7613
 30
0.0
 10
-22.6242
 20
9.7613
 30
0.0
  0
SPLINE
  5
48
330
1F
100
AcDbEntity
  8
ROUND
 62
   250
100
AcDbSpline
210
0.0
220
0.0
230
1.0
 70
    11
 71
     3
 72
    20
 73
    16
 74
     0
 42
0.0000000001
 43
0.0000000001
 40
0.0
 40
0.0
 40
0.0
 40
0.0
 40
0.2
 40
0.2
 40
0.2
 40
0.2
 40
0.4
 40
0.4
 40
0.4
 40
0.4
 40
0.6
 40
0.6
 40
0.6
 40
0.6
 40
1.0
 40
1.0
 40
1.0
 40
1.0
 10
-24.4472
 20
-11.9846
 30
0.0
 10
-24.4472
 20
-11.9846
 30
0.0
 10
-23.7275
 20
-17.4652
 30
0.0
 10
-23.7275
 20
-17.4652
 30
0.0
 10
-23.7275
 20
-17.4652
 30
0.0
 10
-23.7275
 20
-17.4652
 30
0.0
 10
-23.4383
 20
-17.4641
 30
0.0
 10
-23.4383
 20
-17.4641
 30
0.0
 10
-23.4383
 20
-17.4641
 30
0.0
 10
-23.4383
 20
-17.4641
 30
0.0
 10
-22.6075
 20
-11.9661
 30
0.0
 10
-22.6075
 20
-11.9661
 30
0.0
 10
-22.6075
 20
-11.9661
 30
0.0
 10
-22.6075
 20
-11.9661
 30
0.0
 10
-24.4472
 20
-11.9846
 30
0.0
 10
-24.4472
 20
-11.9846
 30
0.0
  0
SPLINE
  5
49
330
1F
100
AcDbEntity
  8
ROUND
 62
   250
100
AcDbSpline
210
0.0
220
0.0
230
1.0
 70
    24
 71
     3
 72
     8
 73
     4
 74
     0
 42
0.0000000001
 43
0.0000000001
 40
0.0
 40
0.0
 40
0.0
 40
0.0
 40
1.0
 40
1.0
 40
1.0
 40
1.0
 10
-8.6691
 20
15.4927
 30
0.0
 10
-8.6691
 20
15.4927
 30
0.0
 10
-24.528
 20
15.4927
 30
0.0
 10
-24.528
 20
15.4927
 30
0.0
  0
SPLINE
  5
4A
330
1F
100
AcDbEntity
  8
ROUND
 62
   250
100
AcDbSpline
210
0.0
220
0.0
230
1.0
 70
    24
 71
     3
 72
     8
 73
     4
 74
     0
 42
0.0000000001
 43
0.0000000001
 40
0.0
 40
0.0
 40
0.0
 40
0.0
 40
1.0
 40
1.0
 40
1.0
 40
1.0
 10
-8.0057
 20
-17.742
 30
0.0
 10
-8.0057
 20
-17.742
 30
0.0
 10
-24.6435
 20
-17.742
 30
0.0
 10
-24.6435
 20
-17.742
 30
0.0
  0
SPLINE
  5
4B
330
1F
100
AcDbEntity
  8
ROUND
 62
   250
100
AcDbSpline
210
0.0
220
0.0
230
1.0
 70
    24
 71
     3
 72
     8
 73
     4
 74
     0
 42
0.0000000001
 43
0.0000000001
 40
0.0
 40
0.0
 40
0.0
 40
0.0
 40
1.0
 40
1.0
 40
1.0
 40
1.0
 10
19.8321
 20
15.9931
 30
0.0
 10
19.8321
 20
15.9931
 30
0.0
 10
19.8321
 20
22.7706
 30
0.0
 10
19.8321
 20
22.7706
 30
0.0
  0
SPLINE
  5
4C
330
1F
100
AcDbEntity
  8
ROUND
 62
   250
100
AcDbSpline
210
0.0
220
0.0
230
1.0
 70
    11
 71
     3
 72
    84
 73
    80
 74
     0
 42
0.0000000001
 43
0.0000000001
 40
0.0
 40
0.0
 40
0.0
 40
0.0
 40
0.0476190476190476
 40
0.0476190476190476
 40
0.0476190476190476
 40
0.0476190476190476
 40
0.0952380952380952
 40
0.0952380952380952
 40
0.0952380952380952
 40
0.0952380952380952
 40
0.1428571428571428
 40
0.1428571428571428
 40
0.1428571428571428
 40
0.1428571428571428
 40
0.1904761904761905
 40
0.1904761904761905
 40
0.1904761904761905
 40
0.1904761904761905
 40
0.2380952380952381
 40
0.2380952380952381
 40
0.2380952380952381
 40
0.2380952380952381
 40
0.2857142857142857
 40
0.2857142857142857
 40
0.2857142857142857
 40
0.2857142857142857
 40
0.3333333333333333
 40
0.3333333333333333
 40
0.3333333333333333
 40
0.3333333333333333
 40
0.3809523809523809
 40
0.3809523809523809
 40
0.3809523809523809
 40
0.3809523809523809
 40
0.4285714285714285
 40
0.4285714285714285
 40
0.4285714285714285
 40
0.4285714285714285
 40
0.4761904761904762
 40
0.4761904761904762
 40
0.4761904761904762
 40
0.4761904761904762
 40
0.5238095238095238
 40
0.5238095238095238
 40
0.5238095238095238
 40
0.5238095238095238
 40
0.5714285714285714
 40
0.5714285714285714
 40
0.5714285714285714
 40
0.5714285714285714
 40
0.6190476190476191
 40
0.6190476190476191
 40
0.6190476190476191
 40
0.6190476190476191
 40
0.6666666666666666
 40
0.6666666666666666
 40
0.6666666666666666
 40
0.6666666666666666
 40
0.7142857142857143
 40
0.7142857142857143
 40
0.7142857142857143
 40
0.7142857142857143
 40
0.7619047619047619
 40
0.7619047619047619
 40
0.7619047619047619
 40
0.7619047619047619
 40
0.8095238095238095
 40
0.8095238095238095
 40
0.8095238095238095
 40
0.8095238095238095
 40
0.8571428571428571
 40
0.8571428571428571
 40
0.8571428571428571
 40
0.8571428571428571
 40
0.9047619047619048
 40
0.9047619047619048
 40
0.9047619047619048
 40
0.9047619047619048
 40
1.0
 40
1.0
 40
1.0
 40
1.0
 10
5.7182
 20
-21.1813
 30
0.0
 10
5.7182
 20
-21.1813
 30
0.0
 10
6.1424
 20
-20.7064
 30
0.0
 10
6.1424
 20
-20.7064
 30
0.0
 10
6.1424
 20
-20.7064
 30
0.0
 10
6.1424
 20
-20.7064
 30
0.0
 10
6.3924
 20
-20.9185
 30
0.0
 10
6.3924
 20
-20.9185
 30
0.0
 10
6.3924
 20
-20.9185
 30
0.0
 10
6.3924
 20
-20.9185
 30
0.0
 10
5.9483
 20
-21.4185
 30
0.0
 10
5.9483
 20
-21.4185
 30
0.0
 10
5.9483
 20
-21.4185
 30
0.0
 10
6.0933
 20
-21.6341
 30
0.0
 10
6.1906
 20
-21.8229
 30
0.0
 10
6.2416
 20
-21.984
 30
0.0
 10
6.2416
 20
-21.984
 30
0.0
 10
6.3088
 20
-22.1963
 30
0.0
 10
6.3424
 20
-22.4342
 30
0.0
 10
6.3424
 20
-22.6963
 30
0.0
 10
6.3424
 20
-22.6963
 30
0.0
 10
6.3424
 20
-23.0756
 30
0.0
 10
6.2656
 20
-23.4136
 30
0.0
 10
6.1122
 20
-23.7095
 30
0.0
 10
6.1122
 20
-23.7095
 30
0.0
 10
5.9587
 20
-24.006
 30
0.0
 10
5.7441
 20
-24.2302
 30
0.0
 10
5.4673
 20
-24.3818
 30
0.0
 10
5.4673
 20
-24.3818
 30
0.0
 10
5.1896
 20
-24.5329
 30
0.0
 10
4.8956
 20
-24.6086
 30
0.0
 10
4.5843
 20
-24.6086
 30
0.0
 10
4.5843
 20
-24.6086
 30
0.0
 10
4.3515
 20
-24.6086
 30
0.0
 10
4.1413
 20
-24.5759
 30
0.0
 10
3.9525
 20
-24.5103
 30
0.0
 10
3.9525
 20
-24.5103
 30
0.0
 10
3.8075
 20
-24.4595
 30
0.0
 10
3.6387
 20
-24.3629
 30
0.0
 10
3.4445
 20
-24.2198
 30
0.0
 10
3.4445
 20
-24.2198
 30
0.0
 10
3.4445
 20
-24.2198
 30
0.0
 10
3.0204
 20
-24.6949
 30
0.0
 10
3.0204
 20
-24.6949
 30
0.0
 10
3.0204
 20
-24.6949
 30
0.0
 10
3.0204
 20
-24.6949
 30
0.0
 10
2.7703
 20
-24.4828
 30
0.0
 10
2.7703
 20
-24.4828
 30
0.0
 10
2.7703
 20
-24.4828
 30
0.0
 10
2.7703
 20
-24.4828
 30
0.0
 10
3.2152
 20
-23.9853
 30
0.0
 10
3.2152
 20
-23.9853
 30
0.0
 10
3.2152
 20
-23.9853
 30
0.0
 10
3.0497
 20
-23.7344
 30
0.0
 10
2.9394
 20
-23.5197
 30
0.0
 10
2.8842
 20
-23.3421
 30
0.0
 10
2.8842
 20
-23.3421
 30
0.0
 10
2.829
 20
-23.1645
 30
0.0
 10
2.8004
 20
-22.9506
 30
0.0
 10
2.8004
 20
-22.7015
 30
0.0
 10
2.8004
 20
-22.7015
 30
0.0
 10
2.8004
 20
-22.3213
 30
0.0
 10
2.8763
 20
-21.9824
 30
0.0
 10
3.0281
 20
-21.6849
 30
0.0
 10
3.0281
 20
-21.6849
 30
0.0
 10
3.1798
 20
-21.3875
 30
0.0
 10
3.3919
 20
-21.1624
 30
0.0
 10
3.6662
 20
-21.009
 30
0.0
 10
3.6662
 20
-21.009
 30
0.0
 10
3.9395
 20
-20.8563
 30
0.0
 10
4.2439
 20
-20.7797
 30
0.0
 10
4.5792
 20
-20.7797
 30
0.0
 10
4.5792
 20
-20.7797
 30
0.0
 10
4.805
 20
-20.7797
 30
0.0
 10
5.0026
 20
-20.809
 30
0.0
 10
5.1716
 20
-20.8693
 30
0.0
 10
5.1716
 20
-20.8693
 30
0.0
 10
5.3404
 20
-20.9287
 30
0.0
 10
5.5234
 20
-21.0332
 30
0.0
 10
5.7182
 20
-21.1813
 30
0.0
  0
SPLINE
  5
4D
330
1F
100
AcDbEntity
  8
ROUND
 62
   250
100
AcDbSpline
210
0.0
220
0.0
230
1.0
 70
    11
 71
     3
 72
    32
 73
    28
 74
     0
 42
0.0000000001
 43
0.0000000001
 40
0.0
 40
0.0
 40
0.0
 40
0.0
 40
0.125
 40
0.125
 40
0.125
 40
0.125
 40
0.25
 40
0.25
 40
0.25
 40
0.25
 40
0.375
 40
0.375
 40
0.375
 40
0.375
 40
0.5
 40
0.5
 40
0.5
 40
0.5
 40
0.625
 40
0.625
 40
0.625
 40
0.625
 40
0.75
 40
0.75
 40
0.75
 40
0.75
 40
1.0
 40
1.0
 40
1.0
 40
1.0
 10
5.4156
 20
-21.5219
 30
0.0
 10
5.2569
 20
-21.3978
 30
0.0
 10
5.1181
 20
-21.3124
 30
0.0
 10
5.0001
 20
-21.2667
 30
0.0
 10
5.0001
 20
-21.2667
 30
0.0
 10
4.8809
 20
-21.222
 30
0.0
 10
4.7412
 20
-21.1987
 30
0.0
 10
4.5818
 20
-21.1987
 30
0.0
 10
4.5818
 20
-21.1987
 30
0.0
 10
4.2128
 20
-21.1987
 30
0.0
 10
3.9085
 20
-21.3238
 30
0.0
 10
3.6671
 20
-21.5738
 30
0.0
 10
3.6671
 20
-21.5738
 30
0.0
 10
3.4266
 20
-21.8238
 30
0.0
 10
3.3058
 20
-22.197
 30
0.0
 10
3.3058
 20
-22.6945
 30
0.0
 10
3.3058
 20
-22.6945
 30
0.0
 10
3.3058
 20
-22.8894
 30
0.0
 10
3.3247
 20
-23.0628
 30
0.0
 10
3.3619
 20
-23.2145
 30
0.0
 10
3.3619
 20
-23.2145
 30
0.0
 10
3.3884
 20
-23.3275
 30
0.0
 10
3.4445
 20
-23.4662
 30
0.0
 10
3.5309
 20
-23.6308
 30
0.0
 10
3.5309
 20
-23.6308
 30
0.0
 10
3.5309
 20
-23.6308
 30
0.0
 10
5.4156
 20
-21.5219
 30
0.0
 10
5.4156
 20
-21.5219
 30
0.0
  0
SPLINE
  5
4E
330
1F
100
AcDbEntity
  8
ROUND
 62
   250
100
AcDbSpline
210
0.0
220
0.0
230
1.0
 70
    11
 71
     3
 72
    28
 73
    24
 74
     0
 42
0.0000000001
 43
0.0000000001
 40
0.0
 40
0.0
 40
0.0
 40
0.0
 40
0.1428571428571428
 40
0.1428571428571428
 40
0.1428571428571428
 40
0.1428571428571428
 40
0.2857142857142857
 40
0.2857142857142857
 40
0.2857142857142857
 40
0.2857142857142857
 40
0.4285714285714285
 40
0.4285714285714285
 40
0.4285714285714285
 40
0.4285714285714285
 40
0.5714285714285714
 40
0.5714285714285714
 40
0.5714285714285714
 40
0.5714285714285714
 40
0.7142857142857143
 40
0.7142857142857143
 40
0.7142857142857143
 40
0.7142857142857143
 40
1.0
 40
1.0
 40
1.0
 40
1.0
 10
5.6226
 20
-21.7824
 30
0.0
 10
5.6226
 20
-21.7824
 30
0.0
 10
3.7455
 20
-23.8836
 30
0.0
 10
3.7455
 20
-23.8836
 30
0.0
 10
3.7455
 20
-23.8836
 30
0.0
 10
3.8748
 20
-23.9895
 30
0.0
 10
3.9946
 20
-24.0638
 30
0.0
 10
4.1041
 20
-24.1059
 30
0.0
 10
4.1041
 20
-24.1059
 30
0.0
 10
4.2472
 20
-24.162
 30
0.0
 10
4.4025
 20
-24.1897
 30
0.0
 10
4.5689
 20
-24.1897
 30
0.0
 10
4.5689
 20
-24.1897
 30
0.0
 10
4.9363
 20
-24.1897
 30
0.0
 10
5.2389
 20
-24.0603
 30
0.0
 10
5.4785
 20
-23.8007
 30
0.0
 10
5.4785
 20
-23.8007
 30
0.0
 10
5.7173
 20
-23.5412
 30
0.0
 10
5.8372
 20
-23.1773
 30
0.0
 10
5.8372
 20
-22.7092
 30
0.0
 10
5.8372
 20
-22.7092
 30
0.0
 10
5.8372
 20
-22.3592
 30
0.0
 10
5.7655
 20
-22.0496
 30
0.0
 10
5.6226
 20
-21.7824
 30
0.0
  0
SPLINE
  5
4F
330
1F
100
AcDbEntity
  8
ROUND
 62
   250
100
AcDbSpline
210
0.0
220
0.0
230
1.0
 70
    11
 71
     3
 72
    40
 73
    36
 74
     0
 42
0.0000000001
 43
0.0000000001
 40
0.0
 40
0.0
 40
0.0
 40
0.0
 40
0.1
 40
0.1
 40
0.1
 40
0.1
 40
0.2
 40
0.2
 40
0.2
 40
0.2
 40
0.3
 40
0.3
 40
0.3
 40
0.3
 40
0.4
 40
0.4
 40
0.4
 40
0.4
 40
0.5
 40
0.5
 40
0.5
 40
0.5
 40
0.6
 40
0.6
 40
0.6
 40
0.6
 40
0.7
 40
0.7
 40
0.7
 40
0.7
 40
0.8
 40
0.8
 40
0.8
 40
0.8
 40
1.0
 40
1.0
 40
1.0
 40
1.0
 10
8.5116
 20
-24.5457
 30
0.0
 10
8.5116
 20
-24.5457
 30
0.0
 10
8.0574
 20
-24.5457
 30
0.0
 10
8.0574
 20
-24.5457
 30
0.0
 10
8.0574
 20
-24.5457
 30
0.0
 10
8.0574
 20
-24.5457
 30
0.0
 10
8.0574
 20
-21.6488
 30
0.0
 10
8.0574
 20
-21.6488
 30
0.0
 10
8.0574
 20
-21.6488
 30
0.0
 10
7.9478
 20
-21.7531
 30
0.0
 10
7.8046
 20
-21.8574
 30
0.0
 10
7.627
 20
-21.9617
 30
0.0
 10
7.627
 20
-21.9617
 30
0.0
 10
7.4486
 20
-22.066
 30
0.0
 10
7.2892
 20
-22.1446
 30
0.0
 10
7.1476
 20
-22.1963
 30
0.0
 10
7.1476
 20
-22.1963
 30
0.0
 10
7.1476
 20
-22.1963
 30
0.0
 10
7.1476
 20
-21.7573
 30
0.0
 10
7.1476
 20
-21.7573
 30
0.0
 10
7.1476
 20
-21.7573
 30
0.0
 10
7.4021
 20
-21.6376
 30
0.0
 10
7.6244
 20
-21.4928
 30
0.0
 10
7.8151
 20
-21.3228
 30
0.0
 10
7.8151
 20
-21.3228
 30
0.0
 10
8.0048
 20
-21.1522
 30
0.0
 10
8.1401
 20
-20.9874
 30
0.0
 10
8.2194
 20
-20.827
 30
0.0
 10
8.2194
 20
-20.827
 30
0.0
 10
8.2194
 20
-20.827
 30
0.0
 10
8.5116
 20
-20.827
 30
0.0
 10
8.5116
 20
-20.827
 30
0.0
 10
8.5116
 20
-20.827
 30
0.0
 10
8.5116
 20
-20.827
 30
0.0
 10
8.5116
 20
-24.5457
 30
0.0
 10
8.5116
 20
-24.5457
 30
0.0
  0
SPLINE
  5
50
330
1F
100
AcDbEntity
  8
ROUND
 62
   250
100
AcDbSpline
210
0.0
220
0.0
230
1.0
 70
    11
 71
     3
 72
    40
 73
    36
 74
     0
 42
0.0000000001
 43
0.0000000001
 40
0.0
 40
0.0
 40
0.0
 40
0.0
 40
0.1
 40
0.1
 40
0.1
 40
0.1
 40
0.2
 40
0.2
 40
0.2
 40
0.2
 40
0.3
 40
0.3
 40
0.3
 40
0.3
 40
0.4
 40
0.4
 40
0.4
 40
0.4
 40
0.5
 40
0.5
 40
0.5
 40
0.5
 40
0.6
 40
0.6
 40
0.6
 40
0.6
 40
0.7
 40
0.7
 40
0.7
 40
0.7
 40
0.8
 40
0.8
 40
0.8
 40
0.8
 40
1.0
 40
1.0
 40
1.0
 40
1.0
 10
11.0051
 20
-24.5457
 30
0.0
 10
11.0051
 20
-24.5457
 30
0.0
 10
10.5507
 20
-24.5457
 30
0.0
 10
10.5507
 20
-24.5457
 30
0.0
 10
10.5507
 20
-24.5457
 30
0.0
 10
10.5507
 20
-24.5457
 30
0.0
 10
10.5507
 20
-21.6488
 30
0.0
 10
10.5507
 20
-21.6488
 30
0.0
 10
10.5507
 20
-21.6488
 30
0.0
 10
10.4413
 20
-21.7531
 30
0.0
 10
10.2981
 20
-21.8574
 30
0.0
 10
10.1205
 20
-21.9617
 30
0.0
 10
10.1205
 20
-21.9617
 30
0.0
 10
9.9421
 20
-22.066
 30
0.0
 10
9.7826
 20
-22.1446
 30
0.0
 10
9.6411
 20
-22.1963
 30
0.0
 10
9.6411
 20
-22.1963
 30
0.0
 10
9.6411
 20
-22.1963
 30
0.0
 10
9.6411
 20
-21.7573
 30
0.0
 10
9.6411
 20
-21.7573
 30
0.0
 10
9.6411
 20
-21.7573
 30
0.0
 10
9.8956
 20
-21.6376
 30
0.0
 10
10.1179
 20
-21.4928
 30
0.0
 10
10.3085
 20
-21.3228
 30
0.0
 10
10.3085
 20
-21.3228
 30
0.0
 10
10.4983
 20
-21.1522
 30
0.0
 10
10.6335
 20
-20.9874
 30
0.0
 10
10.7129
 20
-20.827
 30
0.0
 10
10.7129
 20
-20.827
 30
0.0
 10
10.7129
 20
-20.827
 30
0.0
 10
11.0051
 20
-20.827
 30
0.0
 10
11.0051
 20
-20.827
 30
0.0
 10
11.0051
 20
-20.827
 30
0.0
 10
11.0051
 20
-20.827
 30
0.0
 10
11.0051
 20
-24.5457
 30
0.0
 10
11.0051
 20
-24.5457
 30
0.0
  0
SPLINE
  5
51
330
1F
100
AcDbEntity
  8
ROUND
 62
   250
100
AcDbSpline
210
0.0
220
0.0
230
1.0
 70
    11
 71
     3
 72
    52
 73
    48
 74
     0
 42
0.0000000001
 43
0.0000000001
 40
0.0
 40
0.0
 40
0.0
 40
0.0
 40
0.0769230769230769
 40
0.0769230769230769
 40
0.0769230769230769
 40
0.0769230769230769
 40
0.1538461538461539
 40
0.1538461538461539
 40
0.1538461538461539
 40
0.1538461538461539
 40
0.2307692307692308
 40
0.2307692307692308
 40
0.2307692307692308
 40
0.2307692307692308
 40
0.3076923076923077
 40
0.3076923076923077
 40
0.3076923076923077
 40
0.3076923076923077
 40
0.3846153846153846
 40
0.3846153846153846
 40
0.3846153846153846
 40
0.3846153846153846
 40
0.4615384615384616
 40
0.4615384615384616
 40
0.4615384615384616
 40
0.4615384615384616
 40
0.5384615384615384
 40
0.5384615384615384
 40
0.5384615384615384
 40
0.5384615384615384
 40
0.6153846153846154
 40
0.6153846153846154
 40
0.6153846153846154
 40
0.6153846153846154
 40
0.6923076923076923
 40
0.6923076923076923
 40
0.6923076923076923
 40
0.6923076923076923
 40
0.7692307692307693
 40
0.7692307692307693
 40
0.7692307692307693
 40
0.7692307692307693
 40
0.8461538461538461
 40
0.8461538461538461
 40
0.8461538461538461
 40
0.8461538461538461
 40
1.0
 40
1.0
 40
1.0
 40
1.0
 10
12.17
 20
-22.7196
 30
0.0
 10
12.17
 20
-22.2815
 30
0.0
 10
12.2147
 20
-21.9288
 30
0.0
 10
12.3053
 20
-21.6625
 30
0.0
 10
12.3053
 20
-21.6625
 30
0.0
 10
12.3949
 20
-21.3952
 30
0.0
 10
12.5294
 20
-21.1892
 30
0.0
 10
12.7071
 20
-21.0444
 30
0.0
 10
12.7071
 20
-21.0444
 30
0.0
 10
12.8847
 20
-20.8994
 30
0.0
 10
13.108
 20
-20.827
 30
0.0
 10
13.377
 20
-20.827
 30
0.0
 10
13.377
 20
-20.827
 30
0.0
 10
13.5761
 20
-20.827
 30
0.0
 10
13.7504
 20
-20.8675
 30
0.0
 10
13.9004
 20
-20.9478
 30
0.0
 10
13.9004
 20
-20.9478
 30
0.0
 10
14.0503
 20
-21.0272
 30
0.0
 10
14.1737
 20
-21.1427
 30
0.0
 10
14.2719
 20
-21.2935
 30
0.0
 10
14.2719
 20
-21.2935
 30
0.0
 10
14.3695
 20
-21.4444
 30
0.0
 10
14.4461
 20
-21.628
 30
0.0
 10
14.5013
 20
-21.8445
 30
0.0
 10
14.5013
 20
-21.8445
 30
0.0
 10
14.5573
 20
-22.0608
 30
0.0
 10
14.585
 20
-22.3523
 30
0.0
 10
14.585
 20
-22.7196
 30
0.0
 10
14.585
 20
-22.7196
 30
0.0
 10
14.585
 20
-23.154
 30
0.0
 10
14.5401
 20
-23.5042
 30
0.0
 10
14.4514
 20
-23.7714
 30
0.0
 10
14.4514
 20
-23.7714
 30
0.0
 10
14.3618
 20
-24.0387
 30
0.0
 10
14.2279
 20
-24.2449
 30
0.0
 10
14.0503
 20
-24.3904
 30
0.0
 10
14.0503
 20
-24.3904
 30
0.0
 10
13.8727
 20
-24.5362
 30
0.0
 10
13.6487
 20
-24.6086
 30
0.0
 10
13.377
 20
-24.6086
 30
0.0
 10
13.377
 20
-24.6086
 30
0.0
 10
13.0202
 20
-24.6086
 30
0.0
 10
12.7399
 20
-24.481
 30
0.0
 10
12.5364
 20
-24.2249
 30
0.0
 10
12.5364
 20
-24.2249
 30
0.0
 10
12.2924
 20
-23.9171
 30
0.0
 10
12.17
 20
-23.4145
 30
0.0
 10
12.17
 20
-22.7196
 30
0.0
  0
SPLINE
  5
52
330
1F
100
AcDbEntity
  8
ROUND
 62
   250
100
AcDbSpline
210
0.0
220
0.0
230
1.0
 70
    11
 71
     3
 72
    36
 73
    32
 74
     0
 42
0.0000000001
 43
0.0000000001
 40
0.0
 40
0.0
 40
0.0
 40
0.0
 40
0.1111111111111111
 40
0.1111111111111111
 40
0.1111111111111111
 40
0.1111111111111111
 40
0.2222222222222222
 40
0.2222222222222222
 40
0.2222222222222222
 40
0.2222222222222222
 40
0.3333333333333333
 40
0.3333333333333333
 40
0.3333333333333333
 40
0.3333333333333333
 40
0.4444444444444444
 40
0.4444444444444444
 40
0.4444444444444444
 40
0.4444444444444444
 40
0.5555555555555556
 40
0.5555555555555556
 40
0.5555555555555556
 40
0.5555555555555556
 40
0.6666666666666666
 40
0.6666666666666666
 40
0.6666666666666666
 40
0.6666666666666666
 40
0.7777777777777778
 40
0.7777777777777778
 40
0.7777777777777778
 40
0.7777777777777778
 40
1.0
 40
1.0
 40
1.0
 40
1.0
 10
12.6372
 20
-22.7196
 30
0.0
 10
12.6372
 20
-23.3275
 30
0.0
 10
12.7089
 20
-23.7318
 30
0.0
 10
12.8511
 20
-23.9335
 30
0.0
 10
12.8511
 20
-23.9335
 30
0.0
 10
12.9934
 20
-24.1344
 30
0.0
 10
13.1684
 20
-24.2354
 30
0.0
 10
13.377
 20
-24.2354
 30
0.0
 10
13.377
 20
-24.2354
 30
0.0
 10
13.5866
 20
-24.2354
 30
0.0
 10
13.7616
 20
-24.1336
 30
0.0
 10
13.9039
 20
-23.9318
 30
0.0
 10
13.9039
 20
-23.9318
 30
0.0
 10
14.0461
 20
-23.73
 30
0.0
 10
14.1176
 20
-23.3256
 30
0.0
 10
14.1176
 20
-22.7196
 30
0.0
 10
14.1176
 20
-22.7196
 30
0.0
 10
14.1176
 20
-22.1099
 30
0.0
 10
14.0461
 20
-21.7048
 30
0.0
 10
13.9039
 20
-21.5047
 30
0.0
 10
13.9039
 20
-21.5047
 30
0.0
 10
13.7616
 20
-21.3038
 30
0.0
 10
13.5847
 20
-21.2039
 30
0.0
 10
13.3726
 20
-21.2039
 30
0.0
 10
13.3726
 20
-21.2039
 30
0.0
 10
13.1631
 20
-21.2039
 30
0.0
 10
12.9969
 20
-21.2926
 30
0.0
 10
12.8719
 20
-21.4693
 30
0.0
 10
12.8719
 20
-21.4693
 30
0.0
 10
12.7157
 20
-21.6944
 30
0.0
 10
12.6372
 20
-22.1118
 30
0.0
 10
12.6372
 20
-22.7196
 30
0.0
  0
SPLINE
  5
53
330
1F
100
AcDbEntity
  8
ROUND
 62
   250
100
AcDbSpline
210
0.0
220
0.0
230
1.0
 70
    24
 71
     3
 72
     8
 73
     4
 74
     0
 42
0.0000000001
 43
0.0000000001
 40
0.0
 40
0.0
 40
0.0
 40
0.0
 40
1.0
 40
1.0
 40
1.0
 40
1.0
 10
-6.0603
 20
-25.4529
 30
0.0
 10
-6.0603
 20
-25.4529
 30
0.0
 10
23.5347
 20
-25.4529
 30
0.0
 10
23.5347
 20
-25.4529
 30
0.0
  0
SPLINE
  5
54
330
1F
100
AcDbEntity
  8
ROUND
 62
   250
100
AcDbSpline
210
0.0
220
0.0
230
1.0
 70
    24
 71
     3
 72
     8
 73
     4
 74
     0
 42
0.0000000001
 43
0.0000000001
 40
0.0
 40
0.0
 40
0.0
 40
0.0
 40
1.0
 40
1.0
 40
1.0
 40
1.0
 10
-13.9635
 20
21.7301
 30
0.0
 10
-13.9635
 20
21.7301
 30
0.0
 10
27.9877
 20
21.7301
 30
0.0
 10
27.9877
 20
21.7301
 30
0.0
  0
SPLINE
  5
55
330
1F
100
AcDbEntity
  8
ROUND
 62
   250
100
AcDbSpline
210
0.0
220
0.0
230
1.0
 70
    11
 71
     3
 72
    20
 73
    16
 74
     0
 42
0.0000000001
 43
0.0000000001
 40
0.0
 40
0.0
 40
0.0
 40
0.0
 40
0.2
 40
0.2
 40
0.2
 40
0.2
 40
0.4
 40
0.4
 40
0.4
 40
0.4
 40
0.6
 40
0.6
 40
0.6
 40
0.6
 40
1.0
 40
1.0
 40
1.0
 40
1.0
 10
20.1758
 20
-24.5767
 30
0.0
 10
20.1758
 20
-24.5767
 30
0.0
 10
25.6755
 20
-25.3528
 30
0.0
 10
25.6755
 20
-25.3528
 30
0.0
 10
25.6755
 20
-25.3528
 30
0.0
 10
25.6755
 20
-25.3528
 30
0.0
 10
25.6755
 20
-25.5251
 30
0.0
 10
25.6755
 20
-25.5251
 30
0.0
 10
25.6755
 20
-25.5251
 30
0.0
 10
25.6755
 20
-25.5251
 30
0.0
 10
20.1758
 20
-26.3527
 30
0.0
 10
20.1758
 20
-26.3527
 30
0.0
 10
20.1758
 20
-26.3527
 30
0.0
 10
20.1758
 20
-26.3527
 30
0.0
 10
20.1758
 20
-24.5767
 30
0.0
 10
20.1758
 20
-24.5767
 30
0.0
  0
SPLINE
  5
56
330
1F
100
AcDbEntity
  8
ROUND
 62
   250
100
AcDbSpline
210
0.0
220
0.0
230
1.0
 70
    11
 71
     3
 72
    20
 73
    16
 74
     0
 42
0.0000000001
 43
0.0000000001
 40
0.0
 40
0.0
 40
0.0
 40
0.0
 40
0.2
 40
0.2
 40
0.2
 40
0.2
 40
0.4
 40
0.4
 40
0.4
 40
0.4
 40
0.6
 40
0.6
 40
0.6
 40
0.6
 40
1.0
 40
1.0
 40
1.0
 40
1.0
 10
-1.5067
 20
-26.2678
 30
0.0
 10
-1.5067
 20
-26.2678
 30
0.0
 10
-7.0051
 20
-25.4919
 30
0.0
 10
-7.0051
 20
-25.4919
 30
0.0
 10
-7.0051
 20
-25.4919
 30
0.0
 10
-7.0051
 20
-25.4919
 30
0.0
 10
-7.0051
 20
-25.3196
 30
0.0
 10
-7.0051
 20
-25.3196
 30
0.0
 10
-7.0051
 20
-25.3196
 30
0.0
 10
-7.0051
 20
-25.3196
 30
0.0
 10
-1.5067
 20
-24.492
 30
0.0
 10
-1.5067
 20
-24.492
 30
0.0
 10
-1.5067
 20
-24.492
 30
0.0
 10
-1.5067
 20
-24.492
 30
0.0
 10
-1.5067
 20
-26.2678
 30
0.0
 10
-1.5067
 20
-26.2678
 30
0.0
  0
SPLINE
  5
57
330
1F
100
AcDbEntity
  8
ROUND
 62
   250
100
AcDbSpline
210
0.0
220
0.0
230
1.0
 70
    24
 71
     3
 72
     8
 73
     4
 74
     0
 42
0.0000000001
 43
0.0000000001
 40
0.0
 40
0.0
 40
0.0
 40
0.0
 40
1.0
 40
1.0
 40
1.0
 40
1.0
 10
-5.7487
 20
16.1764
 30
0.0
 10
-5.7487
 20
16.1764
 30
0.0
 10
-5.7487
 20
22.8246
 30
0.0
 10
-5.7487
 20
22.8246
 30
0.0
  0
SPLINE
  5
58
330
1F
100
AcDbEntity
  8
ROUND
 62
   250
100
AcDbSpline
210
0.0
220
0.0
230
1.0
 70
    11
 71
     3
 72
    20
 73
    16
 74
     0
 42
0.0000000001
 43
0.0000000001
 40
0.0
 40
0.0
 40
0.0
 40
0.0
 40
0.2
 40
0.2
 40
0.2
 40
0.2
 40
0.4
 40
0.4
 40
0.4
 40
0.4
 40
0.6
 40
0.6
 40
0.6
 40
0.6
 40
1.0
 40
1.0
 40
1.0
 40
1.0
 10
25.432
 20
20.8899
 30
0.0
 10
25.432
 20
20.8899
 30
0.0
 10
19.9329
 20
21.6658
 30
0.0
 10
19.9329
 20
21.6658
 30
0.0
 10
19.9329
 20
21.6658
 30
0.0
 10
19.9329
 20
21.6658
 30
0.0
 10
19.9329
 20
21.8383
 30
0.0
 10
19.9329
 20
21.8383
 30
0.0
 10
19.9329
 20
21.8383
 30
0.0
 10
19.9329
 20
21.8383
 30
0.0
 10
25.432
 20
22.6659
 30
0.0
 10
25.432
 20
22.6659
 30
0.0
 10
25.432
 20
22.6659
 30
0.0
 10
25.432
 20
22.6659
 30
0.0
 10
25.432
 20
20.8899
 30
0.0
 10
25.432
 20
20.8899
 30
0.0
  0
SPLINE
  5
59
330
1F
100
AcDbEntity
  8
ROUND
 62
   250
100
AcDbSpline
210
0.0
220
0.0
230
1.0
 70
    11
 71
     3
 72
    20
 73
    16
 74
     0
 42
0.0000000001
 43
0.0000000001
 40
0.0
 40
0.0
 40
0.0
 40
0.0
 40
0.2
 40
0.2
 40
0.2
 40
0.2
 40
0.4
 40
0.4
 40
0.4
 40
0.4
 40
0.6
 40
0.6
 40
0.6
 40
0.6
 40
1.0
 40
1.0
 40
1.0
 40
1.0
 10
-11.3752
 20
22.5898
 30
0.0
 10
-11.3752
 20
22.5898
 30
0.0
 10
-5.8757
 20
21.8137
 30
0.0
 10
-5.8757
 20
21.8137
 30
0.0
 10
-5.8757
 20
21.8137
 30
0.0
 10
-5.8757
 20
21.8137
 30
0.0
 10
-5.8757
 20
21.6412
 30
0.0
 10
-5.8757
 20
21.6412
 30
0.0
 10
-5.8757
 20
21.6412
 30
0.0
 10
-5.8757
 20
21.6412
 30
0.0
 10
-11.3752
 20
20.8136
 30
0.0
 10
-11.3752
 20
20.8136
 30
0.0
 10
-11.3752
 20
20.8136
 30
0.0
 10
-11.3752
 20
20.8136
 30
0.0
 10
-11.3752
 20
22.5898
 30
0.0
 10
-11.3752
 20
22.5898
 30
0.0
  0
SPLINE
  5
5A
330
1F
100
AcDbEntity
  8
ROUND
  6
NEW_LINE1
 62
   250
100
AcDbSpline
210
0.0
220
0.0
230
1.0
 70
    24
 71
     3
 72
     8
 73
     4
 74
     0
 42
0.0000000001
 43
0.0000000001
 40
0.0
 40
0.0
 40
0.0
 40
0.0
 40
1.0
 40
1.0
 40
1.0
 40
1.0
 10
7.1887
 20
-5.9237
 30
0.0
 10
7.1887
 20
-5.9237
 30
0.0
 10
7.1887
 20
16.8064
 30
0.0
 10
7.1887
 20
16.8064
 30
0.0
  0
SPLINE
  5
5C
330
1F
100
AcDbEntity
  8
ROUND
 62
   250
100
AcDbSpline
210
0.0
220
0.0
230
1.0
 70
    11
 71
     3
 72
    84
 73
    80
 74
     0
 42
0.0000000001
 43
0.0000000001
 40
0.0
 40
0.0
 40
0.0
 40
0.0
 40
0.0476190476190476
 40
0.0476190476190476
 40
0.0476190476190476
 40
0.0476190476190476
 40
0.0952380952380952
 40
0.0952380952380952
 40
0.0952380952380952
 40
0.0952380952380952
 40
0.1428571428571428
 40
0.1428571428571428
 40
0.1428571428571428
 40
0.1428571428571428
 40
0.1904761904761905
 40
0.1904761904761905
 40
0.1904761904761905
 40
0.1904761904761905
 40
0.2380952380952381
 40
0.2380952380952381
 40
0.2380952380952381
 40
0.2380952380952381
 40
0.2857142857142857
 40
0.2857142857142857
 40
0.2857142857142857
 40
0.2857142857142857
 40
0.3333333333333333
 40
0.3333333333333333
 40
0.3333333333333333
 40
0.3333333333333333
 40
0.3809523809523809
 40
0.3809523809523809
 40
0.3809523809523809
 40
0.3809523809523809
 40
0.4285714285714285
 40
0.4285714285714285
 40
0.4285714285714285
 40
0.4285714285714285
 40
0.4761904761904762
 40
0.4761904761904762
 40
0.4761904761904762
 40
0.4761904761904762
 40
0.5238095238095238
 40
0.5238095238095238
 40
0.5238095238095238
 40
0.5238095238095238
 40
0.5714285714285714
 40
0.5714285714285714
 40
0.5714285714285714
 40
0.5714285714285714
 40
0.6190476190476191
 40
0.6190476190476191
 40
0.6190476190476191
 40
0.6190476190476191
 40
0.6666666666666666
 40
0.6666666666666666
 40
0.6666666666666666
 40
0.6666666666666666
 40
0.7142857142857143
 40
0.7142857142857143
 40
0.7142857142857143
 40
0.7142857142857143
 40
0.7619047619047619
 40
0.7619047619047619
 40
0.7619047619047619
 40
0.7619047619047619
 40
0.8095238095238095
 40
0.8095238095238095
 40
0.8095238095238095
 40
0.8095238095238095
 40
0.8571428571428571
 40
0.8571428571428571
 40
0.8571428571428571
 40
0.8571428571428571
 40
0.9047619047619048
 40
0.9047619047619048
 40
0.9047619047619048
 40
0.9047619047619048
 40
1.0
 40
1.0
 40
1.0
 40
1.0
 10
6.0887
 20
25.8778
 30
0.0
 10
6.0887
 20
25.8778
 30
0.0
 10
6.5129
 20
26.3527
 30
0.0
 10
6.5129
 20
26.3527
 30
0.0
 10
6.5129
 20
26.3527
 30
0.0
 10
6.5129
 20
26.3527
 30
0.0
 10
6.7629
 20
26.1406
 30
0.0
 10
6.7629
 20
26.1406
 30
0.0
 10
6.7629
 20
26.1406
 30
0.0
 10
6.7629
 20
26.1406
 30
0.0
 10
6.3187
 20
25.6406
 30
0.0
 10
6.3187
 20
25.6406
 30
0.0
 10
6.3187
 20
25.6406
 30
0.0
 10
6.4637
 20
25.425
 30
0.0
 10
6.5611
 20
25.2362
 30
0.0
 10
6.612
 20
25.0751
 30
0.0
 10
6.612
 20
25.0751
 30
0.0
 10
6.6793
 20
24.8628
 30
0.0
 10
6.7128
 20
24.6249
 30
0.0
 10
6.7128
 20
24.3628
 30
0.0
 10
6.7128
 20
24.3628
 30
0.0
 10
6.7128
 20
23.9835
 30
0.0
 10
6.636
 20
23.6455
 30
0.0
 10
6.4826
 20
23.3496
 30
0.0
 10
6.4826
 20
23.3496
 30
0.0
 10
6.3292
 20
23.053
 30
0.0
 10
6.1145
 20
22.8289
 30
0.0
 10
5.8378
 20
22.6773
 30
0.0
 10
5.8378
 20
22.6773
 30
0.0
 10
5.56
 20
22.5262
 30
0.0
 10
5.266
 20
22.4505
 30
0.0
 10
4.9548
 20
22.4505
 30
0.0
 10
4.9548
 20
22.4505
 30
0.0
 10
4.722
 20
22.4505
 30
0.0
 10
4.5117
 20
22.4832
 30
0.0
 10
4.3229
 20
22.5488
 30
0.0
 10
4.3229
 20
22.5488
 30
0.0
 10
4.1779
 20
22.5995
 30
0.0
 10
4.0091
 20
22.6962
 30
0.0
 10
3.815
 20
22.8393
 30
0.0
 10
3.815
 20
22.8393
 30
0.0
 10
3.815
 20
22.8393
 30
0.0
 10
3.3908
 20
22.3642
 30
0.0
 10
3.3908
 20
22.3642
 30
0.0
 10
3.3908
 20
22.3642
 30
0.0
 10
3.3908
 20
22.3642
 30
0.0
 10
3.1408
 20
22.5763
 30
0.0
 10
3.1408
 20
22.5763
 30
0.0
 10
3.1408
 20
22.5763
 30
0.0
 10
3.1408
 20
22.5763
 30
0.0
 10
3.5857
 20
23.0738
 30
0.0
 10
3.5857
 20
23.0738
 30
0.0
 10
3.5857
 20
23.0738
 30
0.0
 10
3.4202
 20
23.3247
 30
0.0
 10
3.3098
 20
23.5393
 30
0.0
 10
3.2546
 20
23.717
 30
0.0
 10
3.2546
 20
23.717
 30
0.0
 10
3.1995
 20
23.8946
 30
0.0
 10
3.1709
 20
24.1085
 30
0.0
 10
3.1709
 20
24.3576
 30
0.0
 10
3.1709
 20
24.3576
 30
0.0
 10
3.1709
 20
24.7378
 30
0.0
 10
3.2468
 20
25.0767
 30
0.0
 10
3.3985
 20
25.3742
 30
0.0
 10
3.3985
 20
25.3742
 30
0.0
 10
3.5503
 20
25.6715
 30
0.0
 10
3.7624
 20
25.8966
 30
0.0
 10
4.0366
 20
26.0501
 30
0.0
 10
4.0366
 20
26.0501
 30
0.0
 10
4.3099
 20
26.2028
 30
0.0
 10
4.6144
 20
26.2794
 30
0.0
 10
4.9496
 20
26.2794
 30
0.0
 10
4.9496
 20
26.2794
 30
0.0
 10
5.1755
 20
26.2794
 30
0.0
 10
5.3731
 20
26.25
 30
0.0
 10
5.5421
 20
26.1897
 30
0.0
 10
5.5421
 20
26.1897
 30
0.0
 10
5.7109
 20
26.1304
 30
0.0
 10
5.8938
 20
26.0259
 30
0.0
 10
6.0887
 20
25.8778
 30
0.0
  0
SPLINE
  5
5D
330
1F
100
AcDbEntity
  8
ROUND
 62
   250
100
AcDbSpline
210
0.0
220
0.0
230
1.0
 70
    11
 71
     3
 72
    32
 73
    28
 74
     0
 42
0.0000000001
 43
0.0000000001
 40
0.0
 40
0.0
 40
0.0
 40
0.0
 40
0.125
 40
0.125
 40
0.125
 40
0.125
 40
0.25
 40
0.25
 40
0.25
 40
0.25
 40
0.375
 40
0.375
 40
0.375
 40
0.375
 40
0.5
 40
0.5
 40
0.5
 40
0.5
 40
0.625
 40
0.625
 40
0.625
 40
0.625
 40
0.75
 40
0.75
 40
0.75
 40
0.75
 40
1.0
 40
1.0
 40
1.0
 40
1.0
 10
5.7861
 20
25.5372
 30
0.0
 10
5.6273
 20
25.6613
 30
0.0
 10
5.4886
 20
25.7467
 30
0.0
 10
5.3705
 20
25.7923
 30
0.0
 10
5.3705
 20
25.7923
 30
0.0
 10
5.2514
 20
25.8371
 30
0.0
 10
5.1117
 20
25.8603
 30
0.0
 10
4.9522
 20
25.8603
 30
0.0
 10
4.9522
 20
25.8603
 30
0.0
 10
4.5832
 20
25.8603
 30
0.0
 10
4.2789
 20
25.7353
 30
0.0
 10
4.0375
 20
25.4853
 30
0.0
 10
4.0375
 20
25.4853
 30
0.0
 10
3.797
 20
25.2353
 30
0.0
 10
3.6762
 20
24.8621
 30
0.0
 10
3.6762
 20
24.3646
 30
0.0
 10
3.6762
 20
24.3646
 30
0.0
 10
3.6762
 20
24.1697
 30
0.0
 10
3.6951
 20
23.9963
 30
0.0
 10
3.7323
 20
23.8446
 30
0.0
 10
3.7323
 20
23.8446
 30
0.0
 10
3.7589
 20
23.7316
 30
0.0
 10
3.815
 20
23.5929
 30
0.0
 10
3.9013
 20
23.4283
 30
0.0
 10
3.9013
 20
23.4283
 30
0.0
 10
3.9013
 20
23.4283
 30
0.0
 10
5.7861
 20
25.5372
 30
0.0
 10
5.7861
 20
25.5372
 30
0.0
  0
SPLINE
  5
5E
330
1F
100
AcDbEntity
  8
ROUND
 62
   250
100
AcDbSpline
210
0.0
220
0.0
230
1.0
 70
    11
 71
     3
 72
    28
 73
    24
 74
     0
 42
0.0000000001
 43
0.0000000001
 40
0.0
 40
0.0
 40
0.0
 40
0.0
 40
0.1428571428571428
 40
0.1428571428571428
 40
0.1428571428571428
 40
0.1428571428571428
 40
0.2857142857142857
 40
0.2857142857142857
 40
0.2857142857142857
 40
0.2857142857142857
 40
0.4285714285714285
 40
0.4285714285714285
 40
0.4285714285714285
 40
0.4285714285714285
 40
0.5714285714285714
 40
0.5714285714285714
 40
0.5714285714285714
 40
0.5714285714285714
 40
0.7142857142857143
 40
0.7142857142857143
 40
0.7142857142857143
 40
0.7142857142857143
 40
1.0
 40
1.0
 40
1.0
 40
1.0
 10
5.993
 20
25.2767
 30
0.0
 10
5.993
 20
25.2767
 30
0.0
 10
4.116
 20
23.1755
 30
0.0
 10
4.116
 20
23.1755
 30
0.0
 10
4.116
 20
23.1755
 30
0.0
 10
4.2452
 20
23.0695
 30
0.0
 10
4.3651
 20
22.9953
 30
0.0
 10
4.4745
 20
22.9531
 30
0.0
 10
4.4745
 20
22.9531
 30
0.0
 10
4.6177
 20
22.8971
 30
0.0
 10
4.7729
 20
22.8694
 30
0.0
 10
4.9394
 20
22.8694
 30
0.0
 10
4.9394
 20
22.8694
 30
0.0
 10
5.3067
 20
22.8694
 30
0.0
 10
5.6094
 20
22.9988
 30
0.0
 10
5.8489
 20
23.2583
 30
0.0
 10
5.8489
 20
23.2583
 30
0.0
 10
6.0878
 20
23.5179
 30
0.0
 10
6.2077
 20
23.8818
 30
0.0
 10
6.2077
 20
24.3499
 30
0.0
 10
6.2077
 20
24.3499
 30
0.0
 10
6.2077
 20
24.6998
 30
0.0
 10
6.136
 20
25.0094
 30
0.0
 10
5.993
 20
25.2767
 30
0.0
  0
SPLINE
  5
5F
330
1F
100
AcDbEntity
  8
ROUND
 62
   250
100
AcDbSpline
210
0.0
220
0.0
230
1.0
 70
    11
 71
     3
 72
    92
 73
    88
 74
     0
 42
0.0000000001
 43
0.0000000001
 40
0.0
 40
0.0
 40
0.0
 40
0.0
 40
0.0434782608695652
 40
0.0434782608695652
 40
0.0434782608695652
 40
0.0434782608695652
 40
0.0869565217391304
 40
0.0869565217391304
 40
0.0869565217391304
 40
0.0869565217391304
 40
0.1304347826086956
 40
0.1304347826086956
 40
0.1304347826086956
 40
0.1304347826086956
 40
0.1739130434782609
 40
0.1739130434782609
 40
0.1739130434782609
 40
0.1739130434782609
 40
0.2173913043478261
 40
0.2173913043478261
 40
0.2173913043478261
 40
0.2173913043478261
 40
0.2608695652173913
 40
0.2608695652173913
 40
0.2608695652173913
 40
0.2608695652173913
 40
0.3043478260869565
 40
0.3043478260869565
 40
0.3043478260869565
 40
0.3043478260869565
 40
0.3478260869565217
 40
0.3478260869565217
 40
0.3478260869565217
 40
0.3478260869565217
 40
0.391304347826087
 40
0.391304347826087
 40
0.391304347826087
 40
0.391304347826087
 40
0.4347826086956522
 40
0.4347826086956522
 40
0.4347826086956522
 40
0.4347826086956522
 40
0.4782608695652174
 40
0.4782608695652174
 40
0.4782608695652174
 40
0.4782608695652174
 40
0.5217391304347826
 40
0.5217391304347826
 40
0.5217391304347826
 40
0.5217391304347826
 40
0.5652173913043478
 40
0.5652173913043478
 40
0.5652173913043478
 40
0.5652173913043478
 40
0.6086956521739131
 40
0.6086956521739131
 40
0.6086956521739131
 40
0.6086956521739131
 40
0.6521739130434783
 40
0.6521739130434783
 40
0.6521739130434783
 40
0.6521739130434783
 40
0.6956521739130435
 40
0.6956521739130435
 40
0.6956521739130435
 40
0.6956521739130435
 40
0.7391304347826086
 40
0.7391304347826086
 40
0.7391304347826086
 40
0.7391304347826086
 40
0.782608695652174
 40
0.782608695652174
 40
0.782608695652174
 40
0.782608695652174
 40
0.8260869565217391
 40
0.8260869565217391
 40
0.8260869565217391
 40
0.8260869565217391
 40
0.8695652173913043
 40
0.8695652173913043
 40
0.8695652173913043
 40
0.8695652173913043
 40
0.9130434782608695
 40
0.9130434782608695
 40
0.9130434782608695
 40
0.9130434782608695
 40
1.0
 40
1.0
 40
1.0
 40
1.0
 10
7.238
 20
23.3696
 30
0.0
 10
7.238
 20
23.3696
 30
0.0
 10
7.675
 20
23.4101
 30
0.0
 10
7.675
 20
23.4101
 30
0.0
 10
7.675
 20
23.4101
 30
0.0
 10
7.7122
 20
23.2048
 30
0.0
 10
7.7828
 20
23.0558
 30
0.0
 10
7.8871
 20
22.9627
 30
0.0
 10
7.8871
 20
22.9627
 30
0.0
 10
7.9916
 20
22.8703
 30
0.0
 10
8.1252
 20
22.8237
 30
0.0
 10
8.2889
 20
22.8237
 30
0.0
 10
8.2889
 20
22.8237
 30
0.0
 10
8.4286
 20
22.8237
 30
0.0
 10
8.551
 20
22.8556
 30
0.0
 10
8.6562
 20
22.9203
 30
0.0
 10
8.6562
 20
22.9203
 30
0.0
 10
8.7615
 20
22.9841
 30
0.0
 10
8.8476
 20
23.0695
 30
0.0
 10
8.9149
 20
23.1764
 30
0.0
 10
8.9149
 20
23.1764
 30
0.0
 10
8.9831
 20
23.2833
 30
0.0
 10
9.039
 20
23.4283
 30
0.0
 10
9.0848
 20
23.6092
 30
0.0
 10
9.0848
 20
23.6092
 30
0.0
 10
9.1295
 20
23.7912
 30
0.0
 10
9.1528
 20
23.9765
 30
0.0
 10
9.1528
 20
24.1653
 30
0.0
 10
9.1528
 20
24.1653
 30
0.0
 10
9.1528
 20
24.1851
 30
0.0
 10
9.1521
 20
24.2163
 30
0.0
 10
9.1502
 20
24.2559
 30
0.0
 10
9.1502
 20
24.2559
 30
0.0
 10
9.059
 20
24.1118
 30
0.0
 10
8.9347
 20
23.9938
 30
0.0
 10
8.7778
 20
23.9041
 30
0.0
 10
8.7778
 20
23.9041
 30
0.0
 10
8.6199
 20
23.8136
 30
0.0
 10
8.4493
 20
23.7687
 30
0.0
 10
8.2665
 20
23.7687
 30
0.0
 10
8.2665
 20
23.7687
 30
0.0
 10
7.9595
 20
23.7687
 30
0.0
 10
7.7001
 20
23.8799
 30
0.0
 10
7.488
 20
24.1025
 30
0.0
 10
7.488
 20
24.1025
 30
0.0
 10
7.2758
 20
24.3248
 30
0.0
 10
7.1698
 20
24.6172
 30
0.0
 10
7.1698
 20
24.981
 30
0.0
 10
7.1698
 20
24.981
 30
0.0
 10
7.1698
 20
25.357
 30
0.0
 10
7.2802
 20
25.6587
 30
0.0
 10
7.5018
 20
25.888
 30
0.0
 10
7.5018
 20
25.888
 30
0.0
 10
7.7234
 20
26.1173
 30
0.0
 10
8.0009
 20
26.2321
 30
0.0
 10
8.3347
 20
26.2321
 30
0.0
 10
8.3347
 20
26.2321
 30
0.0
 10
8.5752
 20
26.2321
 30
0.0
 10
8.795
 20
26.1665
 30
0.0
 10
8.9952
 20
26.0372
 30
0.0
 10
8.9952
 20
26.0372
 30
0.0
 10
9.1942
 20
25.9078
 30
0.0
 10
9.346
 20
25.7225
 30
0.0
 10
9.4494
 20
25.4827
 30
0.0
 10
9.4494
 20
25.4827
 30
0.0
 10
9.553
 20
25.2432
 30
0.0
 10
9.6047
 20
24.8956
 30
0.0
 10
9.6047
 20
24.4405
 30
0.0
 10
9.6047
 20
24.4405
 30
0.0
 10
9.6047
 20
23.9679
 30
0.0
 10
9.5537
 20
23.5912
 30
0.0
 10
9.4512
 20
23.31
 30
0.0
 10
9.4512
 20
23.31
 30
0.0
 10
9.3477
 20
23.0299
 30
0.0
 10
9.1951
 20
22.8169
 30
0.0
 10
8.9924
 20
22.6703
 30
0.0
 10
8.9924
 20
22.6703
 30
0.0
 10
8.7889
 20
22.5237
 30
0.0
 10
8.5519
 20
22.4505
 30
0.0
 10
8.2786
 20
22.4505
 30
0.0
 10
8.2786
 20
22.4505
 30
0.0
 10
7.9888
 20
22.4505
 30
0.0
 10
7.7527
 20
22.5306
 30
0.0
 10
7.5691
 20
22.6919
 30
0.0
 10
7.5691
 20
22.6919
 30
0.0
 10
7.3854
 20
22.8523
 30
0.0
 10
7.275
 20
23.0782
 30
0.0
 10
7.238
 20
23.3696
 30
0.0
  0
SPLINE
  5
60
330
1F
100
AcDbEntity
  8
ROUND
 62
   250
100
AcDbSpline
210
0.0
220
0.0
230
1.0
 70
    11
 71
     3
 72
    36
 73
    32
 74
     0
 42
0.0000000001
 43
0.0000000001
 40
0.0
 40
0.0
 40
0.0
 40
0.0
 40
0.1111111111111111
 40
0.1111111111111111
 40
0.1111111111111111
 40
0.1111111111111111
 40
0.2222222222222222
 40
0.2222222222222222
 40
0.2222222222222222
 40
0.2222222222222222
 40
0.3333333333333333
 40
0.3333333333333333
 40
0.3333333333333333
 40
0.3333333333333333
 40
0.4444444444444444
 40
0.4444444444444444
 40
0.4444444444444444
 40
0.4444444444444444
 40
0.5555555555555556
 40
0.5555555555555556
 40
0.5555555555555556
 40
0.5555555555555556
 40
0.6666666666666666
 40
0.6666666666666666
 40
0.6666666666666666
 40
0.6666666666666666
 40
0.7777777777777778
 40
0.7777777777777778
 40
0.7777777777777778
 40
0.7777777777777778
 40
1.0
 40
1.0
 40
1.0
 40
1.0
 10
9.0995
 20
25.0043
 30
0.0
 10
9.0995
 20
25.2646
 30
0.0
 10
9.0304
 20
25.4725
 30
0.0
 10
8.8916
 20
25.625
 30
0.0
 10
8.8916
 20
25.625
 30
0.0
 10
8.7519
 20
25.7786
 30
0.0
 10
8.5855
 20
25.8552
 30
0.0
 10
8.3899
 20
25.8552
 30
0.0
 10
8.3899
 20
25.8552
 30
0.0
 10
8.1881
 20
25.8552
 30
0.0
 10
8.0123
 20
25.7725
 30
0.0
 10
7.8622
 20
25.6078
 30
0.0
 10
7.8622
 20
25.6078
 30
0.0
 10
7.7122
 20
25.4422
 30
0.0
 10
7.6371
 20
25.2285
 30
0.0
 10
7.6371
 20
24.9664
 30
0.0
 10
7.6371
 20
24.9664
 30
0.0
 10
7.6371
 20
24.7301
 30
0.0
 10
7.7087
 20
24.5387
 30
0.0
 10
7.851
 20
24.3912
 30
0.0
 10
7.851
 20
24.3912
 30
0.0
 10
7.9932
 20
24.2438
 30
0.0
 10
8.1683
 20
24.1705
 30
0.0
 10
8.3769
 20
24.1705
 30
0.0
 10
8.3769
 20
24.1705
 30
0.0
 10
8.5882
 20
24.1705
 30
0.0
 10
8.7605
 20
24.2438
 30
0.0
 10
8.896
 20
24.3912
 30
0.0
 10
8.896
 20
24.3912
 30
0.0
 10
9.0322
 20
24.5387
 30
0.0
 10
9.0995
 20
24.7429
 30
0.0
 10
9.0995
 20
25.0043
 30
0.0
  0
SPLINE
  5
61
330
1F
100
AcDbEntity
  8
ROUND
 62
   250
100
AcDbSpline
210
0.0
220
0.0
230
1.0
 70
    11
 71
     3
 72
    52
 73
    48
 74
     0
 42
0.0000000001
 43
0.0000000001
 40
0.0
 40
0.0
 40
0.0
 40
0.0
 40
0.0769230769230769
 40
0.0769230769230769
 40
0.0769230769230769
 40
0.0769230769230769
 40
0.1538461538461539
 40
0.1538461538461539
 40
0.1538461538461539
 40
0.1538461538461539
 40
0.2307692307692308
 40
0.2307692307692308
 40
0.2307692307692308
 40
0.2307692307692308
 40
0.3076923076923077
 40
0.3076923076923077
 40
0.3076923076923077
 40
0.3076923076923077
 40
0.3846153846153846
 40
0.3846153846153846
 40
0.3846153846153846
 40
0.3846153846153846
 40
0.4615384615384616
 40
0.4615384615384616
 40
0.4615384615384616
 40
0.4615384615384616
 40
0.5384615384615384
 40
0.5384615384615384
 40
0.5384615384615384
 40
0.5384615384615384
 40
0.6153846153846154
 40
0.6153846153846154
 40
0.6153846153846154
 40
0.6153846153846154
 40
0.6923076923076923
 40
0.6923076923076923
 40
0.6923076923076923
 40
0.6923076923076923
 40
0.7692307692307693
 40
0.7692307692307693
 40
0.7692307692307693
 40
0.7692307692307693
 40
0.8461538461538461
 40
0.8461538461538461
 40
0.8461538461538461
 40
0.8461538461538461
 40
1.0
 40
1.0
 40
1.0
 40
1.0
 10
10.047
 20
24.3395
 30
0.0
 10
10.047
 20
24.7776
 30
0.0
 10
10.0919
 20
25.1302
 30
0.0
 10
10.1824
 20
25.3966
 30
0.0
 10
10.1824
 20
25.3966
 30
0.0
 10
10.2721
 20
25.6638
 30
0.0
 10
10.4064
 20
25.8699
 30
0.0
 10
10.584
 20
26.0147
 30
0.0
 10
10.584
 20
26.0147
 30
0.0
 10
10.7617
 20
26.1597
 30
0.0
 10
10.9851
 20
26.2321
 30
0.0
 10
11.254
 20
26.2321
 30
0.0
 10
11.254
 20
26.2321
 30
0.0
 10
11.4533
 20
26.2321
 30
0.0
 10
11.6274
 20
26.1916
 30
0.0
 10
11.7774
 20
26.1113
 30
0.0
 10
11.7774
 20
26.1113
 30
0.0
 10
11.9275
 20
26.0319
 30
0.0
 10
12.0507
 20
25.9164
 30
0.0
 10
12.1489
 20
25.7656
 30
0.0
 10
12.1489
 20
25.7656
 30
0.0
 10
12.2464
 20
25.6147
 30
0.0
 10
12.3232
 20
25.431
 30
0.0
 10
12.3784
 20
25.2146
 30
0.0
 10
12.3784
 20
25.2146
 30
0.0
 10
12.4343
 20
24.9983
 30
0.0
 10
12.462
 20
24.7068
 30
0.0
 10
12.462
 20
24.3395
 30
0.0
 10
12.462
 20
24.3395
 30
0.0
 10
12.462
 20
23.905
 30
0.0
 10
12.4171
 20
23.5549
 30
0.0
 10
12.3284
 20
23.2877
 30
0.0
 10
12.3284
 20
23.2877
 30
0.0
 10
12.2387
 20
23.0204
 30
0.0
 10
12.1051
 20
22.8142
 30
0.0
 10
11.9275
 20
22.6687
 30
0.0
 10
11.9275
 20
22.6687
 30
0.0
 10
11.7499
 20
22.5229
 30
0.0
 10
11.5257
 20
22.4505
 30
0.0
 10
11.254
 20
22.4505
 30
0.0
 10
11.254
 20
22.4505
 30
0.0
 10
10.8971
 20
22.4505
 30
0.0
 10
10.6169
 20
22.5781
 30
0.0
 10
10.4134
 20
22.8342
 30
0.0
 10
10.4134
 20
22.8342
 30
0.0
 10
10.1694
 20
23.1419
 30
0.0
 10
10.047
 20
23.6446
 30
0.0
 10
10.047
 20
24.3395
 30
0.0
  0
SPLINE
  5
62
330
1F
100
AcDbEntity
  8
ROUND
 62
   250
100
AcDbSpline
210
0.0
220
0.0
230
1.0
 70
    11
 71
     3
 72
    36
 73
    32
 74
     0
 42
0.0000000001
 43
0.0000000001
 40
0.0
 40
0.0
 40
0.0
 40
0.0
 40
0.1111111111111111
 40
0.1111111111111111
 40
0.1111111111111111
 40
0.1111111111111111
 40
0.2222222222222222
 40
0.2222222222222222
 40
0.2222222222222222
 40
0.2222222222222222
 40
0.3333333333333333
 40
0.3333333333333333
 40
0.3333333333333333
 40
0.3333333333333333
 40
0.4444444444444444
 40
0.4444444444444444
 40
0.4444444444444444
 40
0.4444444444444444
 40
0.5555555555555556
 40
0.5555555555555556
 40
0.5555555555555556
 40
0.5555555555555556
 40
0.6666666666666666
 40
0.6666666666666666
 40
0.6666666666666666
 40
0.6666666666666666
 40
0.7777777777777778
 40
0.7777777777777778
 40
0.7777777777777778
 40
0.7777777777777778
 40
1.0
 40
1.0
 40
1.0
 40
1.0
 10
10.5142
 20
24.3395
 30
0.0
 10
10.5142
 20
23.7316
 30
0.0
 10
10.5859
 20
23.3273
 30
0.0
 10
10.7281
 20
23.1256
 30
0.0
 10
10.7281
 20
23.1256
 30
0.0
 10
10.8704
 20
22.9247
 30
0.0
 10
11.0454
 20
22.8237
 30
0.0
 10
11.254
 20
22.8237
 30
0.0
 10
11.254
 20
22.8237
 30
0.0
 10
11.4635
 20
22.8237
 30
0.0
 10
11.6386
 20
22.9255
 30
0.0
 10
11.7808
 20
23.1273
 30
0.0
 10
11.7808
 20
23.1273
 30
0.0
 10
11.9231
 20
23.3291
 30
0.0
 10
11.9948
 20
23.7335
 30
0.0
 10
11.9948
 20
24.3395
 30
0.0
 10
11.9948
 20
24.3395
 30
0.0
 10
11.9948
 20
24.9491
 30
0.0
 10
11.9231
 20
25.3542
 30
0.0
 10
11.7808
 20
25.5544
 30
0.0
 10
11.7808
 20
25.5544
 30
0.0
 10
11.6386
 20
25.7553
 30
0.0
 10
11.4619
 20
25.8552
 30
0.0
 10
11.2496
 20
25.8552
 30
0.0
 10
11.2496
 20
25.8552
 30
0.0
 10
11.0403
 20
25.8552
 30
0.0
 10
10.8738
 20
25.7665
 30
0.0
 10
10.7488
 20
25.5898
 30
0.0
 10
10.7488
 20
25.5898
 30
0.0
 10
10.5927
 20
25.3647
 30
0.0
 10
10.5142
 20
24.9473
 30
0.0
 10
10.5142
 20
24.3395
 30
0.0
  0
SPLINE
  5
63
330
1F
100
AcDbEntity
  8
ROUND
 62
   250
100
AcDbSpline
210
0.0
220
0.0
230
1.0
 70
    24
 71
     3
 72
     8
 73
     4
 74
     0
 42
0.0000000001
 43
0.0000000001
 40
0.0
 40
0.0
 40
0.0
 40
0.0
 40
1.0
 40
1.0
 40
1.0
 40
1.0
 10
26.4893
 20
4.3476
 30
0.0
 10
26.4893
 20
4.3476
 30
0.0
 10
26.4893
 20
3.755
 30
0.0
 10
26.4893
 20
3.755
 30
0.0
  0
SPLINE
  5
64
330
1F
100
AcDbEntity
  8
ROUND
 62
   250
100
AcDbSpline
210
0.0
220
0.0
230
1.0
 70
    24
 71
     3
 72
     8
 73
     4
 74
     0
 42
0.0000000001
 43
0.0000000001
 40
0.0
 40
0.0
 40
0.0
 40
0.0
 40
1.0
 40
1.0
 40
1.0
 40
1.0
 10
25.6003
 20
-16.3982
 30
0.0
 10
25.6003
 20
-16.3982
 30
0.0
 10
25.6003
 20
3.755
 30
0.0
 10
25.6003
 20
3.755
 30
0.0
  0
SPLINE
  5
65
330
1F
100
AcDbEntity
  8
ROUND
 62
   250
100
AcDbSpline
210
0.0
220
0.0
230
1.0
 70
    24
 71
     3
 72
     8
 73
     4
 74
     0
 42
0.0000000001
 43
0.0000000001
 40
0.0
 40
0.0
 40
0.0
 40
0.0
 40
1.0
 40
1.0
 40
1.0
 40
1.0
 10
23.8221
 20
10.5843
 30
0.0
 10
23.8221
 20
10.5843
 30
0.0
 10
23.8221
 20
10.8543
 30
0.0
 10
23.8221
 20
10.8543
 30
0.0
  0
SPLINE
  5
66
330
1F
100
AcDbEntity
  8
ROUND
 62
   250
100
AcDbSpline
210
0.0
220
0.0
230
1.0
 70
    24
 71
     3
 72
     8
 73
     4
 74
     0
 42
0.0000000001
 43
0.0000000001
 40
0.0
 40
0.0
 40
0.0
 40
0.0
 40
1.0
 40
1.0
 40
1.0
 40
1.0
 10
23.8221
 20
10.8543
 30
0.0
 10
23.8221
 20
10.8543
 30
0.0
 10
23.246
 20
14.1221
 30
0.0
 10
23.246
 20
14.1221
 30
0.0
  0
SPLINE
  5
67
330
1F
100
AcDbEntity
  8
ROUND
 62
   250
100
AcDbSpline
210
0.0
220
0.0
230
1.0
 70
    24
 71
     3
 72
     8
 73
     4
 74
     0
 42
0.0000000001
 43
0.0000000001
 40
0.0
 40
0.0
 40
0.0
 40
0.0
 40
1.0
 40
1.0
 40
1.0
 40
1.0
 10
22.7138
 20
14.6097
 30
0.0
 10
22.7138
 20
14.6097
 30
0.0
 10
21.8699
 20
14.6836
 30
0.0
 10
21.8699
 20
14.6836
 30
0.0
  0
SPLINE
  5
68
330
1F
100
AcDbEntity
  8
ROUND
 62
   250
100
AcDbSpline
210
0.0
220
0.0
230
1.0
 70
    24
 71
     3
 72
     8
 73
     4
 74
     0
 42
0.0000000001
 43
0.0000000001
 40
0.0
 40
0.0
 40
0.0
 40
0.0
 40
1.0
 40
1.0
 40
1.0
 40
1.0
 10
21.5993
 20
15.5962
 30
0.0
 10
21.5993
 20
15.5962
 30
0.0
 10
-7.1484
 20
15.5962
 30
0.0
 10
-7.1484
 20
15.5962
 30
0.0
  0
SPLINE
  5
69
330
1F
100
AcDbEntity
  8
ROUND
 62
   250
100
AcDbSpline
210
0.0
220
0.0
230
1.0
 70
    24
 71
     3
 72
     8
 73
     4
 74
     0
 42
0.0000000001
 43
0.0000000001
 40
0.0
 40
0.0
 40
0.0
 40
0.0
 40
1.0
 40
1.0
 40
1.0
 40
1.0
 10
-8.2629
 20
14.6097
 30
0.0
 10
-8.2629
 20
14.6097
 30
0.0
 10
-7.419
 20
14.6836
 30
0.0
 10
-7.419
 20
14.6836
 30
0.0
  0
SPLINE
  5
6A
330
1F
100
AcDbEntity
  8
ROUND
 62
   250
100
AcDbSpline
210
0.0
220
0.0
230
1.0
 70
    24
 71
     3
 72
     8
 73
     4
 74
     0
 42
0.0000000001
 43
0.0000000001
 40
0.0
 40
0.0
 40
0.0
 40
0.0
 40
1.0
 40
1.0
 40
1.0
 40
1.0
 10
21.5993
 20
14.9789
 30
0.0
 10
21.5993
 20
14.9789
 30
0.0
 10
21.5993
 20
15.5962
 30
0.0
 10
21.5993
 20
15.5962
 30
0.0
  0
SPLINE
  5
6B
330
1F
100
AcDbEntity
  8
ROUND
 62
   250
100
AcDbSpline
210
0.0
220
0.0
230
1.0
 70
    24
 71
     3
 72
     8
 73
     4
 74
     0
 42
0.0000000001
 43
0.0000000001
 40
0.0
 40
0.0
 40
0.0
 40
0.0
 40
1.0
 40
1.0
 40
1.0
 40
1.0
 10
21.5993
 20
9.5399
 30
0.0
 10
21.5993
 20
9.5399
 30
0.0
 10
21.5993
 20
4.6436
 30
0.0
 10
21.5993
 20
4.6436
 30
0.0
  0
SPLINE
  5
6C
330
1F
100
AcDbEntity
  8
ROUND
 62
   250
100
AcDbSpline
210
0.0
220
0.0
230
1.0
 70
    24
 71
     3
 72
     8
 73
     4
 74
     0
 42
0.0000000001
 43
0.0000000001
 40
0.0
 40
0.0
 40
0.0
 40
0.0
 40
1.0
 40
1.0
 40
1.0
 40
1.0
 10
-7.1484
 20
9.8467
 30
0.0
 10
-7.1484
 20
9.8467
 30
0.0
 10
21.5993
 20
9.8467
 30
0.0
 10
21.5993
 20
9.8467
 30
0.0
  0
SPLINE
  5
6D
330
1F
100
AcDbEntity
  8
ROUND
 62
   250
100
AcDbSpline
210
0.0
220
0.0
230
1.0
 70
    24
 71
     3
 72
     8
 73
     4
 74
     0
 42
0.0000000001
 43
0.0000000001
 40
0.0
 40
0.0
 40
0.0
 40
0.0
 40
1.0
 40
1.0
 40
1.0
 40
1.0
 10
21.5993
 20
9.8467
 30
0.0
 10
21.5993
 20
9.8467
 30
0.0
 10
23.281
 20
9.9939
 30
0.0
 10
23.281
 20
9.9939
 30
0.0
  0
SPLINE
  5
6E
330
1F
100
AcDbEntity
  8
ROUND
 62
   250
100
AcDbSpline
210
0.0
220
0.0
230
1.0
 70
    24
 71
     3
 72
     8
 73
     4
 74
     0
 42
0.0000000001
 43
0.0000000001
 40
0.0
 40
0.0
 40
0.0
 40
0.0
 40
1.0
 40
1.0
 40
1.0
 40
1.0
 10
-8.83
 20
9.9939
 30
0.0
 10
-8.83
 20
9.9939
 30
0.0
 10
-7.1484
 20
9.8467
 30
0.0
 10
-7.1484
 20
9.8467
 30
0.0
  0
SPLINE
  5
6F
330
1F
100
AcDbEntity
  8
ROUND
 62
   250
100
AcDbSpline
210
0.0
220
0.0
230
1.0
 70
    24
 71
     3
 72
     8
 73
     4
 74
     0
 42
0.0000000001
 43
0.0000000001
 40
0.0
 40
0.0
 40
0.0
 40
0.0
 40
1.0
 40
1.0
 40
1.0
 40
1.0
 10
-7.8893
 20
3.755
 30
0.0
 10
-7.8893
 20
3.755
 30
0.0
 10
26.4893
 20
3.755
 30
0.0
 10
26.4893
 20
3.755
 30
0.0
  0
SPLINE
  5
70
330
1F
100
AcDbEntity
  8
ROUND
 62
   250
100
AcDbSpline
210
0.0
220
0.0
230
1.0
 70
    24
 71
     3
 72
     8
 73
     4
 74
     0
 42
0.0000000001
 43
0.0000000001
 40
0.0
 40
0.0
 40
0.0
 40
0.0
 40
1.0
 40
1.0
 40
1.0
 40
1.0
 10
25.1688
 20
-17.5836
 30
0.0
 10
25.1688
 20
-17.5836
 30
0.0
 10
-6.5688
 20
-17.5836
 30
0.0
 10
-6.5688
 20
-17.5836
 30
0.0
  0
SPLINE
  5
71
330
1F
100
AcDbEntity
  8
ROUND
 62
   250
100
AcDbSpline
210
0.0
220
0.0
230
1.0
 70
    24
 71
     3
 72
     8
 73
     4
 74
     0
 42
0.0000000001
 43
0.0000000001
 40
0.0
 40
0.0
 40
0.0
 40
0.0
 40
1.0
 40
1.0
 40
1.0
 40
1.0
 10
-7.0003
 20
-16.3982
 30
0.0
 10
-7.0003
 20
-16.3982
 30
0.0
 10
-7.0003
 20
3.755
 30
0.0
 10
-7.0003
 20
3.755
 30
0.0
  0
SPLINE
  5
72
330
1F
100
AcDbEntity
  8
ROUND
 62
   250
100
AcDbSpline
210
0.0
220
0.0
230
1.0
 70
    24
 71
     3
 72
     8
 73
     4
 74
     0
 42
0.0000000001
 43
0.0000000001
 40
0.0
 40
0.0
 40
0.0
 40
0.0
 40
1.0
 40
1.0
 40
1.0
 40
1.0
 10
-7.1484
 20
4.6436
 30
0.0
 10
-7.1484
 20
4.6436
 30
0.0
 10
-7.1484
 20
9.7567
 30
0.0
 10
-7.1484
 20
9.7567
 30
0.0
  0
SPLINE
  5
73
330
1F
100
AcDbEntity
  8
ROUND
 62
   250
100
AcDbSpline
210
0.0
220
0.0
230
1.0
 70
    24
 71
     3
 72
     8
 73
     4
 74
     0
 42
0.0000000001
 43
0.0000000001
 40
0.0
 40
0.0
 40
0.0
 40
0.0
 40
1.0
 40
1.0
 40
1.0
 40
1.0
 10
-7.1484
 20
14.9789
 30
0.0
 10
-7.1484
 20
14.9789
 30
0.0
 10
-7.1484
 20
15.5962
 30
0.0
 10
-7.1484
 20
15.5962
 30
0.0
  0
SPLINE
  5
74
330
1F
100
AcDbEntity
  8
ROUND
 62
   250
100
AcDbSpline
210
0.0
220
0.0
230
1.0
 70
    24
 71
     3
 72
     8
 73
     4
 74
     0
 42
0.0000000001
 43
0.0000000001
 40
0.0
 40
0.0
 40
0.0
 40
0.0
 40
1.0
 40
1.0
 40
1.0
 40
1.0
 10
-7.8893
 20
4.3476
 30
0.0
 10
-7.8893
 20
4.3476
 30
0.0
 10
-7.8893
 20
3.755
 30
0.0
 10
-7.8893
 20
3.755
 30
0.0
  0
SPLINE
  5
75
330
1F
100
AcDbEntity
  8
ROUND
 62
   250
100
AcDbSpline
210
0.0
220
0.0
230
1.0
 70
    24
 71
     3
 72
     8
 73
     4
 74
     0
 42
0.0000000001
 43
0.0000000001
 40
0.0
 40
0.0
 40
0.0
 40
0.0
 40
1.0
 40
1.0
 40
1.0
 40
1.0
 10
-9.3712
 20
10.5843
 30
0.0
 10
-9.3712
 20
10.5843
 30
0.0
 10
-9.3712
 20
10.8543
 30
0.0
 10
-9.3712
 20
10.8543
 30
0.0
  0
SPLINE
  5
76
330
1F
100
AcDbEntity
  8
ROUND
 62
   250
100
AcDbSpline
210
0.0
220
0.0
230
1.0
 70
    24
 71
     3
 72
     8
 73
     4
 74
     0
 42
0.0000000001
 43
0.0000000001
 40
0.0
 40
0.0
 40
0.0
 40
0.0
 40
1.0
 40
1.0
 40
1.0
 40
1.0
 10
-9.3712
 20
10.8543
 30
0.0
 10
-9.3712
 20
10.8543
 30
0.0
 10
-8.795
 20
14.1221
 30
0.0
 10
-8.795
 20
14.1221
 30
0.0
  0
SPLINE
  5
77
330
1F
100
AcDbEntity
  8
ROUND
 62
   250
100
AcDbSpline
210
0.0
220
0.0
230
1.0
 70
    24
 71
     3
 72
     8
 73
     4
 74
     0
 42
0.0000000001
 43
0.0000000001
 40
0.0
 40
0.0
 40
0.0
 40
0.0
 40
1.0
 40
1.0
 40
1.0
 40
1.0
 10
-6.5688
 20
-17.5836
 30
0.0
 10
-6.5688
 20
-17.5836
 30
0.0
 10
-7.0003
 20
-16.3982
 30
0.0
 10
-7.0003
 20
-16.3982
 30
0.0
  0
SPLINE
  5
78
330
1F
100
AcDbEntity
  8
ROUND
 62
   250
100
AcDbSpline
210
0.0
220
0.0
230
1.0
 70
    24
 71
     3
 72
     8
 73
     4
 74
     0
 42
0.0000000001
 43
0.0000000001
 40
0.0
 40
0.0
 40
0.0
 40
0.0
 40
1.0
 40
1.0
 40
1.0
 40
1.0
 10
25.1688
 20
-17.5836
 30
0.0
 10
25.1688
 20
-17.5836
 30
0.0
 10
25.6003
 20
-16.3982
 30
0.0
 10
25.6003
 20
-16.3982
 30
0.0
  0
SPLINE
  5
79
330
1F
100
AcDbEntity
  8
ROUND
 62
   250
100
AcDbSpline
210
0.0
220
0.0
230
1.0
 70
     8
 71
     3
 72
     8
 73
     4
 74
     0
 42
0.0000000001
 43
0.0000000001
 40
0.0
 40
0.0
 40
0.0
 40
0.0
 40
1.0
 40
1.0
 40
1.0
 40
1.0
 10
23.8221
 20
10.5843
 30
0.0
 10
23.8221
 20
10.2771
 30
0.0
 10
23.5873
 20
10.0207
 30
0.0
 10
23.281
 20
9.9939
 30
0.0
  0
SPLINE
  5
7A
330
1F
100
AcDbEntity
  8
ROUND
 62
   250
100
AcDbSpline
210
0.0
220
0.0
230
1.0
 70
     8
 71
     3
 72
     8
 73
     4
 74
     0
 42
0.0000000001
 43
0.0000000001
 40
0.0
 40
0.0
 40
0.0
 40
0.0
 40
1.0
 40
1.0
 40
1.0
 40
1.0
 10
-8.83
 20
9.9939
 30
0.0
 10
-9.1364
 20
10.0207
 30
0.0
 10
-9.3712
 20
10.2771
 30
0.0
 10
-9.3712
 20
10.5843
 30
0.0
  0
SPLINE
  5
7B
330
1F
100
AcDbEntity
  8
ROUND
 62
   250
100
AcDbSpline
210
0.0
220
0.0
230
1.0
 70
    24
 71
     3
 72
     8
 73
     4
 74
     0
 42
0.0000000001
 43
0.0000000001
 40
0.0
 40
0.0
 40
0.0
 40
0.0
 40
1.0
 40
1.0
 40
1.0
 40
1.0
 10
26.4893
 20
3.755
 30
0.0
 10
26.4893
 20
3.755
 30
0.0
 10
26.4893
 20
4.3476
 30
0.0
 10
26.4893
 20
4.3476
 30
0.0
  0
SPLINE
  5
7C
330
1F
100
AcDbEntity
  8
ROUND
 62
   250
100
AcDbSpline
210
0.0
220
0.0
230
1.0
 70
    24
 71
     3
 72
     8
 73
     4
 74
     0
 42
0.0000000001
 43
0.0000000001
 40
0.0
 40
0.0
 40
0.0
 40
0.0
 40
1.0
 40
1.0
 40
1.0
 40
1.0
 10
23.246
 20
14.1221
 30
0.0
 10
23.246
 20
14.1221
 30
0.0
 10
23.8221
 20
10.8543
 30
0.0
 10
23.8221
 20
10.8543
 30
0.0
  0
SPLINE
  5
7D
330
1F
100
AcDbEntity
  8
ROUND
 62
   250
100
AcDbSpline
210
0.0
220
0.0
230
1.0
 70
    24
 71
     3
 72
     8
 73
     4
 74
     0
 42
0.0000000001
 43
0.0000000001
 40
0.0
 40
0.0
 40
0.0
 40
0.0
 40
1.0
 40
1.0
 40
1.0
 40
1.0
 10
21.8699
 20
14.6836
 30
0.0
 10
21.8699
 20
14.6836
 30
0.0
 10
22.7138
 20
14.6097
 30
0.0
 10
22.7138
 20
14.6097
 30
0.0
  0
SPLINE
  5
7E
330
1F
100
AcDbEntity
  8
ROUND
 62
   250
100
AcDbSpline
210
0.0
220
0.0
230
1.0
 70
    24
 71
     3
 72
     8
 73
     4
 74
     0
 42
0.0000000001
 43
0.0000000001
 40
0.0
 40
0.0
 40
0.0
 40
0.0
 40
1.0
 40
1.0
 40
1.0
 40
1.0
 10
-7.419
 20
14.6836
 30
0.0
 10
-7.419
 20
14.6836
 30
0.0
 10
-8.2629
 20
14.6097
 30
0.0
 10
-8.2629
 20
14.6097
 30
0.0
  0
SPLINE
  5
7F
330
1F
100
AcDbEntity
  8
ROUND
 62
   250
100
AcDbSpline
210
0.0
220
0.0
230
1.0
 70
    24
 71
     3
 72
     8
 73
     4
 74
     0
 42
0.0000000001
 43
0.0000000001
 40
0.0
 40
0.0
 40
0.0
 40
0.0
 40
1.0
 40
1.0
 40
1.0
 40
1.0
 10
-8.2629
 20
14.6097
 30
0.0
 10
-8.2629
 20
14.6097
 30
0.0
 10
22.7138
 20
14.6097
 30
0.0
 10
22.7138
 20
14.6097
 30
0.0
  0
SPLINE
  5
80
330
1F
100
AcDbEntity
  8
ROUND
 62
   250
100
AcDbSpline
210
0.0
220
0.0
230
1.0
 70
    24
 71
     3
 72
     8
 73
     4
 74
     0
 42
0.0000000001
 43
0.0000000001
 40
0.0
 40
0.0
 40
0.0
 40
0.0
 40
1.0
 40
1.0
 40
1.0
 40
1.0
 10
21.5993
 20
15.5962
 30
0.0
 10
21.5993
 20
15.5962
 30
0.0
 10
21.5993
 20
14.9789
 30
0.0
 10
21.5993
 20
14.9789
 30
0.0
  0
SPLINE
  5
81
330
1F
100
AcDbEntity
  8
ROUND
 62
   250
100
AcDbSpline
210
0.0
220
0.0
230
1.0
 70
    24
 71
     3
 72
     8
 73
     4
 74
     0
 42
0.0000000001
 43
0.0000000001
 40
0.0
 40
0.0
 40
0.0
 40
0.0
 40
1.0
 40
1.0
 40
1.0
 40
1.0
 10
-7.5929
 20
4.644
 30
0.0
 10
-7.5929
 20
4.644
 30
0.0
 10
26.1931
 20
4.644
 30
0.0
 10
26.1931
 20
4.644
 30
0.0
  0
SPLINE
  5
82
330
1F
100
AcDbEntity
  8
ROUND
 62
   250
100
AcDbSpline
210
0.0
220
0.0
230
1.0
 70
    24
 71
     3
 72
     8
 73
     4
 74
     0
 42
0.0000000001
 43
0.0000000001
 40
0.0
 40
0.0
 40
0.0
 40
0.0
 40
1.0
 40
1.0
 40
1.0
 40
1.0
 10
-7.1484
 20
15.5962
 30
0.0
 10
-7.1484
 20
15.5962
 30
0.0
 10
-7.1484
 20
14.9789
 30
0.0
 10
-7.1484
 20
14.9789
 30
0.0
  0
SPLINE
  5
83
330
1F
100
AcDbEntity
  8
ROUND
 62
   250
100
AcDbSpline
210
0.0
220
0.0
230
1.0
 70
    24
 71
     3
 72
     8
 73
     4
 74
     0
 42
0.0000000001
 43
0.0000000001
 40
0.0
 40
0.0
 40
0.0
 40
0.0
 40
1.0
 40
1.0
 40
1.0
 40
1.0
 10
-7.8893
 20
3.755
 30
0.0
 10
-7.8893
 20
3.755
 30
0.0
 10
-7.8893
 20
4.3476
 30
0.0
 10
-7.8893
 20
4.3476
 30
0.0
  0
SPLINE
  5
84
330
1F
100
AcDbEntity
  8
ROUND
 62
   250
100
AcDbSpline
210
0.0
220
0.0
230
1.0
 70
    24
 71
     3
 72
     8
 73
     4
 74
     0
 42
0.0000000001
 43
0.0000000001
 40
0.0
 40
0.0
 40
0.0
 40
0.0
 40
1.0
 40
1.0
 40
1.0
 40
1.0
 10
-8.795
 20
14.1221
 30
0.0
 10
-8.795
 20
14.1221
 30
0.0
 10
-9.3712
 20
10.8543
 30
0.0
 10
-9.3712
 20
10.8543
 30
0.0
  0
SPLINE
  5
85
330
1F
100
AcDbEntity
  8
ROUND
 62
   250
100
AcDbSpline
210
0.0
220
0.0
230
1.0
 70
     8
 71
     3
 72
     8
 73
     4
 74
     0
 42
0.0000000001
 43
0.0000000001
 40
0.0
 40
0.0
 40
0.0
 40
0.0
 40
1.0
 40
1.0
 40
1.0
 40
1.0
 10
22.7138
 20
14.6097
 30
0.0
 10
22.9811
 20
14.5864
 30
0.0
 10
23.1992
 20
14.3864
 30
0.0
 10
23.246
 20
14.1221
 30
0.0
  0
SPLINE
  5
86
330
1F
100
AcDbEntity
  8
ROUND
 62
   250
100
AcDbSpline
210
0.0
220
0.0
230
1.0
 70
     8
 71
     3
 72
     8
 73
     4
 74
     0
 42
0.0000000001
 43
0.0000000001
 40
0.0
 40
0.0
 40
0.0
 40
0.0
 40
1.0
 40
1.0
 40
1.0
 40
1.0
 10
21.8699
 20
14.6836
 30
0.0
 10
21.7168
 20
14.6969
 30
0.0
 10
21.5993
 20
14.8251
 30
0.0
 10
21.5993
 20
14.9789
 30
0.0
  0
SPLINE
  5
87
330
1F
100
AcDbEntity
  8
ROUND
 62
   250
100
AcDbSpline
210
0.0
220
0.0
230
1.0
 70
     8
 71
     3
 72
     8
 73
     4
 74
     0
 42
0.0000000001
 43
0.0000000001
 40
0.0
 40
0.0
 40
0.0
 40
0.0
 40
1.0
 40
1.0
 40
1.0
 40
1.0
 10
-8.795
 20
14.1221
 30
0.0
 10
-8.7485
 20
14.3864
 30
0.0
 10
-8.5302
 20
14.5864
 30
0.0
 10
-8.2629
 20
14.6097
 30
0.0
  0
SPLINE
  5
88
330
1F
100
AcDbEntity
  8
ROUND
 62
   250
100
AcDbSpline
210
0.0
220
0.0
230
1.0
 70
     8
 71
     3
 72
     8
 73
     4
 74
     0
 42
0.0000000001
 43
0.0000000001
 40
0.0
 40
0.0
 40
0.0
 40
0.0
 40
1.0
 40
1.0
 40
1.0
 40
1.0
 10
-7.1484
 20
14.9789
 30
0.0
 10
-7.1484
 20
14.8251
 30
0.0
 10
-7.2659
 20
14.6969
 30
0.0
 10
-7.419
 20
14.6836
 30
0.0
  0
SPLINE
  5
89
330
1F
100
AcDbEntity
  8
ROUND
 62
   250
100
AcDbSpline
210
0.0
220
0.0
230
1.0
 70
     8
 71
     3
 72
     8
 73
     4
 74
     0
 42
0.0000000001
 43
0.0000000001
 40
0.0
 40
0.0
 40
0.0
 40
0.0
 40
1.0
 40
1.0
 40
1.0
 40
1.0
 10
26.1931
 20
4.644
 30
0.0
 10
26.3568
 20
4.644
 30
0.0
 10
26.4893
 20
4.5113
 30
0.0
 10
26.4893
 20
4.3476
 30
0.0
  0
SPLINE
  5
8A
330
1F
100
AcDbEntity
  8
ROUND
 62
   250
100
AcDbSpline
210
0.0
220
0.0
230
1.0
 70
     8
 71
     3
 72
     8
 73
     4
 74
     0
 42
0.0000000001
 43
0.0000000001
 40
0.0
 40
0.0
 40
0.0
 40
0.0
 40
1.0
 40
1.0
 40
1.0
 40
1.0
 10
-7.8893
 20
4.3476
 30
0.0
 10
-7.8893
 20
4.5113
 30
0.0
 10
-7.7566
 20
4.644
 30
0.0
 10
-7.5929
 20
4.644
 30
0.0
  0
SPLINE
  5
8B
330
1F
100
AcDbEntity
  8
ROUND
  6
NEW_LINE2
 62
   250
100
AcDbSpline
210
0.0
220
0.0
230
1.0
 70
    24
 71
     3
 72
     8
 73
     4
 74
     0
 42
0.0000000001
 43
0.0000000001
 40
0.0
 40
0.0
 40
0.0
 40
0.0
 40
1.0
 40
1.0
 40
1.0
 40
1.0
 10
9.3356
 20
-18.6307
 30
0.0
 10
9.3356
 20
-18.6307
 30
0.0
 10
9.3356
 20
-3.2318
 30
0.0
 10
9.3356
 20
-3.2318
 30
0.0
  0
SPLINE
  5
8D
330
1F
100
AcDbEntity
  8
ROUND
 62
   250
100
AcDbSpline
210
0.0
220
0.0
230
1.0
 70
    24
 71
     3
 72
     8
 73
     4
 74
     0
 42
0.0000000001
 43
0.0000000001
 40
0.0
 40
0.0
 40
0.0
 40
0.0
 40
1.0
 40
1.0
 40
1.0
 40
1.0
 10
25.8593
 20
-26.2213
 30
0.0
 10
25.8593
 20
-26.2213
 30
0.0
 10
25.8593
 20
-18.0934
 30
0.0
 10
25.8593
 20
-18.0934
 30
0.0
  0
SPLINE
  5
8E
330
1F
100
AcDbEntity
  8
ROUND
 62
   250
100
AcDbSpline
210
0.0
220
0.0
230
1.0
 70
    24
 71
     3
 72
     8
 73
     4
 74
     0
 42
0.0000000001
 43
0.0000000001
 40
0.0
 40
0.0
 40
0.0
 40
0.0
 40
1.0
 40
1.0
 40
1.0
 40
1.0
 10
-7.1942
 20
-26.1091
 30
0.0
 10
-7.1942
 20
-26.1091
 30
0.0
 10
-7.1942
 20
-18.0393
 30
0.0
 10
-7.1942
 20
-18.0393
 30
0.0
  0
SPLINE
  5
8F
330
1F
100
AcDbEntity
  8
ROUND
 62
   250
100
AcDbSpline
210
0.0
220
0.0
230
1.0
 70
    11
 71
     3
 72
    48
 73
    44
 74
     0
 42
0.0000000001
 43
0.0000000001
 40
0.0
 40
0.0
 40
0.0
 40
0.0
 40
0.0833333333333333
 40
0.0833333333333333
 40
0.0833333333333333
 40
0.0833333333333333
 40
0.1666666666666667
 40
0.1666666666666667
 40
0.1666666666666667
 40
0.1666666666666667
 40
0.25
 40
0.25
 40
0.25
 40
0.25
 40
0.3333333333333333
 40
0.3333333333333333
 40
0.3333333333333333
 40
0.3333333333333333
 40
0.4166666666666667
 40
0.4166666666666667
 40
0.4166666666666667
 40
0.4166666666666667
 40
0.5
 40
0.5
 40
0.5
 40
0.5
 40
0.5833333333333334
 40
0.5833333333333334
 40
0.5833333333333334
 40
0.5833333333333334
 40
0.6666666666666666
 40
0.6666666666666666
 40
0.6666666666666666
 40
0.6666666666666666
 40
0.75
 40
0.75
 40
0.75
 40
0.75
 40
0.8333333333333334
 40
0.8333333333333334
 40
0.8333333333333334
 40
0.8333333333333334
 40
1.0
 40
1.0
 40
1.0
 40
1.0
 10
15.3859
 20
-0.6933
 30
0.0
 10
15.3859
 20
-0.6933
 30
0.0
 10
15.3859
 20
-0.2561
 30
0.0
 10
15.3859
 20
-0.2561
 30
0.0
 10
15.3859
 20
-0.2561
 30
0.0
 10
15.3859
 20
-0.2561
 30
0.0
 10
17.7828
 20
-0.2561
 30
0.0
 10
17.7828
 20
-0.2561
 30
0.0
 10
17.7828
 20
-0.2561
 30
0.0
 10
17.7828
 20
-0.2561
 30
0.0
 10
17.7828
 20
-0.6097
 30
0.0
 10
17.7828
 20
-0.6097
 30
0.0
 10
17.7828
 20
-0.6097
 30
0.0
 10
17.5474
 20
-0.8606
 30
0.0
 10
17.3137
 20
-1.1942
 30
0.0
 10
17.0818
 20
-1.6098
 30
0.0
 10
17.0818
 20
-1.6098
 30
0.0
 10
16.8507
 20
-2.0253
 30
0.0
 10
16.6714
 20
-2.4539
 30
0.0
 10
16.5455
 20
-2.8927
 30
0.0
 10
16.5455
 20
-2.8927
 30
0.0
 10
16.4542
 20
-3.2031
 30
0.0
 10
16.3962
 20
-3.542
 30
0.0
 10
16.3713
 20
-3.911
 30
0.0
 10
16.3713
 20
-3.911
 30
0.0
 10
16.3713
 20
-3.911
 30
0.0
 10
15.9041
 20
-3.911
 30
0.0
 10
15.9041
 20
-3.911
 30
0.0
 10
15.9041
 20
-3.911
 30
0.0
 10
15.9092
 20
-3.6195
 30
0.0
 10
15.966
 20
-3.2678
 30
0.0
 10
16.0756
 20
-2.8548
 30
0.0
 10
16.0756
 20
-2.8548
 30
0.0
 10
16.1851
 20
-2.4427
 30
0.0
 10
16.342
 20
-2.0444
 30
0.0
 10
16.5464
 20
-1.6615
 30
0.0
 10
16.5464
 20
-1.6615
 30
0.0
 10
16.7515
 20
-1.2787
 30
0.0
 10
16.9689
 20
-0.9554
 30
0.0
 10
17.1999
 20
-0.6933
 30
0.0
 10
17.1999
 20
-0.6933
 30
0.0
 10
17.1999
 20
-0.6933
 30
0.0
 10
15.3859
 20
-0.6933
 30
0.0
 10
15.3859
 20
-0.6933
 30
0.0
  0
SPLINE
  5
90
330
1F
100
AcDbEntity
  8
ROUND
 62
   250
100
AcDbSpline
210
0.0
220
0.0
230
1.0
 70
    24
 71
     3
 72
     8
 73
     4
 74
     0
 42
0.0000000001
 43
0.0000000001
 40
0.0
 40
0.0
 40
0.0
 40
0.0
 40
1.0
 40
1.0
 40
1.0
 40
1.0
 10
-0.9263
 20
-4.7679
 30
0.0
 10
-0.9263
 20
-4.7679
 30
0.0
 10
19.3443
 20
-4.7679
 30
0.0
 10
19.3443
 20
-4.7679
 30
0.0
  0
SPLINE
  5
91
330
1F
100
AcDbEntity
  8
ROUND
 62
   250
100
AcDbSpline
210
0.0
220
0.0
230
1.0
 70
    11
 71
     3
 72
    20
 73
    16
 74
     0
 42
0.0000000001
 43
0.0000000001
 40
0.0
 40
0.0
 40
0.0
 40
0.0
 40
0.2
 40
0.2
 40
0.2
 40
0.2
 40
0.4
 40
0.4
 40
0.4
 40
0.4
 40
0.6
 40
0.6
 40
0.6
 40
0.6
 40
1.0
 40
1.0
 40
1.0
 40
1.0
 10
1.4038
 20
-3.9236
 30
0.0
 10
1.4038
 20
-3.9236
 30
0.0
 10
6.9033
 20
-4.6997
 30
0.0
 10
6.9033
 20
-4.6997
 30
0.0
 10
6.9033
 20
-4.6997
 30
0.0
 10
6.9033
 20
-4.6997
 30
0.0
 10
6.9033
 20
-4.872
 30
0.0
 10
6.9033
 20
-4.872
 30
0.0
 10
6.9033
 20
-4.872
 30
0.0
 10
6.9033
 20
-4.872
 30
0.0
 10
1.4038
 20
-5.6997
 30
0.0
 10
1.4038
 20
-5.6997
 30
0.0
 10
1.4038
 20
-5.6997
 30
0.0
 10
1.4038
 20
-5.6997
 30
0.0
 10
1.4038
 20
-3.9236
 30
0.0
 10
1.4038
 20
-3.9236
 30
0.0
  0
SPLINE
  5
92
330
1F
100
AcDbEntity
  8
ROUND
 62
   250
100
AcDbSpline
210
0.0
220
0.0
230
1.0
 70
    11
 71
     3
 72
    20
 73
    16
 74
     0
 42
0.0000000001
 43
0.0000000001
 40
0.0
 40
0.0
 40
0.0
 40
0.0
 40
0.2
 40
0.2
 40
0.2
 40
0.2
 40
0.4
 40
0.4
 40
0.4
 40
0.4
 40
0.6
 40
0.6
 40
0.6
 40
0.6
 40
1.0
 40
1.0
 40
1.0
 40
1.0
 10
15.0682
 20
-5.645
 30
0.0
 10
15.0682
 20
-5.645
 30
0.0
 10
9.5687
 20
-4.8689
 30
0.0
 10
9.5687
 20
-4.8689
 30
0.0
 10
9.5687
 20
-4.8689
 30
0.0
 10
9.5687
 20
-4.8689
 30
0.0
 10
9.5687
 20
-4.6966
 30
0.0
 10
9.5687
 20
-4.6966
 30
0.0
 10
9.5687
 20
-4.6966
 30
0.0
 10
9.5687
 20
-4.6966
 30
0.0
 10
15.0682
 20
-3.869
 30
0.0
 10
15.0682
 20
-3.869
 30
0.0
 10
15.0682
 20
-3.869
 30
0.0
 10
15.0682
 20
-3.869
 30
0.0
 10
15.0682
 20
-5.645
 30
0.0
 10
15.0682
 20
-5.645
 30
0.0
  0
ENDSEC
  0
SECTION
  2
OBJECTS
  0
DICTIONARY
  5
C
330
0
100
AcDbDictionary
  3
ACAD_GROUP
350
D
  3
ACAD_LAYOUT
350
1A
  3
ACAD_MATERIAL
350
3B
  3
ACAD_MLEADERSTYLE
350
B5
  3
ACAD_MLINESTYLE
350
17
  3
ACAD_PLOTSETTINGS
350
19
  3
ACAD_VISUALSTYLE
350
2A
  3
ACDBHEADERROUNDTRIPXREC
350
93
  3
ACDBVARIABLEDICTIONARY
350
B3
  0
DICTIONARY
  5
D
102
{ACAD_REACTORS
330
C
102
}
330
C
100
AcDbDictionary
  0
DICTIONARY
  5
1A
102
{ACAD_REACTORS
330
C
102
}
330
C
100
AcDbDictionary
  0
DICTIONARY
  5
3B
102
{ACAD_REACTORS
330
C
102
}
330
C
100
AcDbDictionary
  3
BYBLOCK
350
3D
  3
BYLAYER
350
3C
  3
GLOBAL
350
3E
  0
DICTIONARY
  5
B5
102
{ACAD_REACTORS
330
C
102
}
330
C
100
AcDbDictionary
  0
DICTIONARY
  5
17
102
{ACAD_REACTORS
330
C
102
}
330
C
100
AcDbDictionary
  3
STANDARD
350
18
  0
DICTIONARY
  5
19
102
{ACAD_REACTORS
330
C
102
}
330
C
100
AcDbDictionary
  0
DICTIONARY
  5
2A
102
{ACAD_REACTORS
330
C
102
}
330
C
100
AcDbDictionary
  3
2DWIREFRAME
350
2F
  3
3D_HIDDEN
350
31
  3
3DWIREFRAME
350
30
  3
BASIC
350
32
  3
BRIGHTEN
350
36
  3
COLORCHANGE
350
3A
  3
CONCEPTUAL
350
34
  3
DIM
350
35
  3
FACEPATTERN
350
39
  3
FLAT
350
2B
  3
FLATWITHEDGES
350
2C
  3
GOURAUD
350
2D
  3
GOURAUDWITHEDGES
350
2E
  3
LINEPATTERN
350
38
  3
REALISTIC
350
33
  3
THICKEN
350
37
  0
DICTIONARY
  5
93
102
{ACAD_REACTORS
330
C
102
}
330
C
100
AcDbDictionary
  3
CEPSNTYPE
350
9C
  3
DIMSTYLEDATA
350
B2
  3
FINGERPRINTGUID
350
9D
  3
HYPERLINKBASE
350
96
  3
INSUNITS
350
9B
  3
LAYOUTDICT
350
98
  3
LWETCUNION
350
9A
  3
PLOTSETDICT
350
99
  3
PSVPSCALE
350
9F
  3
PUCSBASE
350
A2
  3
PUCSORGBACK
350
A8
  3
PUCSORGBOTTOM
350
A4
  3
PUCSORGFRONT
350
A7
  3
PUCSORGLEFT
350
A5
  3
PUCSORGRIGHT
350
A6
  3
PUCSORGTOP
350
A3
  3
PUCSORTHOREF
350
A0
  3
PUCSORTHOVIEW
350
A1
  3
STYLESHEET
350
97
  3
TSTACKALIGN
350
94
  3
TSTACKSIZE
350
95
  3
UCSBASE
350
AB
  3
UCSORGBACK
350
B1
  3
UCSORGBOTTOM
350
AD
  3
UCSORGFRONT
350
B0
  3
UCSORGLEFT
350
AE
  3
UCSORGRIGHT
350
AF
  3
UCSORGTOP
350
AC
  3
UCSORTHOREF
350
A9
  3
UCSORTHOVIEW
350
AA
  3
VERSIONGUID
350
9E
  0
DICTIONARY
  5
B3
102
{ACAD_REACTORS
330
C
102
}
330
C
100
AcDbDictionary
  3
DIMASSOC
350
B6
  3
HIDETEXT
350
B7
  0
MATERIAL
  5
3D
102
{ACAD_REACTORS
330
3B
102
}
102
{ACAD_XDICTIONARY
360
BA
102
}
330
3B
100
AcDbMaterial
  1
ByBlock
  0
MATERIAL
  5
3C
102
{ACAD_REACTORS
330
3B
102
}
102
{ACAD_XDICTIONARY
360
B8
102
}
330
3B
100
AcDbMaterial
  1
ByLayer
  0
MATERIAL
  5
3E
102
{ACAD_REACTORS
330
3B
102
}
102
{ACAD_XDICTIONARY
360
BC
102
}
330
3B
100
AcDbMaterial
  1
Global
  0
MLINESTYLE
  5
18
102
{ACAD_REACTORS
330
17
102
}
330
17
100
AcDbMlineStyle
  2
Standard
 70
     0
  3

 62
   256
 51
90.0
 52
90.0
 71
     2
 49
0.5
 62
   256
  6
BYLAYER
 49
-0.5
 62
   256
  6
BYLAYER
  0
ACAD_PROXY_OBJECT
  5
2F
102
{ACAD_REACTORS
330
2A
102
}
330
2A
100
AcDbProxyObject
 90
      499
 91
      501
 93
      436
310
42CC9915DA5C99599C985B595049028333333333333E3BF0000000000000FB0107901411070040501600405405064090741402480A0340
1001
ACAD
1000
AcDbSavedByObjectVersion
1070
     0
  0
ACAD_PROXY_OBJECT
  5
31
102
{ACAD_REACTORS
330
2A
102
}
330
2A
100
AcDbProxyObject
 90
      499
 91
      501
 93
      500
310
424CD108121A5919195B90640502408333333333333E3BF0000000000000FB01079024090700405020000000000001110200405405064090740C02480A0340
1001
ACAD
1000
AcDbSavedByObjectVersion
1070
     0
  0
ACAD_PROXY_OBJECT
  5
30
102
{ACAD_REACTORS
330
2A
102
}
330
2A
100
AcDbProxyObject
 90
      499
 91
      501
 93
      436
310
42CCD915DA5C99599C985B595059028333333333333E3BF0000000000000FB0107901411070040501600405405064090741402480A0340
1001
ACAD
1000
AcDbSavedByObjectVersion
1070
     0
  0
ACAD_PROXY_OBJECT
  5
32
102
{ACAD_REACTORS
330
2A
102
}
330
2A
100
AcDbProxyObject
 90
      499
 91
      501
 93
      388
310
4150985CDA58D07406404333333333333E3BF0000000000000FB0107A41107004050150841D405064090741402480A0350
1001
ACAD
1000
AcDbSavedByObjectVersion
1070
     0
  0
ACAD_PROXY_OBJECT
  5
36
102
{ACAD_REACTORS
330
2A
102
}
330
2A
100
AcDbProxyObject
 90
      499
 91
      501
 93
      428
310
42109C9A59DA1D195B90C409028333333333333E3BF0000000000000FB010790141107004050150841D405064090741402480A029950
1001
ACAD
1000
AcDbSavedByObjectVersion
1070
     0
  0
ACAD_PROXY_OBJECT
  5
3A
102
{ACAD_REACTORS
330
2A
102
}
330
2A
100
AcDbProxyObject
 90
      499
 91
      501
 93
      452
310
42D0DBDB1BDC90DA185B99D95104090240C333333333333E3BF0000000000000FB0108901411070040501508421405064090741402480A0350
1001
ACAD
1000
AcDbSavedByObjectVersion
1070
     0
  0
ACAD_PROXY_OBJECT
  5
34
102
{ACAD_REACTORS
330
2A
102
}
330
2A
100
AcDbProxyObject
 90
      499
 91
      501
 93
      500
310
4290DBDB98D95C1D1D585B10940D028333333333333E3BF0000000000000FB0107902409070040501000000000000111010841D405064090740C02480A0340
1001
ACAD
1000
AcDbSavedByObjectVersion
1070
     0
  0
ACAD_PROXY_OBJECT
  5
35
102
{ACAD_REACTORS
330
2A
102
}
330
2A
100
AcDbProxyObject
 90
      499
 91
      501
 93
      412
310
40D11A5B50B409028333333333333E3BF0000000000000FB010790141107004050150841D405064090741402480A02677FFFFFD0
1001
ACAD
1000
AcDbSavedByObjectVersion
1070
     0
  0
ACAD_PROXY_OBJECT
  5
39
102
{ACAD_REACTORS
330
2A
102
}
330
2A
100
AcDbProxyObject
 90
      499
 91
      501
 93
      444
310
42D19858D95C185D1D195C9B90F409028333333333333E3BF0000000000000FB010790141107004050150841D405064090741402480A0350
1001
ACAD
1000
AcDbSavedByObjectVersion
1070
     0
  0
ACAD_PROXY_OBJECT
  5
2B
102
{ACAD_REACTORS
330
2A
102
}
330
2A
100
AcDbProxyObject
 90
      499
 91
      501
 93
      388
310
41119B185D240901404333333333333E3BF0000000000000F9010740A41107004050150841D405064090741402480A1B50
1001
ACAD
1000
AcDbSavedByObjectVersion
1070
     0
  0
ACAD_PROXY_OBJECT
  5
2C
102
{ACAD_REACTORS
330
2A
102
}
330
2A
100
AcDbProxyObject
 90
      499
 91
      501
 93
      476
310
43519B185D15DA5D1A115919D95CD0140901404333333333333E3BF0000000000000F9010740901411070040501600405405064090741402480A1B50
1001
ACAD
1000
AcDbSavedByObjectVersion
1070
     0
  0
ACAD_PROXY_OBJECT
  5
2D
102
{ACAD_REACTORS
330
2A
102
}
330
2A
100
AcDbProxyObject
 90
      499
 91
      501
 93
      412
310
41D1DBDD5C985D5910240902404333333333333E3BF0000000000000F9010740A411070040501641D405064090741402480A1B50
1001
ACAD
1000
AcDbSavedByObjectVersion
1070
     0
  0
ACAD_PROXY_OBJECT
  5
2E
102
{ACAD_REACTORS
330
2A
102
}
330
2A
100
AcDbProxyObject
 90
      499
 91
      501
 93
      500
310
4411DBDD5C985D5915DA5D1A115919D95CD0340902404333333333333E3BF0000000000000F9010740901411070040501600405405064090741402480A1B50
1001
ACAD
1000
AcDbSavedByObjectVersion
1070
     0
  0
ACAD_PROXY_OBJECT
  5
38
102
{ACAD_REACTORS
330
2A
102
}
330
2A
100
AcDbProxyObject
 90
      499
 91
      501
 93
      444
310
42D31A5B995C185D1D195C9B90E409028333333333333E3BF0000000000000FB010790141107004050750841D405064090741402483A0350
1001
ACAD
1000
AcDbSavedByObjectVersion
1070
     0
  0
ACAD_PROXY_OBJECT
  5
33
102
{ACAD_REACTORS
330
2A
102
}
330
2A
100
AcDbProxyObject
 90
      499
 91
      501
 93
      420
310
425499585B1A5CDD1A58D08409028333333333333E3BF0000000000000FB01079019070040501508421405064090741402480A1B40
1001
ACAD
1000
AcDbSavedByObjectVersion
1070
     0
  0
ACAD_PROXY_OBJECT
  5
37
102
{ACAD_REACTORS
330
2A
102
}
330
2A
100
AcDbProxyObject
 90
      499
 91
      501
 93
      412
310
41D51A1A58DAD95B90D409028333333333333E3BF0000000000000FB010790141107004050150C41D405064090741402480A0350
1001
ACAD
1000
AcDbSavedByObjectVersion
1070
     0
  0
XRECORD
  5
9C
102
{ACAD_REACTORS
330
93
102
}
330
93
100
AcDbXrecord
 90
        0
  0
XRECORD
  5
B2
102
{ACAD_REACTORS
330
93
102
}
330
93
100
AcDbXrecord
1000
DSTYLE
1002
{
1070
   340
340
11
1002
}
  0
XRECORD
  5
9D
102
{ACAD_REACTORS
330
93
102
}
330
93
100
AcDbXrecord
  1
{F9C77BE4-EC89-4ED3-9EAF-3189FF1CC321}
  0
XRECORD
  5
96
102
{ACAD_REACTORS
330
93
102
}
330
93
100
AcDbXrecord
  1

  0
XRECORD
  5
9B
102
{ACAD_REACTORS
330
93
102
}
330
93
100
AcDbXrecord
 90
        4
  0
XRECORD
  5
98
102
{ACAD_REACTORS
330
93
102
}
330
93
100
AcDbXrecord
340
1A
  0
XRECORD
  5
9A
102
{ACAD_REACTORS
330
93
102
}
330
93
100
AcDbXrecord
 90
    10781
  0
XRECORD
  5
99
102
{ACAD_REACTORS
330
93
102
}
330
93
100
AcDbXrecord
340
19
  0
XRECORD
  5
9F
102
{ACAD_REACTORS
330
93
102
}
330
93
100
AcDbXrecord
 40
0.0
  0
XRECORD
  5
A2
102
{ACAD_REACTORS
330
93
102
}
330
93
100
AcDbXrecord
340
0
  0
XRECORD
  5
A8
102
{ACAD_REACTORS
330
93
102
}
330
93
100
AcDbXrecord
 10
0.0
 20
0.0
 30
0.0
  0
XRECORD
  5
A4
102
{ACAD_REACTORS
330
93
102
}
330
93
100
AcDbXrecord
 10
0.0
 20
0.0
 30
0.0
  0
XRECORD
  5
A7
102
{ACAD_REACTORS
330
93
102
}
330
93
100
AcDbXrecord
 10
0.0
 20
0.0
 30
0.0
  0
XRECORD
  5
A5
102
{ACAD_REACTORS
330
93
102
}
330
93
100
AcDbXrecord
 10
0.0
 20
0.0
 30
0.0
  0
XRECORD
  5
A6
102
{ACAD_REACTORS
330
93
102
}
330
93
100
AcDbXrecord
 10
0.0
 20
0.0
 30
0.0
  0
XRECORD
  5
A3
102
{ACAD_REACTORS
330
93
102
}
330
93
100
AcDbXrecord
 10
0.0
 20
0.0
 30
0.0
  0
XRECORD
  5
A0
102
{ACAD_REACTORS
330
93
102
}
330
93
100
AcDbXrecord
340
0
  0
XRECORD
  5
A1
102
{ACAD_REACTORS
330
93
102
}
330
93
100
AcDbXrecord
 70
     0
  0
XRECORD
  5
97
102
{ACAD_REACTORS
330
93
102
}
330
93
100
AcDbXrecord
  1

  0
XRECORD
  5
94
102
{ACAD_REACTORS
330
93
102
}
330
93
100
AcDbXrecord
 90
        1
  0
XRECORD
  5
95
102
{ACAD_REACTORS
330
93
102
}
330
93
100
AcDbXrecord
 90
       70
  0
XRECORD
  5
AB
102
{ACAD_REACTORS
330
93
102
}
330
93
100
AcDbXrecord
340
0
  0
XRECORD
  5
B1
102
{ACAD_REACTORS
330
93
102
}
330
93
100
AcDbXrecord
 10
0.0
 20
0.0
 30
0.0
  0
XRECORD
  5
AD
102
{ACAD_REACTORS
330
93
102
}
330
93
100
AcDbXrecord
 10
0.0
 20
0.0
 30
0.0
  0
XRECORD
  5
B0
102
{ACAD_REACTORS
330
93
102
}
330
93
100
AcDbXrecord
 10
0.0
 20
0.0
 30
0.0
  0
XRECORD
  5
AE
102
{ACAD_REACTORS
330
93
102
}
330
93
100
AcDbXrecord
 10
0.0
 20
0.0
 30
0.0
  0
XRECORD
  5
AF
102
{ACAD_REACTORS
330
93
102
}
330
93
100
AcDbXrecord
 10
0.0
 20
0.0
 30
0.0
  0
XRECORD
  5
AC
102
{ACAD_REACTORS
330
93
102
}
330
93
100
AcDbXrecord
 10
0.0
 20
0.0
 30
0.0
  0
XRECORD
  5
A9
102
{ACAD_REACTORS
330
93
102
}
330
93
100
AcDbXrecord
340
0
  0
XRECORD
  5
AA
102
{ACAD_REACTORS
330
93
102
}
330
93
100
AcDbXrecord
 70
     0
  0
XRECORD
  5
9E
102
{ACAD_REACTORS
330
93
102
}
330
93
100
AcDbXrecord
  1
{FAEB1C32-E019-11D5-929B-00C0DF256EC4}
  0
DICTIONARYVAR
  5
B6
102
{ACAD_REACTORS
330
B3
102
}
330
B3
100
DictionaryVariables
280
     0
  1
2
  0
DICTIONARYVAR
  5
B7
102
{ACAD_REACTORS
330
B3
102
}
330
B3
100
DictionaryVariables
280
     0
  1
1
  0
DICTIONARY
  5
BA
330
3D
100
AcDbDictionary
280
     1
  3
ACAD_XREC_ROUNDTRIP
360
BB
  0
DICTIONARY
  5
B8
330
3C
100
AcDbDictionary
280
     1
  3
ACAD_XREC_ROUNDTRIP
360
B9
  0
DICTIONARY
  5
BC
330
3E
100
AcDbDictionary
280
     1
  3
ACAD_XREC_ROUNDTRIP
360
BD
  0
XRECORD
  5
BB
102
{ACAD_REACTORS
330
BA
102
}
330
BA
100
AcDbXrecord
102
MATERIAL
148
0.0
149
0.0
149
0.0
 93
        0
 94
      127
282
     0
 72
     1
 77
     1
171
     1
175
     1
179
     1
273
     0
  0
XRECORD
  5
B9
102
{ACAD_REACTORS
330
B8
102
}
330
B8
100
AcDbXrecord
102
MATERIAL
148
0.0
149
0.0
149
0.0
 93
        0
 94
      127
282
     0
 72
     1
 77
     1
171
     1
175
     1
179
     1
273
     0
  0
XRECORD
  5
BD
102
{ACAD_REACTORS
330
BC
102
}
330
BC
100
AcDbXrecord
102
MATERIAL
148
0.0
149
0.0
149
0.0
 93
        0
 94
      127
282
     0
 72
     1
 77
     1
171
     1
175
     1
179
     1
273
     0
  0
ENDSEC
  0
EOF
