  0
SECTION
  2
HEADER
  9
$ACADVER
  1
AC1015
  9
$ACADMAINTVER
 70
     6
  9
$DWGCODEPAGE
  3
ANSI_1250
  9
$INSBASE
 10
0.0
 20
0.0
 30
0.0
  9
$EXTMIN
 10
-31.4233
 20
-18.0383
 30
0.0
  9
$EXTMAX
 10
31.4233
 20
18.0383
 30
0.0
  9
$LIMMIN
 10
0.0
 20
0.0
  9
$LIMMAX
 10
12.0
 20
9.0
  9
$ORTHOMODE
 70
     0
  9
$REGENMODE
 70
     1
  9
$FILLMODE
 70
     1
  9
$QTEXTMODE
 70
     0
  9
$MIRRTEXT
 70
     1
  9
$LTSCALE
 40
1.0
  9
$ATTMODE
 70
     1
  9
$TEXTSIZE
 40
0.2
  9
$TRACEWID
 40
0.05
  9
$TEXTSTYLE
  7
Standard
  9
$CLAYER
  8
0
  9
$CELTYPE
  6
ByLayer
  9
$CECOLOR
 62
   256
  9
$CELTSCALE
 40
1.0
  9
$DISPSILH
 70
     0
  9
$DIMSCALE
 40
1.0
  9
$DIMASZ
 40
0.18
  9
$DIMEXO
 40
0.0625
  9
$DIMDLI
 40
0.38
  9
$DIMRND
 40
0.0
  9
$DIMDLE
 40
0.0
  9
$DIMEXE
 40
0.18
  9
$DIMTP
 40
0.0
  9
$DIMTM
 40
0.0
  9
$DIMTXT
 40
0.18
  9
$DIMCEN
 40
0.09
  9
$DIMTSZ
 40
0.0
  9
$DIMTOL
 70
     0
  9
$DIMLIM
 70
     0
  9
$DIMTIH
 70
     1
  9
$DIMTOH
 70
     1
  9
$DIMSE1
 70
     0
  9
$DIMSE2
 70
     0
  9
$DIMTAD
 70
     0
  9
$DIMZIN
 70
     0
  9
$DIMBLK
  1

  9
$DIMASO
 70
     1
  9
$DIMSHO
 70
     1
  9
$DIMPOST
  1

  9
$DIMAPOST
  1

  9
$DIMALT
 70
     0
  9
$DIMALTD
 70
     2
  9
$DIMALTF
 40
25.4
  9
$DIMLFAC
 40
1.0
  9
$DIMTOFL
 70
     0
  9
$DIMTVP
 40
0.0
  9
$DIMTIX
 70
     0
  9
$DIMSOXD
 70
     0
  9
$DIMSAH
 70
     0
  9
$DIMBLK1
  1

  9
$DIMBLK2
  1

  9
$DIMSTYLE
  2
Standard
  9
$DIMCLRD
 70
     0
  9
$DIMCLRE
 70
     0
  9
$DIMCLRT
 70
     0
  9
$DIMTFAC
 40
1.0
  9
$DIMGAP
 40
0.09
  9
$DIMJUST
 70
     0
  9
$DIMSD1
 70
     0
  9
$DIMSD2
 70
     0
  9
$DIMTOLJ
 70
     1
  9
$DIMTZIN
 70
     0
  9
$DIMALTZ
 70
     0
  9
$DIMALTTZ
 70
     0
  9
$DIMUPT
 70
     0
  9
$DIMDEC
 70
     4
  9
$DIMTDEC
 70
     4
  9
$DIMALTU
 70
     2
  9
$DIMALTTD
 70
     2
  9
$DIMTXSTY
  7
Standard
  9
$DIMAUNIT
 70
     0
  9
$DIMADEC
 70
     0
  9
$DIMALTRND
 40
0.0
  9
$DIMAZIN
 70
     0
  9
$DIMDSEP
 70
    46
  9
$DIMATFIT
 70
     3
  9
$DIMFRAC
 70
     0
  9
$DIMLDRBLK
  1

  9
$DIMLUNIT
 70
     2
  9
$DIMLWD
 70
    -2
  9
$DIMLWE
 70
    -2
  9
$DIMTMOVE
 70
     0
  9
$LUNITS
 70
     2
  9
$LUPREC
 70
     4
  9
$SKETCHINC
 40
0.1
  9
$FILLETRAD
 40
0.5
  9
$AUNITS
 70
     0
  9
$AUPREC
 70
     0
  9
$MENU
  1
.
  9
$ELEVATION
 40
0.0
  9
$PELEVATION
 40
0.0
  9
$THICKNESS
 40
0.0
  9
$LIMCHECK
 70
     0
  9
$CHAMFERA
 40
0.5
  9
$CHAMFERB
 40
0.5
  9
$CHAMFERC
 40
1.0
  9
$CHAMFERD
 40
0.0
  9
$SKPOLY
 70
     0
  9
$TDCREATE
 40
2458184.521189768
  9
$TDUCREATE
 40
2458184.479523102
  9
$TDUPDATE
 40
2458184.52118978
  9
$TDUUPDATE
 40
2458184.479523113
  9
$TDINDWG
 40
0.0000000116
  9
$TDUSRTIMER
 40
0.0000000116
  9
$USRTIMER
 70
     1
  9
$ANGBASE
 50
0.0
  9
$ANGDIR
 70
     0
  9
$PDMODE
 70
     0
  9
$PDSIZE
 40
0.0
  9
$PLINEWID
 40
0.0
  9
$SPLFRAME
 70
     0
  9
$SPLINETYPE
 70
     6
  9
$SPLINESEGS
 70
     8
  9
$HANDSEED
  5
CA
  9
$SURFTAB1
 70
     6
  9
$SURFTAB2
 70
     6
  9
$SURFTYPE
 70
     6
  9
$SURFU
 70
     6
  9
$SURFV
 70
     6
  9
$UCSBASE
  2

  9
$UCSNAME
  2

  9
$UCSORG
 10
0.0
 20
0.0
 30
0.0
  9
$UCSXDIR
 10
1.0
 20
0.0
 30
0.0
  9
$UCSYDIR
 10
0.0
 20
1.0
 30
0.0
  9
$UCSORTHOREF
  2

  9
$UCSORTHOVIEW
 70
     0
  9
$UCSORGTOP
 10
0.0
 20
0.0
 30
0.0
  9
$UCSORGBOTTOM
 10
0.0
 20
0.0
 30
0.0
  9
$UCSORGLEFT
 10
0.0
 20
0.0
 30
0.0
  9
$UCSORGRIGHT
 10
0.0
 20
0.0
 30
0.0
  9
$UCSORGFRONT
 10
0.0
 20
0.0
 30
0.0
  9
$UCSORGBACK
 10
0.0
 20
0.0
 30
0.0
  9
$PUCSBASE
  2

  9
$PUCSNAME
  2

  9
$PUCSORG
 10
0.0
 20
0.0
 30
0.0
  9
$PUCSXDIR
 10
1.0
 20
0.0
 30
0.0
  9
$PUCSYDIR
 10
0.0
 20
1.0
 30
0.0
  9
$PUCSORTHOREF
  2

  9
$PUCSORTHOVIEW
 70
     0
  9
$PUCSORGTOP
 10
0.0
 20
0.0
 30
0.0
  9
$PUCSORGBOTTOM
 10
0.0
 20
0.0
 30
0.0
  9
$PUCSORGLEFT
 10
0.0
 20
0.0
 30
0.0
  9
$PUCSORGRIGHT
 10
0.0
 20
0.0
 30
0.0
  9
$PUCSORGFRONT
 10
0.0
 20
0.0
 30
0.0
  9
$PUCSORGBACK
 10
0.0
 20
0.0
 30
0.0
  9
$USERI1
 70
     0
  9
$USERI2
 70
     0
  9
$USERI3
 70
     0
  9
$USERI4
 70
     0
  9
$USERI5
 70
     0
  9
$USERR1
 40
0.0
  9
$USERR2
 40
0.0
  9
$USERR3
 40
0.0
  9
$USERR4
 40
0.0
  9
$USERR5
 40
0.0
  9
$WORLDVIEW
 70
     1
  9
$SHADEDGE
 70
     3
  9
$SHADEDIF
 70
    70
  9
$TILEMODE
 70
     1
  9
$MAXACTVP
 70
    64
  9
$PINSBASE
 10
0.0
 20
0.0
 30
0.0
  9
$PLIMCHECK
 70
     0
  9
$PEXTMIN
 10
1.000000000000000E+20
 20
1.000000000000000E+20
 30
1.000000000000000E+20
  9
$PEXTMAX
 10
-1.000000000000000E+20
 20
-1.000000000000000E+20
 30
-1.000000000000000E+20
  9
$PLIMMIN
 10
0.0
 20
0.0
  9
$PLIMMAX
 10
12.0
 20
9.0
  9
$UNITMODE
 70
     0
  9
$VISRETAIN
 70
     1
  9
$PLINEGEN
 70
     0
  9
$PSLTSCALE
 70
     1
  9
$TREEDEPTH
 70
  3020
  9
$CMLSTYLE
  2
Standard
  9
$CMLJUST
 70
     0
  9
$CMLSCALE
 40
1.0
  9
$PROXYGRAPHICS
 70
     1
  9
$MEASUREMENT
 70
     0
  9
$CELWEIGHT
370
    -1
  9
$ENDCAPS
280
     0
  9
$JOINSTYLE
280
     0
  9
$LWDISPLAY
290
     0
  9
$INSUNITS
 70
     4
  9
$HYPERLINKBASE
  1

  9
$STYLESHEET
  1

  9
$XEDIT
290
     1
  9
$CEPSNTYPE
380
     0
  9
$PSTYLEMODE
290
     1
  9
$FINGERPRINTGUID
  2
{E3F294EE-C076-4336-A729-B96CCB619CE9}
  9
$VERSIONGUID
  2
{FAEB1C32-E019-11D5-929B-00C0DF256EC4}
  9
$EXTNAMES
290
     1
  9
$PSVPSCALE
 40
0.0
  9
$OLESTARTUP
290
     0
  0
ENDSEC
  0
SECTION
  2
CLASSES
  0
CLASS
  1
ACDBDICTIONARYWDFLT
  2
AcDbDictionaryWithDefault
  3
ObjectDBX Classes
 90
        0
280
     0
281
     0
  0
CLASS
  1
VISUALSTYLE
  2
AcDbVisualStyle
  3
ObjectDBX Classes
 90
     4095
280
     0
281
     0
  0
CLASS
  1
MATERIAL
  2
AcDbMaterial
  3
ObjectDBX Classes
 90
     1153
280
     0
281
     0
  0
CLASS
  1
DICTIONARYVAR
  2
AcDbDictionaryVar
  3
ObjectDBX Classes
 90
        0
280
     0
281
     0
  0
CLASS
  1
ACDBPLACEHOLDER
  2
AcDbPlaceHolder
  3
ObjectDBX Classes
 90
        0
280
     0
281
     0
  0
CLASS
  1
LAYOUT
  2
AcDbLayout
  3
ObjectDBX Classes
 90
        0
280
     0
281
     0
  0
ENDSEC
  0
SECTION
  2
TABLES
  0
TABLE
  2
VPORT
  5
8
330
0
100
AcDbSymbolTable
 70
     1
  0
VPORT
  5
29
330
8
100
AcDbSymbolTableRecord
100
AcDbViewportTableRecord
  2
*Active
 70
     0
 10
0.0
 20
0.0
 11
1.0
 21
1.0
 12
10.42990654205607
 22
4.5
 13
0.0
 23
0.0
 14
0.5
 24
0.5
 15
0.5
 25
0.5
 16
0.0
 26
0.0
 36
1.0
 17
0.0
 27
0.0
 37
0.0
 40
9.0
 41
1.972972972850329
 42
50.0
 43
0.0
 44
0.0
 50
0.0
 51
0.0
 71
     0
 72
   100
 73
     1
 74
     3
 75
     0
 76
     0
 77
     0
 78
     0
281
     0
 65
     1
110
0.0
120
0.0
130
0.0
111
1.0
121
0.0
131
0.0
112
0.0
122
1.0
132
0.0
 79
     0
146
0.0
  0
ENDTAB
  0
TABLE
  2
LTYPE
  5
5
330
0
100
AcDbSymbolTable
 70
     1
  0
LTYPE
  5
14
330
5
100
AcDbSymbolTableRecord
100
AcDbLinetypeTableRecord
  2
ByBlock
 70
     0
  3

 72
    65
 73
     0
 40
0.0
  0
LTYPE
  5
15
330
5
100
AcDbSymbolTableRecord
100
AcDbLinetypeTableRecord
  2
ByLayer
 70
     0
  3

 72
    65
 73
     0
 40
0.0
  0
LTYPE
  5
16
330
5
100
AcDbSymbolTableRecord
100
AcDbLinetypeTableRecord
  2
Continuous
 70
     0
  3
Solid line
 72
    65
 73
     0
 40
0.0
  0
ENDTAB
  0
TABLE
  2
LAYER
  5
2
330
0
100
AcDbSymbolTable
 70
     3
  0
LAYER
  5
10
330
2
100
AcDbSymbolTableRecord
100
AcDbLayerTableRecord
  2
0
 70
     0
 62
     7
  6
Continuous
370
    -3
390
F
  0
LAYER
  5
40
330
2
100
AcDbSymbolTableRecord
100
AcDbLayerTableRecord
  2
AXIS
 70
     0
 62
     7
  6
Continuous
370
    -3
390
F
  0
LAYER
  5
8D
330
2
100
AcDbSymbolTableRecord
100
AcDbLayerTableRecord
  2
Standard layer
 70
     0
 62
     7
  6
Continuous
370
    -3
390
F
  0
ENDTAB
  0
TABLE
  2
STYLE
  5
3
330
0
100
AcDbSymbolTable
 70
     1
  0
STYLE
  5
11
330
3
100
AcDbSymbolTableRecord
100
AcDbTextStyleTableRecord
  2
Standard
 70
     0
 40
0.0
 41
1.0
 50
0.0
 71
     0
 42
0.2
  3
txt
  4

  0
ENDTAB
  0
TABLE
  2
VIEW
  5
6
330
0
100
AcDbSymbolTable
 70
     0
  0
ENDTAB
  0
TABLE
  2
UCS
  5
7
330
0
100
AcDbSymbolTable
 70
     0
  0
ENDTAB
  0
TABLE
  2
APPID
  5
9
330
0
100
AcDbSymbolTable
 70
     2
  0
APPID
  5
12
330
9
100
AcDbSymbolTableRecord
100
AcDbRegAppTableRecord
  2
ACAD
 70
     0
  0
APPID
  5
3F
330
9
100
AcDbSymbolTableRecord
100
AcDbRegAppTableRecord
  2
ODA
 70
     0
  0
ENDTAB
  0
TABLE
  2
DIMSTYLE
  5
A
330
0
100
AcDbSymbolTable
 70
     1
100
AcDbDimStyleTable
  0
DIMSTYLE
105
27
330
A
100
AcDbSymbolTableRecord
100
AcDbDimStyleTableRecord
  2
Standard
 70
     0
340
11
  0
ENDTAB
  0
TABLE
  2
BLOCK_RECORD
  5
1
330
0
100
AcDbSymbolTable
 70
     1
  0
BLOCK_RECORD
  5
1F
330
1
100
AcDbSymbolTableRecord
100
AcDbBlockTableRecord
  2
*Model_Space
340
22
  0
BLOCK_RECORD
  5
1B
330
1
100
AcDbSymbolTableRecord
100
AcDbBlockTableRecord
  2
*Paper_Space
340
1E
  0
BLOCK_RECORD
  5
23
330
1
100
AcDbSymbolTableRecord
100
AcDbBlockTableRecord
  2
*Paper_Space0
340
26
  0
ENDTAB
  0
ENDSEC
  0
SECTION
  2
BLOCKS
  0
BLOCK
  5
20
330
1F
100
AcDbEntity
  8
0
100
AcDbBlockBegin
  2
*Model_Space
 70
     0
 10
0.0
 20
0.0
 30
0.0
  3
*Model_Space
  1

  0
ENDBLK
  5
21
330
1F
100
AcDbEntity
  8
0
100
AcDbBlockEnd
  0
BLOCK
  5
1C
330
1B
100
AcDbEntity
 67
     1
  8
0
100
AcDbBlockBegin
  2
*Paper_Space
 70
     0
 10
0.0
 20
0.0
 30
0.0
  3
*Paper_Space
  1

  0
ENDBLK
  5
1D
330
1B
100
AcDbEntity
 67
     1
  8
0
100
AcDbBlockEnd
  0
BLOCK
  5
24
330
23
100
AcDbEntity
  8
0
100
AcDbBlockBegin
  2
*Paper_Space0
 70
     0
 10
0.0
 20
0.0
 30
0.0
  3
*Paper_Space0
  1

  0
ENDBLK
  5
25
330
23
100
AcDbEntity
  8
0
100
AcDbBlockEnd
  0
ENDSEC
  0
SECTION
  2
ENTITIES
  0
SPLINE
  5
41
330
1F
100
AcDbEntity
  8
AXIS
 62
     8
100
AcDbSpline
210
0.0
220
0.0
230
1.0
 70
    11
 71
     3
 72
    20
 73
    16
 74
     0
 42
0.0000000001
 43
0.0000000001
 40
0.0
 40
0.0
 40
0.0
 40
0.0
 40
0.2
 40
0.2
 40
0.2
 40
0.2
 40
0.4
 40
0.4
 40
0.4
 40
0.4
 40
0.6
 40
0.6
 40
0.6
 40
0.6
 40
1.0
 40
1.0
 40
1.0
 40
1.0
 10
26.2768
 20
-15.6505
 30
0.0
 10
26.2768
 20
-15.6505
 30
0.0
 10
27.5584
 20
-15.6505
 30
0.0
 10
27.5584
 20
-15.6505
 30
0.0
 10
27.5584
 20
-15.6505
 30
0.0
 10
27.5584
 20
-15.6505
 30
0.0
 10
27.5584
 20
11.0003
 30
0.0
 10
27.5584
 20
11.0003
 30
0.0
 10
27.5584
 20
11.0003
 30
0.0
 10
27.5584
 20
11.0003
 30
0.0
 10
26.2768
 20
11.0003
 30
0.0
 10
26.2768
 20
11.0003
 30
0.0
 10
26.2768
 20
11.0003
 30
0.0
 10
26.2768
 20
11.0003
 30
0.0
 10
26.2768
 20
-15.6505
 30
0.0
 10
26.2768
 20
-15.6505
 30
0.0
  0
SPLINE
  5
42
330
1F
100
AcDbEntity
  8
AXIS
 62
     9
100
AcDbSpline
210
0.0
220
0.0
230
1.0
 70
    11
 71
     3
 72
    96
 73
    92
 74
     0
 42
0.0000000001
 43
0.0000000001
 40
0.0
 40
0.0
 40
0.0
 40
0.0
 40
0.0416666666666667
 40
0.0416666666666667
 40
0.0416666666666667
 40
0.0416666666666667
 40
0.0833333333333333
 40
0.0833333333333333
 40
0.0833333333333333
 40
0.0833333333333333
 40
0.125
 40
0.125
 40
0.125
 40
0.125
 40
0.1666666666666667
 40
0.1666666666666667
 40
0.1666666666666667
 40
0.1666666666666667
 40
0.2083333333333333
 40
0.2083333333333333
 40
0.2083333333333333
 40
0.2083333333333333
 40
0.25
 40
0.25
 40
0.25
 40
0.25
 40
0.2916666666666667
 40
0.2916666666666667
 40
0.2916666666666667
 40
0.2916666666666667
 40
0.3333333333333333
 40
0.3333333333333333
 40
0.3333333333333333
 40
0.3333333333333333
 40
0.375
 40
0.375
 40
0.375
 40
0.375
 40
0.4166666666666667
 40
0.4166666666666667
 40
0.4166666666666667
 40
0.4166666666666667
 40
0.4583333333333333
 40
0.4583333333333333
 40
0.4583333333333333
 40
0.4583333333333333
 40
0.5
 40
0.5
 40
0.5
 40
0.5
 40
0.5416666666666666
 40
0.5416666666666666
 40
0.5416666666666666
 40
0.5416666666666666
 40
0.5833333333333334
 40
0.5833333333333334
 40
0.5833333333333334
 40
0.5833333333333334
 40
0.625
 40
0.625
 40
0.625
 40
0.625
 40
0.6666666666666666
 40
0.6666666666666666
 40
0.6666666666666666
 40
0.6666666666666666
 40
0.7083333333333334
 40
0.7083333333333334
 40
0.7083333333333334
 40
0.7083333333333334
 40
0.75
 40
0.75
 40
0.75
 40
0.75
 40
0.7916666666666666
 40
0.7916666666666666
 40
0.7916666666666666
 40
0.7916666666666666
 40
0.8333333333333334
 40
0.8333333333333334
 40
0.8333333333333334
 40
0.8333333333333334
 40
0.875
 40
0.875
 40
0.875
 40
0.875
 40
0.9166666666666666
 40
0.9166666666666666
 40
0.9166666666666666
 40
0.9166666666666666
 40
1.0
 40
1.0
 40
1.0
 40
1.0
 10
26.3056
 20
8.0195
 30
0.0
 10
26.3056
 20
8.0195
 30
0.0
 10
24.7553
 20
8.0278
 30
0.0
 10
24.7553
 20
8.0278
 30
0.0
 10
24.7553
 20
8.0278
 30
0.0
 10
24.7553
 20
8.0278
 30
0.0
 10
24.6416
 20
8.0112
 30
0.0
 10
24.6416
 20
8.0112
 30
0.0
 10
24.6416
 20
8.0112
 30
0.0
 10
24.6416
 20
8.0112
 30
0.0
 10
24.4783
 20
7.9512
 30
0.0
 10
24.4783
 20
7.9512
 30
0.0
 10
24.4783
 20
7.9512
 30
0.0
 10
24.4783
 20
7.9512
 30
0.0
 10
24.3998
 20
7.8561
 30
0.0
 10
24.3998
 20
7.8561
 30
0.0
 10
24.3998
 20
7.8561
 30
0.0
 10
24.3998
 20
7.8561
 30
0.0
 10
24.3626
 20
7.2194
 30
0.0
 10
24.3626
 20
7.2194
 30
0.0
 10
24.3626
 20
7.2194
 30
0.0
 10
24.3626
 20
7.2194
 30
0.0
 10
23.8665
 20
7.207
 30
0.0
 10
23.8665
 20
7.207
 30
0.0
 10
23.8665
 20
7.207
 30
0.0
 10
23.8665
 20
7.207
 30
0.0
 10
23.5895
 20
7.0954
 30
0.0
 10
23.5895
 20
7.0954
 30
0.0
 10
23.5895
 20
7.0954
 30
0.0
 10
23.5895
 20
7.0954
 30
0.0
 10
23.5894
 20
5.9668
 30
0.0
 10
23.5894
 20
5.9668
 30
0.0
 10
23.5894
 20
5.9668
 30
0.0
 10
23.5894
 20
5.9668
 30
0.0
 10
23.792
 20
5.8428
 30
0.0
 10
23.792
 20
5.8428
 30
0.0
 10
23.792
 20
5.8428
 30
0.0
 10
23.792
 20
5.8428
 30
0.0
 10
24.3749
 20
5.8387
 30
0.0
 10
24.3749
 20
5.8387
 30
0.0
 10
24.3749
 20
5.8387
 30
0.0
 10
24.3749
 20
5.8387
 30
0.0
 10
24.3667
 20
-10.5699
 30
0.0
 10
24.3667
 20
-10.5699
 30
0.0
 10
24.3667
 20
-10.5699
 30
0.0
 10
24.3667
 20
-10.5699
 30
0.0
 10
23.8003
 20
-10.5823
 30
0.0
 10
23.8003
 20
-10.5823
 30
0.0
 10
23.8003
 20
-10.5823
 30
0.0
 10
23.8003
 20
-10.5823
 30
0.0
 10
23.6598
 20
-10.665
 30
0.0
 10
23.6598
 20
-10.665
 30
0.0
 10
23.6598
 20
-10.665
 30
0.0
 10
23.6598
 20
-10.665
 30
0.0
 10
23.6432
 20
-11.7605
 30
0.0
 10
23.6432
 20
-11.7605
 30
0.0
 10
23.6432
 20
-11.7605
 30
0.0
 10
23.6432
 20
-11.7605
 30
0.0
 10
23.7879
 20
-11.8845
 30
0.0
 10
23.7879
 20
-11.8845
 30
0.0
 10
23.7879
 20
-11.8845
 30
0.0
 10
23.7879
 20
-11.8845
 30
0.0
 10
24.3585
 20
-11.8928
 30
0.0
 10
24.3585
 20
-11.8928
 30
0.0
 10
24.3585
 20
-11.8928
 30
0.0
 10
24.3585
 20
-11.8928
 30
0.0
 10
24.3708
 20
-12.2895
 30
0.0
 10
24.3708
 20
-12.2895
 30
0.0
 10
24.3708
 20
-12.2895
 30
0.0
 10
24.3708
 20
-12.2895
 30
0.0
 10
24.4287
 20
-12.4962
 30
0.0
 10
24.4287
 20
-12.4962
 30
0.0
 10
24.4287
 20
-12.4962
 30
0.0
 10
24.4287
 20
-12.4962
 30
0.0
 10
24.4907
 20
-12.6161
 30
0.0
 10
24.5362
 20
-12.6409
 30
0.0
 10
24.5362
 20
-12.6409
 30
0.0
 10
24.5817
 20
-12.6657
 30
0.0
 10
24.6933
 20
-12.7153
 30
0.0
 10
24.6933
 20
-12.7153
 30
0.0
 10
24.6933
 20
-12.7153
 30
0.0
 10
24.6933
 20
-12.7153
 30
0.0
 10
25.4126
 20
-12.7484
 30
0.0
 10
25.4126
 20
-12.7484
 30
0.0
 10
25.4126
 20
-12.7484
 30
0.0
 10
25.4126
 20
-12.7484
 30
0.0
 10
26.3346
 20
-12.7236
 30
0.0
 10
26.3346
 20
-12.7236
 30
0.0
 10
26.3346
 20
-12.7236
 30
0.0
 10
26.3346
 20
-12.7236
 30
0.0
 10
26.3056
 20
8.0195
 30
0.0
 10
26.3056
 20
8.0195
 30
0.0
  0
SPLINE
  5
43
330
1F
100
AcDbEntity
  8
AXIS
 62
   250
370
    15
100
AcDbSpline
210
0.0
220
0.0
230
1.0
 70
    24
 71
     3
 72
     8
 73
     4
 74
     0
 42
0.0000000001
 43
0.0000000001
 40
0.0
 40
0.0
 40
0.0
 40
0.0
 40
1.0
 40
1.0
 40
1.0
 40
1.0
 10
26.838
 20
-16.1036
 30
0.0
 10
26.838
 20
-16.1036
 30
0.0
 10
26.838
 20
-18.0383
 30
0.0
 10
26.838
 20
-18.0383
 30
0.0
  0
SPLINE
  5
44
330
1F
100
AcDbEntity
  8
AXIS
 62
   250
370
    15
100
AcDbSpline
210
0.0
220
0.0
230
1.0
 70
    24
 71
     3
 72
     8
 73
     4
 74
     0
 42
0.0000000001
 43
0.0000000001
 40
0.0
 40
0.0
 40
0.0
 40
0.0
 40
1.0
 40
1.0
 40
1.0
 40
1.0
 10
27.4138
 20
-16.0541
 30
0.0
 10
27.4138
 20
-16.0541
 30
0.0
 10
27.4138
 20
-18.0383
 30
0.0
 10
27.4138
 20
-18.0383
 30
0.0
  0
SPLINE
  5
45
330
1F
100
AcDbEntity
  8
AXIS
 62
   250
370
    15
100
AcDbSpline
210
0.0
220
0.0
230
1.0
 70
    24
 71
     3
 72
     8
 73
     4
 74
     0
 42
0.0000000001
 43
0.0000000001
 40
0.0
 40
0.0
 40
0.0
 40
0.0
 40
1.0
 40
1.0
 40
1.0
 40
1.0
 10
-22.5039
 20
-15.8205
 30
0.0
 10
-22.5039
 20
-15.8205
 30
0.0
 10
-28.9854
 20
-15.8205
 30
0.0
 10
-28.9854
 20
-15.8205
 30
0.0
  0
SPLINE
  5
46
330
1F
100
AcDbEntity
  8
AXIS
 62
   250
370
    15
100
AcDbSpline
210
0.0
220
0.0
230
1.0
 70
    24
 71
     3
 72
     8
 73
     4
 74
     0
 42
0.0000000001
 43
0.0000000001
 40
0.0
 40
0.0
 40
0.0
 40
0.0
 40
1.0
 40
1.0
 40
1.0
 40
1.0
 10
-22.5704
 20
11.6507
 30
0.0
 10
-22.5704
 20
11.6507
 30
0.0
 10
-29.1836
 20
11.6507
 30
0.0
 10
-29.1836
 20
11.6507
 30
0.0
  0
SPLINE
  5
47
330
1F
100
AcDbEntity
  8
AXIS
 62
   250
370
    15
100
AcDbSpline
210
0.0
220
0.0
230
1.0
 70
    24
 71
     3
 72
     8
 73
     4
 74
     0
 42
0.0000000001
 43
0.0000000001
 40
0.0
 40
0.0
 40
0.0
 40
0.0
 40
1.0
 40
1.0
 40
1.0
 40
1.0
 10
-28.6162
 20
10.9713
 30
0.0
 10
-28.6162
 20
10.9713
 30
0.0
 10
-28.6162
 20
-15.3938
 30
0.0
 10
-28.6162
 20
-15.3938
 30
0.0
  0
SPLINE
  5
48
330
1F
100
AcDbEntity
  8
AXIS
 62
   250
370
    15
100
AcDbSpline
210
0.0
220
0.0
230
1.0
 70
    24
 71
     3
 72
     8
 73
     4
 74
     0
 42
0.0000000001
 43
0.0000000001
 40
0.0
 40
0.0
 40
0.0
 40
0.0
 40
1.0
 40
1.0
 40
1.0
 40
1.0
 10
-22.3396
 20
15.403
 30
0.0
 10
-22.3396
 20
15.403
 30
0.0
 10
-22.3396
 20
11.8551
 30
0.0
 10
-22.3396
 20
11.8551
 30
0.0
  0
SPLINE
  5
49
330
1F
100
AcDbEntity
  8
AXIS
 62
   250
370
    15
100
AcDbSpline
210
0.0
220
0.0
230
1.0
 70
    24
 71
     3
 72
     8
 73
     4
 74
     0
 42
0.0000000001
 43
0.0000000001
 40
0.0
 40
0.0
 40
0.0
 40
0.0
 40
1.0
 40
1.0
 40
1.0
 40
1.0
 10
18.7267
 20
11.9469
 30
0.0
 10
18.7267
 20
11.9469
 30
0.0
 10
18.7267
 20
15.167
 30
0.0
 10
18.7267
 20
15.167
 30
0.0
  0
SPLINE
  5
4A
330
1F
100
AcDbEntity
  8
AXIS
 62
   250
370
    15
100
AcDbSpline
210
0.0
220
0.0
230
1.0
 70
    24
 71
     3
 72
     8
 73
     4
 74
     0
 42
0.0000000001
 43
0.0000000001
 40
0.0
 40
0.0
 40
0.0
 40
0.0
 40
1.0
 40
1.0
 40
1.0
 40
1.0
 10
18.7267
 20
14.9292
 30
0.0
 10
18.7267
 20
14.9292
 30
0.0
 10
-22.0034
 20
14.9292
 30
0.0
 10
-22.0034
 20
14.9292
 30
0.0
  0
SPLINE
  5
4B
330
1F
100
AcDbEntity
  8
AXIS
 62
   250
370
    15
100
AcDbSpline
210
0.0
220
0.0
230
1.0
 70
    24
 71
     3
 72
     8
 73
     4
 74
     0
 42
0.0000000001
 43
0.0000000001
 40
0.0
 40
0.0
 40
0.0
 40
0.0
 40
1.0
 40
1.0
 40
1.0
 40
1.0
 10
26.2489
 20
15.1072
 30
0.0
 10
26.2489
 20
15.1072
 30
0.0
 10
26.2489
 20
11.3489
 30
0.0
 10
26.2489
 20
11.3489
 30
0.0
  0
SPLINE
  5
4C
330
1F
100
AcDbEntity
  8
AXIS
 62
   250
370
    15
100
AcDbSpline
210
0.0
220
0.0
230
1.0
 70
    24
 71
     3
 72
     8
 73
     4
 74
     0
 42
0.0000000001
 43
0.0000000001
 40
0.0
 40
0.0
 40
0.0
 40
0.0
 40
1.0
 40
1.0
 40
1.0
 40
1.0
 10
27.5525
 20
15.0409
 30
0.0
 10
27.5525
 20
15.0409
 30
0.0
 10
27.5525
 20
11.3489
 30
0.0
 10
27.5525
 20
11.3489
 30
0.0
  0
SPLINE
  5
4D
330
1F
100
AcDbEntity
  8
AXIS
 62
   250
370
    15
100
AcDbSpline
210
0.0
220
0.0
230
1.0
 70
    24
 71
     3
 72
     8
 73
     4
 74
     0
 42
0.0000000001
 43
0.0000000001
 40
0.0
 40
0.0
 40
0.0
 40
0.0
 40
1.0
 40
1.0
 40
1.0
 40
1.0
 10
29.6042
 20
14.7413
 30
0.0
 10
29.6042
 20
14.7413
 30
0.0
 10
24.5771
 20
14.7413
 30
0.0
 10
24.5771
 20
14.7413
 30
0.0
  0
SPLINE
  5
4E
330
1F
100
AcDbEntity
  8
AXIS
 62
   250
100
AcDbSpline
210
0.0
220
0.0
230
1.0
 70
    11
 71
     3
 72
   124
 73
   120
 74
     0
 42
0.0000000001
 43
0.0000000001
 40
0.0
 40
0.0
 40
0.0
 40
0.0
 40
0.032258064516129
 40
0.032258064516129
 40
0.032258064516129
 40
0.032258064516129
 40
0.0645161290322581
 40
0.0645161290322581
 40
0.0645161290322581
 40
0.0645161290322581
 40
0.0967741935483871
 40
0.0967741935483871
 40
0.0967741935483871
 40
0.0967741935483871
 40
0.1290322580645161
 40
0.1290322580645161
 40
0.1290322580645161
 40
0.1290322580645161
 40
0.1612903225806452
 40
0.1612903225806452
 40
0.1612903225806452
 40
0.1612903225806452
 40
0.1935483870967742
 40
0.1935483870967742
 40
0.1935483870967742
 40
0.1935483870967742
 40
0.2258064516129032
 40
0.2258064516129032
 40
0.2258064516129032
 40
0.2258064516129032
 40
0.2580645161290323
 40
0.2580645161290323
 40
0.2580645161290323
 40
0.2580645161290323
 40
0.2903225806451613
 40
0.2903225806451613
 40
0.2903225806451613
 40
0.2903225806451613
 40
0.3225806451612903
 40
0.3225806451612903
 40
0.3225806451612903
 40
0.3225806451612903
 40
0.3548387096774194
 40
0.3548387096774194
 40
0.3548387096774194
 40
0.3548387096774194
 40
0.3870967741935484
 40
0.3870967741935484
 40
0.3870967741935484
 40
0.3870967741935484
 40
0.4193548387096774
 40
0.4193548387096774
 40
0.4193548387096774
 40
0.4193548387096774
 40
0.4516129032258064
 40
0.4516129032258064
 40
0.4516129032258064
 40
0.4516129032258064
 40
0.4838709677419355
 40
0.4838709677419355
 40
0.4838709677419355
 40
0.4838709677419355
 40
0.5161290322580645
 40
0.5161290322580645
 40
0.5161290322580645
 40
0.5161290322580645
 40
0.5483870967741935
 40
0.5483870967741935
 40
0.5483870967741935
 40
0.5483870967741935
 40
0.5806451612903226
 40
0.5806451612903226
 40
0.5806451612903226
 40
0.5806451612903226
 40
0.6129032258064516
 40
0.6129032258064516
 40
0.6129032258064516
 40
0.6129032258064516
 40
0.6451612903225806
 40
0.6451612903225806
 40
0.6451612903225806
 40
0.6451612903225806
 40
0.6774193548387096
 40
0.6774193548387096
 40
0.6774193548387096
 40
0.6774193548387096
 40
0.7096774193548387
 40
0.7096774193548387
 40
0.7096774193548387
 40
0.7096774193548387
 40
0.7419354838709677
 40
0.7419354838709677
 40
0.7419354838709677
 40
0.7419354838709677
 40
0.7741935483870968
 40
0.7741935483870968
 40
0.7741935483870968
 40
0.7741935483870968
 40
0.8064516129032258
 40
0.8064516129032258
 40
0.8064516129032258
 40
0.8064516129032258
 40
0.8387096774193549
 40
0.8387096774193549
 40
0.8387096774193549
 40
0.8387096774193549
 40
0.8709677419354839
 40
0.8709677419354839
 40
0.8709677419354839
 40
0.8709677419354839
 40
0.9032258064516129
 40
0.9032258064516129
 40
0.9032258064516129
 40
0.9032258064516129
 40
0.9354838709677419
 40
0.9354838709677419
 40
0.9354838709677419
 40
0.9354838709677419
 40
1.0
 40
1.0
 40
1.0
 40
1.0
 10
26.8585
 20
16.7888
 30
0.0
 10
26.7543
 20
16.7448
 30
0.0
 10
26.6651
 20
16.6898
 30
0.0
 10
26.5907
 20
16.6252
 30
0.0
 10
26.5907
 20
16.6252
 30
0.0
 10
26.5163
 20
16.5598
 30
0.0
 10
26.4588
 20
16.4842
 30
0.0
 10
26.4187
 20
16.3982
 30
0.0
 10
26.4187
 20
16.3982
 30
0.0
 10
26.3786
 20
16.3121
 30
0.0
 10
26.3585
 20
16.2158
 30
0.0
 10
26.3579
 20
16.1097
 30
0.0
 10
26.3579
 20
16.1097
 30
0.0
 10
26.3585
 20
16.0166
 30
0.0
 10
26.3773
 20
15.9299
 30
0.0
 10
26.4161
 20
15.8478
 30
0.0
 10
26.4161
 20
15.8478
 30
0.0
 10
26.4542
 20
15.7663
 30
0.0
 10
26.5099
 20
15.6945
 30
0.0
 10
26.5829
 20
15.6318
 30
0.0
 10
26.5829
 20
15.6318
 30
0.0
 10
26.656
 20
15.5697
 30
0.0
 10
26.7446
 20
15.5205
 30
0.0
 10
26.8488
 20
15.4849
 30
0.0
 10
26.8488
 20
15.4849
 30
0.0
 10
26.9535
 20
15.4494
 30
0.0
 10
27.0719
 20
15.4313
 30
0.0
 10
27.2038
 20
15.4306
 30
0.0
 10
27.2038
 20
15.4306
 30
0.0
 10
27.3248
 20
15.4313
 30
0.0
 10
27.4373
 20
15.4487
 30
0.0
 10
27.5408
 20
15.483
 30
0.0
 10
27.5408
 20
15.483
 30
0.0
 10
27.6443
 20
15.5173
 30
0.0
 10
27.7355
 20
15.5671
 30
0.0
 10
27.8131
 20
15.6318
 30
0.0
 10
27.8131
 20
15.6318
 30
0.0
 10
27.8907
 20
15.6958
 30
0.0
 10
27.9515
 20
15.7727
 30
0.0
 10
27.9948
 20
15.8626
 30
0.0
 10
27.9948
 20
15.8626
 30
0.0
 10
28.0388
 20
15.9525
 30
0.0
 10
28.0608
 20
16.0528
 30
0.0
 10
28.0614
 20
16.164
 30
0.0
 10
28.0614
 20
16.164
 30
0.0
 10
28.0608
 20
16.2649
 30
0.0
 10
28.0401
 20
16.3568
 30
0.0
 10
27.9993
 20
16.4402
 30
0.0
 10
27.9993
 20
16.4402
 30
0.0
 10
27.9586
 20
16.523
 30
0.0
 10
27.9004
 20
16.5961
 30
0.0
 10
27.8247
 20
16.6588
 30
0.0
 10
27.8247
 20
16.6588
 30
0.0
 10
27.749
 20
16.7222
 30
0.0
 10
27.6585
 20
16.7746
 30
0.0
 10
27.5531
 20
16.816
 30
0.0
 10
27.5531
 20
16.816
 30
0.0
 10
27.5531
 20
16.816
 30
0.0
 10
27.5531
 20
16.8276
 30
0.0
 10
27.5531
 20
16.8276
 30
0.0
 10
27.5531
 20
16.8276
 30
0.0
 10
27.6559
 20
16.8761
 30
0.0
 10
27.738
 20
16.9324
 30
0.0
 10
27.7995
 20
16.997
 30
0.0
 10
27.7995
 20
16.997
 30
0.0
 10
27.8609
 20
17.0611
 30
0.0
 10
27.9056
 20
17.1296
 30
0.0
 10
27.9327
 20
17.2014
 30
0.0
 10
27.9327
 20
17.2014
 30
0.0
 10
27.9592
 20
17.2739
 30
0.0
 10
27.9728
 20
17.3456
 30
0.0
 10
27.9722
 20
17.4174
 30
0.0
 10
27.9722
 20
17.4174
 30
0.0
 10
27.9722
 20
17.4976
 30
0.0
 10
27.9566
 20
17.5752
 30
0.0
 10
27.9256
 20
17.649
 30
0.0
 10
27.9256
 20
17.649
 30
0.0
 10
27.8946
 20
17.7227
 30
0.0
 10
27.8486
 20
17.7887
 30
0.0
 10
27.7872
 20
17.8475
 30
0.0
 10
27.7872
 20
17.8475
 30
0.0
 10
27.7251
 20
17.9057
 30
0.0
 10
27.6481
 20
17.9523
 30
0.0
 10
27.5563
 20
17.9859
 30
0.0
 10
27.5563
 20
17.9859
 30
0.0
 10
27.4645
 20
18.0202
 30
0.0
 10
27.3571
 20
18.0377
 30
0.0
 10
27.2349
 20
18.0383
 30
0.0
 10
27.2349
 20
18.0383
 30
0.0
 10
27.123
 20
18.0377
 30
0.0
 10
27.0189
 20
18.0215
 30
0.0
 10
26.9244
 20
17.9898
 30
0.0
 10
26.9244
 20
17.9898
 30
0.0
 10
26.8294
 20
17.9575
 30
0.0
 10
26.7466
 20
17.9122
 30
0.0
 10
26.6754
 20
17.8527
 30
0.0
 10
26.6754
 20
17.8527
 30
0.0
 10
26.6049
 20
17.7932
 30
0.0
 10
26.55
 20
17.7227
 30
0.0
 10
26.5105
 20
17.6406
 30
0.0
 10
26.5105
 20
17.6406
 30
0.0
 10
26.4717
 20
17.5584
 30
0.0
 10
26.4517
 20
17.4672
 30
0.0
 10
26.451
 20
17.367
 30
0.0
 10
26.451
 20
17.367
 30
0.0
 10
26.451
 20
17.2939
 30
0.0
 10
26.4646
 20
17.2228
 30
0.0
 10
26.493
 20
17.1529
 30
0.0
 10
26.493
 20
17.1529
 30
0.0
 10
26.5209
 20
17.0831
 30
0.0
 10
26.5648
 20
17.0177
 30
0.0
 10
26.6243
 20
16.9576
 30
0.0
 10
26.6243
 20
16.9576
 30
0.0
 10
26.6838
 20
16.8974
 30
0.0
 10
26.7602
 20
16.8451
 30
0.0
 10
26.8546
 20
16.8004
 30
0.0
 10
26.8546
 20
16.8004
 30
0.0
 10
26.8546
 20
16.8004
 30
0.0
 10
26.8585
 20
16.7888
 30
0.0
 10
26.8585
 20
16.7888
 30
0.0
  0
SPLINE
  5
4F
330
1F
100
AcDbEntity
  8
AXIS
 62
   250
100
AcDbSpline
210
0.0
220
0.0
230
1.0
 70
    11
 71
     3
 72
    56
 73
    52
 74
     0
 42
0.0000000001
 43
0.0000000001
 40
0.0
 40
0.0
 40
0.0
 40
0.0
 40
0.0714285714285714
 40
0.0714285714285714
 40
0.0714285714285714
 40
0.0714285714285714
 40
0.1428571428571428
 40
0.1428571428571428
 40
0.1428571428571428
 40
0.1428571428571428
 40
0.2142857142857143
 40
0.2142857142857143
 40
0.2142857142857143
 40
0.2142857142857143
 40
0.2857142857142857
 40
0.2857142857142857
 40
0.2857142857142857
 40
0.2857142857142857
 40
0.3571428571428572
 40
0.3571428571428572
 40
0.3571428571428572
 40
0.3571428571428572
 40
0.4285714285714285
 40
0.4285714285714285
 40
0.4285714285714285
 40
0.4285714285714285
 40
0.5
 40
0.5
 40
0.5
 40
0.5
 40
0.5714285714285714
 40
0.5714285714285714
 40
0.5714285714285714
 40
0.5714285714285714
 40
0.6428571428571429
 40
0.6428571428571429
 40
0.6428571428571429
 40
0.6428571428571429
 40
0.7142857142857143
 40
0.7142857142857143
 40
0.7142857142857143
 40
0.7142857142857143
 40
0.7857142857142857
 40
0.7857142857142857
 40
0.7857142857142857
 40
0.7857142857142857
 40
0.8571428571428571
 40
0.8571428571428571
 40
0.8571428571428571
 40
0.8571428571428571
 40
1.0
 40
1.0
 40
1.0
 40
1.0
 10
27.2116
 20
15.679
 30
0.0
 10
27.1307
 20
15.6796
 30
0.0
 10
27.059
 20
15.6925
 30
0.0
 10
26.9956
 20
15.7178
 30
0.0
 10
26.9956
 20
15.7178
 30
0.0
 10
26.9315
 20
15.7436
 30
0.0
 10
26.8779
 20
15.7786
 30
0.0
 10
26.8339
 20
15.8232
 30
0.0
 10
26.8339
 20
15.8232
 30
0.0
 10
26.7906
 20
15.8672
 30
0.0
 10
26.7576
 20
15.9183
 30
0.0
 10
26.7356
 20
15.9752
 30
0.0
 10
26.7356
 20
15.9752
 30
0.0
 10
26.7142
 20
16.0321
 30
0.0
 10
26.7045
 20
16.0929
 30
0.0
 10
26.7071
 20
16.1563
 30
0.0
 10
26.7071
 20
16.1563
 30
0.0
 10
26.7071
 20
16.2371
 30
0.0
 10
26.7246
 20
16.3115
 30
0.0
 10
26.7595
 20
16.38
 30
0.0
 10
26.7595
 20
16.38
 30
0.0
 10
26.7938
 20
16.4486
 30
0.0
 10
26.8449
 20
16.5087
 30
0.0
 10
26.9121
 20
16.5598
 30
0.0
 10
26.9121
 20
16.5598
 30
0.0
 10
26.9801
 20
16.6109
 30
0.0
 10
27.0628
 20
16.651
 30
0.0
 10
27.1611
 20
16.6801
 30
0.0
 10
27.1611
 20
16.6801
 30
0.0
 10
27.2756
 20
16.6484
 30
0.0
 10
27.3739
 20
16.609
 30
0.0
 10
27.4567
 20
16.5611
 30
0.0
 10
27.4567
 20
16.5611
 30
0.0
 10
27.5395
 20
16.5139
 30
0.0
 10
27.6035
 20
16.4551
 30
0.0
 10
27.6481
 20
16.3852
 30
0.0
 10
27.6481
 20
16.3852
 30
0.0
 10
27.6928
 20
16.3147
 30
0.0
 10
27.7154
 20
16.2294
 30
0.0
 10
27.7161
 20
16.1291
 30
0.0
 10
27.7161
 20
16.1291
 30
0.0
 10
27.7154
 20
16.0418
 30
0.0
 10
27.6947
 20
15.9642
 30
0.0
 10
27.6533
 20
15.8969
 30
0.0
 10
27.6533
 20
15.8969
 30
0.0
 10
27.6119
 20
15.8297
 30
0.0
 10
27.5537
 20
15.7766
 30
0.0
 10
27.4787
 20
15.7378
 30
0.0
 10
27.4787
 20
15.7378
 30
0.0
 10
27.4037
 20
15.699
 30
0.0
 10
27.3144
 20
15.6796
 30
0.0
 10
27.2116
 20
15.679
 30
0.0
  0
SPLINE
  5
50
330
1F
100
AcDbEntity
  8
AXIS
 62
   250
100
AcDbSpline
210
0.0
220
0.0
230
1.0
 70
    11
 71
     3
 72
    56
 73
    52
 74
     0
 42
0.0000000001
 43
0.0000000001
 40
0.0
 40
0.0
 40
0.0
 40
0.0
 40
0.0714285714285714
 40
0.0714285714285714
 40
0.0714285714285714
 40
0.0714285714285714
 40
0.1428571428571428
 40
0.1428571428571428
 40
0.1428571428571428
 40
0.1428571428571428
 40
0.2142857142857143
 40
0.2142857142857143
 40
0.2142857142857143
 40
0.2142857142857143
 40
0.2857142857142857
 40
0.2857142857142857
 40
0.2857142857142857
 40
0.2857142857142857
 40
0.3571428571428572
 40
0.3571428571428572
 40
0.3571428571428572
 40
0.3571428571428572
 40
0.4285714285714285
 40
0.4285714285714285
 40
0.4285714285714285
 40
0.4285714285714285
 40
0.5
 40
0.5
 40
0.5
 40
0.5
 40
0.5714285714285714
 40
0.5714285714285714
 40
0.5714285714285714
 40
0.5714285714285714
 40
0.6428571428571429
 40
0.6428571428571429
 40
0.6428571428571429
 40
0.6428571428571429
 40
0.7142857142857143
 40
0.7142857142857143
 40
0.7142857142857143
 40
0.7142857142857143
 40
0.7857142857142857
 40
0.7857142857142857
 40
0.7857142857142857
 40
0.7857142857142857
 40
0.8571428571428571
 40
0.8571428571428571
 40
0.8571428571428571
 40
0.8571428571428571
 40
1.0
 40
1.0
 40
1.0
 40
1.0
 10
27.2155
 20
17.7938
 30
0.0
 10
27.2918
 20
17.7932
 30
0.0
 10
27.3571
 20
17.7816
 30
0.0
 10
27.4114
 20
17.7583
 30
0.0
 10
27.4114
 20
17.7583
 30
0.0
 10
27.4658
 20
17.735
 30
0.0
 10
27.5097
 20
17.7033
 30
0.0
 10
27.544
 20
17.6638
 30
0.0
 10
27.544
 20
17.6638
 30
0.0
 10
27.5776
 20
17.6244
 30
0.0
 10
27.6029
 20
17.5804
 30
0.0
 10
27.619
 20
17.5319
 30
0.0
 10
27.619
 20
17.5319
 30
0.0
 10
27.6346
 20
17.4834
 30
0.0
 10
27.6423
 20
17.4336
 30
0.0
 10
27.6423
 20
17.3825
 30
0.0
 10
27.6423
 20
17.3825
 30
0.0
 10
27.6417
 20
17.3062
 30
0.0
 10
27.6249
 20
17.2383
 30
0.0
 10
27.5912
 20
17.1788
 30
0.0
 10
27.5912
 20
17.1788
 30
0.0
 10
27.5576
 20
17.1186
 30
0.0
 10
27.5123
 20
17.0675
 30
0.0
 10
27.4541
 20
17.0255
 30
0.0
 10
27.4541
 20
17.0255
 30
0.0
 10
27.3966
 20
16.9828
 30
0.0
 10
27.3312
 20
16.9492
 30
0.0
 10
27.2582
 20
16.9246
 30
0.0
 10
27.2582
 20
16.9246
 30
0.0
 10
27.1605
 20
16.9505
 30
0.0
 10
27.0758
 20
16.9835
 30
0.0
 10
27.0033
 20
17.0236
 30
0.0
 10
27.0033
 20
17.0236
 30
0.0
 10
26.9309
 20
17.0643
 30
0.0
 10
26.8746
 20
17.1148
 30
0.0
 10
26.8352
 20
17.1749
 30
0.0
 10
26.8352
 20
17.1749
 30
0.0
 10
26.7957
 20
17.235
 30
0.0
 10
26.7763
 20
17.3068
 30
0.0
 10
26.777
 20
17.3903
 30
0.0
 10
26.777
 20
17.3903
 30
0.0
 10
26.777
 20
17.464
 30
0.0
 10
26.7938
 20
17.5306
 30
0.0
 10
26.8274
 20
17.5914
 30
0.0
 10
26.8274
 20
17.5914
 30
0.0
 10
26.8611
 20
17.6522
 30
0.0
 10
26.9108
 20
17.7007
 30
0.0
 10
26.9762
 20
17.7376
 30
0.0
 10
26.9762
 20
17.7376
 30
0.0
 10
27.0408
 20
17.7744
 30
0.0
 10
27.121
 20
17.7932
 30
0.0
 10
27.2155
 20
17.7938
 30
0.0
  0
SPLINE
  5
51
330
1F
100
AcDbEntity
  8
AXIS
 62
   250
370
    15
100
AcDbSpline
210
0.0
220
0.0
230
1.0
 70
    24
 71
     3
 72
     8
 73
     4
 74
     0
 42
0.0000000001
 43
0.0000000001
 40
0.0
 40
0.0
 40
0.0
 40
0.0
 40
1.0
 40
1.0
 40
1.0
 40
1.0
 10
31.4233
 20
-17.292
 30
0.0
 10
31.4233
 20
-17.292
 30
0.0
 10
24.2465
 20
-17.292
 30
0.0
 10
24.2465
 20
-17.292
 30
0.0
  0
SPLINE
  5
52
330
1F
100
AcDbEntity
  8
AXIS
 62
   250
100
AcDbSpline
210
0.0
220
0.0
230
1.0
 70
    11
 71
     3
 72
    48
 73
    44
 74
     0
 42
0.0000000001
 43
0.0000000001
 40
0.0
 40
0.0
 40
0.0
 40
0.0
 40
0.0833333333333333
 40
0.0833333333333333
 40
0.0833333333333333
 40
0.0833333333333333
 40
0.1666666666666667
 40
0.1666666666666667
 40
0.1666666666666667
 40
0.1666666666666667
 40
0.25
 40
0.25
 40
0.25
 40
0.25
 40
0.3333333333333333
 40
0.3333333333333333
 40
0.3333333333333333
 40
0.3333333333333333
 40
0.4166666666666667
 40
0.4166666666666667
 40
0.4166666666666667
 40
0.4166666666666667
 40
0.5
 40
0.5
 40
0.5
 40
0.5
 40
0.5833333333333334
 40
0.5833333333333334
 40
0.5833333333333334
 40
0.5833333333333334
 40
0.6666666666666666
 40
0.6666666666666666
 40
0.6666666666666666
 40
0.6666666666666666
 40
0.75
 40
0.75
 40
0.75
 40
0.75
 40
0.8333333333333334
 40
0.8333333333333334
 40
0.8333333333333334
 40
0.8333333333333334
 40
1.0
 40
1.0
 40
1.0
 40
1.0
 10
30.5009
 20
-16.6978
 30
0.0
 10
30.5009
 20
-16.6978
 30
0.0
 10
30.5009
 20
-16.0071
 30
0.0
 10
30.5009
 20
-16.0071
 30
0.0
 10
30.5009
 20
-16.0071
 30
0.0
 10
30.5009
 20
-16.0071
 30
0.0
 10
30.854
 20
-16.0071
 30
0.0
 10
30.854
 20
-16.0071
 30
0.0
 10
30.854
 20
-16.0071
 30
0.0
 10
30.854
 20
-16.0071
 30
0.0
 10
30.854
 20
-15.7432
 30
0.0
 10
30.854
 20
-15.7432
 30
0.0
 10
30.854
 20
-15.7432
 30
0.0
 10
30.854
 20
-15.7432
 30
0.0
 10
30.5009
 20
-15.7432
 30
0.0
 10
30.5009
 20
-15.7432
 30
0.0
 10
30.5009
 20
-15.7432
 30
0.0
 10
30.5009
 20
-15.7432
 30
0.0
 10
30.5009
 20
-14.1755
 30
0.0
 10
30.5009
 20
-14.1755
 30
0.0
 10
30.5009
 20
-14.1755
 30
0.0
 10
30.5009
 20
-14.1755
 30
0.0
 10
30.1323
 20
-14.1755
 30
0.0
 10
30.1323
 20
-14.1755
 30
0.0
 10
30.1323
 20
-14.1755
 30
0.0
 10
30.1323
 20
-14.1755
 30
0.0
 10
29.0069
 20
-15.7859
 30
0.0
 10
29.0069
 20
-15.7859
 30
0.0
 10
29.0069
 20
-15.7859
 30
0.0
 10
29.0069
 20
-15.7859
 30
0.0
 10
29.0069
 20
-16.0071
 30
0.0
 10
29.0069
 20
-16.0071
 30
0.0
 10
29.0069
 20
-16.0071
 30
0.0
 10
29.0069
 20
-16.0071
 30
0.0
 10
30.1788
 20
-16.0071
 30
0.0
 10
30.1788
 20
-16.0071
 30
0.0
 10
30.1788
 20
-16.0071
 30
0.0
 10
30.1788
 20
-16.0071
 30
0.0
 10
30.1788
 20
-16.6978
 30
0.0
 10
30.1788
 20
-16.6978
 30
0.0
 10
30.1788
 20
-16.6978
 30
0.0
 10
30.1788
 20
-16.6978
 30
0.0
 10
30.5009
 20
-16.6978
 30
0.0
 10
30.5009
 20
-16.6978
 30
0.0
  0
SPLINE
  5
53
330
1F
100
AcDbEntity
  8
AXIS
 62
   250
100
AcDbSpline
210
0.0
220
0.0
230
1.0
 70
    11
 71
     3
 72
    36
 73
    32
 74
     0
 42
0.0000000001
 43
0.0000000001
 40
0.0
 40
0.0
 40
0.0
 40
0.0
 40
0.1111111111111111
 40
0.1111111111111111
 40
0.1111111111111111
 40
0.1111111111111111
 40
0.2222222222222222
 40
0.2222222222222222
 40
0.2222222222222222
 40
0.2222222222222222
 40
0.3333333333333333
 40
0.3333333333333333
 40
0.3333333333333333
 40
0.3333333333333333
 40
0.4444444444444444
 40
0.4444444444444444
 40
0.4444444444444444
 40
0.4444444444444444
 40
0.5555555555555556
 40
0.5555555555555556
 40
0.5555555555555556
 40
0.5555555555555556
 40
0.6666666666666666
 40
0.6666666666666666
 40
0.6666666666666666
 40
0.6666666666666666
 40
0.7777777777777778
 40
0.7777777777777778
 40
0.7777777777777778
 40
0.7777777777777778
 40
1.0
 40
1.0
 40
1.0
 40
1.0
 10
29.3523
 20
-15.7432
 30
0.0
 10
29.3523
 20
-15.7432
 30
0.0
 10
29.3523
 20
-15.7354
 30
0.0
 10
29.3523
 20
-15.7354
 30
0.0
 10
29.3523
 20
-15.7354
 30
0.0
 10
29.3523
 20
-15.7354
 30
0.0
 10
29.9693
 20
-14.8778
 30
0.0
 10
29.9693
 20
-14.8778
 30
0.0
 10
29.9693
 20
-14.8778
 30
0.0
 10
30.0035
 20
-14.8203
 30
0.0
 10
30.0378
 20
-14.7621
 30
0.0
 10
30.0715
 20
-14.7032
 30
0.0
 10
30.0715
 20
-14.7032
 30
0.0
 10
30.1044
 20
-14.6437
 30
0.0
 10
30.1407
 20
-14.5778
 30
0.0
 10
30.1788
 20
-14.5053
 30
0.0
 10
30.1788
 20
-14.5053
 30
0.0
 10
30.1788
 20
-14.5053
 30
0.0
 10
30.1905
 20
-14.5053
 30
0.0
 10
30.1905
 20
-14.5053
 30
0.0
 10
30.1905
 20
-14.5053
 30
0.0
 10
30.1827
 20
-14.6373
 30
0.0
 10
30.1788
 20
-14.7692
 30
0.0
 10
30.1788
 20
-14.9011
 30
0.0
 10
30.1788
 20
-14.9011
 30
0.0
 10
30.1788
 20
-14.9011
 30
0.0
 10
30.1788
 20
-15.7432
 30
0.0
 10
30.1788
 20
-15.7432
 30
0.0
 10
30.1788
 20
-15.7432
 30
0.0
 10
30.1788
 20
-15.7432
 30
0.0
 10
29.3523
 20
-15.7432
 30
0.0
 10
29.3523
 20
-15.7432
 30
0.0
  0
SPLINE
  5
54
330
1F
100
AcDbEntity
  8
AXIS
 62
   250
100
AcDbSpline
210
0.0
220
0.0
230
1.0
 70
    11
 71
     3
 72
   124
 73
   120
 74
     0
 42
0.0000000001
 43
0.0000000001
 40
0.0
 40
0.0
 40
0.0
 40
0.0
 40
0.032258064516129
 40
0.032258064516129
 40
0.032258064516129
 40
0.032258064516129
 40
0.0645161290322581
 40
0.0645161290322581
 40
0.0645161290322581
 40
0.0645161290322581
 40
0.0967741935483871
 40
0.0967741935483871
 40
0.0967741935483871
 40
0.0967741935483871
 40
0.1290322580645161
 40
0.1290322580645161
 40
0.1290322580645161
 40
0.1290322580645161
 40
0.1612903225806452
 40
0.1612903225806452
 40
0.1612903225806452
 40
0.1612903225806452
 40
0.1935483870967742
 40
0.1935483870967742
 40
0.1935483870967742
 40
0.1935483870967742
 40
0.2258064516129032
 40
0.2258064516129032
 40
0.2258064516129032
 40
0.2258064516129032
 40
0.2580645161290323
 40
0.2580645161290323
 40
0.2580645161290323
 40
0.2580645161290323
 40
0.2903225806451613
 40
0.2903225806451613
 40
0.2903225806451613
 40
0.2903225806451613
 40
0.3225806451612903
 40
0.3225806451612903
 40
0.3225806451612903
 40
0.3225806451612903
 40
0.3548387096774194
 40
0.3548387096774194
 40
0.3548387096774194
 40
0.3548387096774194
 40
0.3870967741935484
 40
0.3870967741935484
 40
0.3870967741935484
 40
0.3870967741935484
 40
0.4193548387096774
 40
0.4193548387096774
 40
0.4193548387096774
 40
0.4193548387096774
 40
0.4516129032258064
 40
0.4516129032258064
 40
0.4516129032258064
 40
0.4516129032258064
 40
0.4838709677419355
 40
0.4838709677419355
 40
0.4838709677419355
 40
0.4838709677419355
 40
0.5161290322580645
 40
0.5161290322580645
 40
0.5161290322580645
 40
0.5161290322580645
 40
0.5483870967741935
 40
0.5483870967741935
 40
0.5483870967741935
 40
0.5483870967741935
 40
0.5806451612903226
 40
0.5806451612903226
 40
0.5806451612903226
 40
0.5806451612903226
 40
0.6129032258064516
 40
0.6129032258064516
 40
0.6129032258064516
 40
0.6129032258064516
 40
0.6451612903225806
 40
0.6451612903225806
 40
0.6451612903225806
 40
0.6451612903225806
 40
0.6774193548387096
 40
0.6774193548387096
 40
0.6774193548387096
 40
0.6774193548387096
 40
0.7096774193548387
 40
0.7096774193548387
 40
0.7096774193548387
 40
0.7096774193548387
 40
0.7419354838709677
 40
0.7419354838709677
 40
0.7419354838709677
 40
0.7419354838709677
 40
0.7741935483870968
 40
0.7741935483870968
 40
0.7741935483870968
 40
0.7741935483870968
 40
0.8064516129032258
 40
0.8064516129032258
 40
0.8064516129032258
 40
0.8064516129032258
 40
0.8387096774193549
 40
0.8387096774193549
 40
0.8387096774193549
 40
0.8387096774193549
 40
0.8709677419354839
 40
0.8709677419354839
 40
0.8709677419354839
 40
0.8709677419354839
 40
0.9032258064516129
 40
0.9032258064516129
 40
0.9032258064516129
 40
0.9032258064516129
 40
0.9354838709677419
 40
0.9354838709677419
 40
0.9354838709677419
 40
0.9354838709677419
 40
1.0
 40
1.0
 40
1.0
 40
1.0
 10
-2.6029
 20
15.324
 30
0.0
 10
-2.6029
 20
15.324
 30
0.0
 10
-2.6029
 20
15.6073
 30
0.0
 10
-2.6029
 20
15.6073
 30
0.0
 10
-2.6029
 20
15.6073
 30
0.0
 10
-2.6029
 20
15.6073
 30
0.0
 10
-3.7321
 20
15.6073
 30
0.0
 10
-3.7321
 20
15.6073
 30
0.0
 10
-3.7321
 20
15.6073
 30
0.0
 10
-3.7321
 20
15.6073
 30
0.0
 10
-3.7321
 20
15.615
 30
0.0
 10
-3.7321
 20
15.615
 30
0.0
 10
-3.7321
 20
15.615
 30
0.0
 10
-3.7321
 20
15.615
 30
0.0
 10
-3.5342
 20
15.8013
 30
0.0
 10
-3.5342
 20
15.8013
 30
0.0
 10
-3.5342
 20
15.8013
 30
0.0
 10
-3.401
 20
15.9287
 30
0.0
 10
-3.2807
 20
16.0497
 30
0.0
 10
-3.174
 20
16.1635
 30
0.0
 10
-3.174
 20
16.1635
 30
0.0
 10
-3.0672
 20
16.2773
 30
0.0
 10
-2.976
 20
16.3886
 30
0.0
 10
-2.9004
 20
16.4959
 30
0.0
 10
-2.9004
 20
16.4959
 30
0.0
 10
-2.8241
 20
16.6033
 30
0.0
 10
-2.7665
 20
16.7113
 30
0.0
 10
-2.7258
 20
16.8199
 30
0.0
 10
-2.7258
 20
16.8199
 30
0.0
 10
-2.6857
 20
16.9279
 30
0.0
 10
-2.6656
 20
17.0398
 30
0.0
 10
-2.665
 20
17.1556
 30
0.0
 10
-2.665
 20
17.1556
 30
0.0
 10
-2.665
 20
17.2468
 30
0.0
 10
-2.6792
 20
17.336
 30
0.0
 10
-2.7089
 20
17.4227
 30
0.0
 10
-2.7089
 20
17.4227
 30
0.0
 10
-2.7387
 20
17.5094
 30
0.0
 10
-2.7853
 20
17.5876
 30
0.0
 10
-2.8473
 20
17.6575
 30
0.0
 10
-2.8473
 20
17.6575
 30
0.0
 10
-2.9094
 20
17.728
 30
0.0
 10
-2.9896
 20
17.7836
 30
0.0
 10
-3.0873
 20
17.825
 30
0.0
 10
-3.0873
 20
17.825
 30
0.0
 10
-3.1849
 20
17.867
 30
0.0
 10
-3.3014
 20
17.8884
 30
0.0
 10
-3.4372
 20
17.889
 30
0.0
 10
-3.4372
 20
17.889
 30
0.0
 10
-3.5329
 20
17.8884
 30
0.0
 10
-3.6241
 20
17.8774
 30
0.0
 10
-3.7108
 20
17.8547
 30
0.0
 10
-3.7108
 20
17.8547
 30
0.0
 10
-3.7974
 20
17.8321
 30
0.0
 10
-3.8776
 20
17.8017
 30
0.0
 10
-3.9513
 20
17.7629
 30
0.0
 10
-3.9513
 20
17.7629
 30
0.0
 10
-4.0244
 20
17.7247
 30
0.0
 10
-4.0897
 20
17.6814
 30
0.0
 10
-4.1473
 20
17.6329
 30
0.0
 10
-4.1473
 20
17.6329
 30
0.0
 10
-4.1473
 20
17.6329
 30
0.0
 10
-4.0387
 20
17.3923
 30
0.0
 10
-4.0387
 20
17.3923
 30
0.0
 10
-4.0387
 20
17.3923
 30
0.0
 10
-3.9998
 20
17.4253
 30
0.0
 10
-3.9533
 20
17.4583
 30
0.0
 10
-3.899
 20
17.4906
 30
0.0
 10
-3.899
 20
17.4906
 30
0.0
 10
-3.8446
 20
17.5236
 30
0.0
 10
-3.7845
 20
17.5501
 30
0.0
 10
-3.7179
 20
17.5721
 30
0.0
 10
-3.7179
 20
17.5721
 30
0.0
 10
-3.6513
 20
17.5934
 30
0.0
 10
-3.5795
 20
17.6051
 30
0.0
 10
-3.5031
 20
17.6057
 30
0.0
 10
-3.5031
 20
17.6057
 30
0.0
 10
-3.4094
 20
17.6051
 30
0.0
 10
-3.3305
 20
17.5915
 30
0.0
 10
-3.2664
 20
17.565
 30
0.0
 10
-3.2664
 20
17.565
 30
0.0
 10
-3.2031
 20
17.5378
 30
0.0
 10
-3.152
 20
17.5016
 30
0.0
 10
-3.1138
 20
17.4557
 30
0.0
 10
-3.1138
 20
17.4557
 30
0.0
 10
-3.0756
 20
17.4091
 30
0.0
 10
-3.0478
 20
17.3567
 30
0.0
 10
-3.031
 20
17.2979
 30
0.0
 10
-3.031
 20
17.2979
 30
0.0
 10
-3.0142
 20
17.239
 30
0.0
 10
-3.0058
 20
17.1776
 30
0.0
 10
-3.0064
 20
17.1129
 30
0.0
 10
-3.0064
 20
17.1129
 30
0.0
 10
-3.0064
 20
17.0185
 30
0.0
 10
-3.0252
 20
16.9254
 30
0.0
 10
-3.0627
 20
16.8329
 30
0.0
 10
-3.0627
 20
16.8329
 30
0.0
 10
-3.1002
 20
16.7397
 30
0.0
 10
-3.1571
 20
16.6427
 30
0.0
 10
-3.2341
 20
16.5405
 30
0.0
 10
-3.2341
 20
16.5405
 30
0.0
 10
-3.3111
 20
16.4384
 30
0.0
 10
-3.4087
 20
16.3265
 30
0.0
 10
-3.5271
 20
16.2049
 30
0.0
 10
-3.5271
 20
16.2049
 30
0.0
 10
-3.6448
 20
16.0833
 30
0.0
 10
-3.7845
 20
15.9462
 30
0.0
 10
-3.9455
 20
15.7935
 30
0.0
 10
-3.9455
 20
15.7935
 30
0.0
 10
-3.9455
 20
15.7935
 30
0.0
 10
-4.2133
 20
15.5335
 30
0.0
 10
-4.2133
 20
15.5335
 30
0.0
 10
-4.2133
 20
15.5335
 30
0.0
 10
-4.2133
 20
15.5335
 30
0.0
 10
-4.2133
 20
15.324
 30
0.0
 10
-4.2133
 20
15.324
 30
0.0
 10
-4.2133
 20
15.324
 30
0.0
 10
-4.2133
 20
15.324
 30
0.0
 10
-2.6029
 20
15.324
 30
0.0
 10
-2.6029
 20
15.324
 30
0.0
  0
SPLINE
  5
55
330
1F
100
AcDbEntity
  8
AXIS
 62
   250
100
AcDbSpline
210
0.0
220
0.0
230
1.0
 70
    11
 71
     3
 72
    48
 73
    44
 74
     0
 42
0.0000000001
 43
0.0000000001
 40
0.0
 40
0.0
 40
0.0
 40
0.0
 40
0.0833333333333333
 40
0.0833333333333333
 40
0.0833333333333333
 40
0.0833333333333333
 40
0.1666666666666667
 40
0.1666666666666667
 40
0.1666666666666667
 40
0.1666666666666667
 40
0.25
 40
0.25
 40
0.25
 40
0.25
 40
0.3333333333333333
 40
0.3333333333333333
 40
0.3333333333333333
 40
0.3333333333333333
 40
0.4166666666666667
 40
0.4166666666666667
 40
0.4166666666666667
 40
0.4166666666666667
 40
0.5
 40
0.5
 40
0.5
 40
0.5
 40
0.5833333333333334
 40
0.5833333333333334
 40
0.5833333333333334
 40
0.5833333333333334
 40
0.6666666666666666
 40
0.6666666666666666
 40
0.6666666666666666
 40
0.6666666666666666
 40
0.75
 40
0.75
 40
0.75
 40
0.75
 40
0.8333333333333334
 40
0.8333333333333334
 40
0.8333333333333334
 40
0.8333333333333334
 40
1.0
 40
1.0
 40
1.0
 40
1.0
 10
-0.845
 20
15.324
 30
0.0
 10
-0.845
 20
15.324
 30
0.0
 10
-0.845
 20
16.0147
 30
0.0
 10
-0.845
 20
16.0147
 30
0.0
 10
-0.845
 20
16.0147
 30
0.0
 10
-0.845
 20
16.0147
 30
0.0
 10
-0.4919
 20
16.0147
 30
0.0
 10
-0.4919
 20
16.0147
 30
0.0
 10
-0.4919
 20
16.0147
 30
0.0
 10
-0.4919
 20
16.0147
 30
0.0
 10
-0.4919
 20
16.2786
 30
0.0
 10
-0.4919
 20
16.2786
 30
0.0
 10
-0.4919
 20
16.2786
 30
0.0
 10
-0.4919
 20
16.2786
 30
0.0
 10
-0.845
 20
16.2786
 30
0.0
 10
-0.845
 20
16.2786
 30
0.0
 10
-0.845
 20
16.2786
 30
0.0
 10
-0.845
 20
16.2786
 30
0.0
 10
-0.845
 20
17.8463
 30
0.0
 10
-0.845
 20
17.8463
 30
0.0
 10
-0.845
 20
17.8463
 30
0.0
 10
-0.845
 20
17.8463
 30
0.0
 10
-1.2136
 20
17.8463
 30
0.0
 10
-1.2136
 20
17.8463
 30
0.0
 10
-1.2136
 20
17.8463
 30
0.0
 10
-1.2136
 20
17.8463
 30
0.0
 10
-2.339
 20
16.2359
 30
0.0
 10
-2.339
 20
16.2359
 30
0.0
 10
-2.339
 20
16.2359
 30
0.0
 10
-2.339
 20
16.2359
 30
0.0
 10
-2.339
 20
16.0147
 30
0.0
 10
-2.339
 20
16.0147
 30
0.0
 10
-2.339
 20
16.0147
 30
0.0
 10
-2.339
 20
16.0147
 30
0.0
 10
-1.1671
 20
16.0147
 30
0.0
 10
-1.1671
 20
16.0147
 30
0.0
 10
-1.1671
 20
16.0147
 30
0.0
 10
-1.1671
 20
16.0147
 30
0.0
 10
-1.1671
 20
15.324
 30
0.0
 10
-1.1671
 20
15.324
 30
0.0
 10
-1.1671
 20
15.324
 30
0.0
 10
-1.1671
 20
15.324
 30
0.0
 10
-0.845
 20
15.324
 30
0.0
 10
-0.845
 20
15.324
 30
0.0
  0
SPLINE
  5
56
330
1F
100
AcDbEntity
  8
AXIS
 62
   250
100
AcDbSpline
210
0.0
220
0.0
230
1.0
 70
    11
 71
     3
 72
    36
 73
    32
 74
     0
 42
0.0000000001
 43
0.0000000001
 40
0.0
 40
0.0
 40
0.0
 40
0.0
 40
0.1111111111111111
 40
0.1111111111111111
 40
0.1111111111111111
 40
0.1111111111111111
 40
0.2222222222222222
 40
0.2222222222222222
 40
0.2222222222222222
 40
0.2222222222222222
 40
0.3333333333333333
 40
0.3333333333333333
 40
0.3333333333333333
 40
0.3333333333333333
 40
0.4444444444444444
 40
0.4444444444444444
 40
0.4444444444444444
 40
0.4444444444444444
 40
0.5555555555555556
 40
0.5555555555555556
 40
0.5555555555555556
 40
0.5555555555555556
 40
0.6666666666666666
 40
0.6666666666666666
 40
0.6666666666666666
 40
0.6666666666666666
 40
0.7777777777777778
 40
0.7777777777777778
 40
0.7777777777777778
 40
0.7777777777777778
 40
1.0
 40
1.0
 40
1.0
 40
1.0
 10
-1.9936
 20
16.2786
 30
0.0
 10
-1.9936
 20
16.2786
 30
0.0
 10
-1.9936
 20
16.2864
 30
0.0
 10
-1.9936
 20
16.2864
 30
0.0
 10
-1.9936
 20
16.2864
 30
0.0
 10
-1.9936
 20
16.2864
 30
0.0
 10
-1.3766
 20
17.144
 30
0.0
 10
-1.3766
 20
17.144
 30
0.0
 10
-1.3766
 20
17.144
 30
0.0
 10
-1.3424
 20
17.2015
 30
0.0
 10
-1.3081
 20
17.2597
 30
0.0
 10
-1.2744
 20
17.3186
 30
0.0
 10
-1.2744
 20
17.3186
 30
0.0
 10
-1.2415
 20
17.3781
 30
0.0
 10
-1.2052
 20
17.444
 30
0.0
 10
-1.1671
 20
17.5165
 30
0.0
 10
-1.1671
 20
17.5165
 30
0.0
 10
-1.1671
 20
17.5165
 30
0.0
 10
-1.1554
 20
17.5165
 30
0.0
 10
-1.1554
 20
17.5165
 30
0.0
 10
-1.1554
 20
17.5165
 30
0.0
 10
-1.1632
 20
17.3845
 30
0.0
 10
-1.1671
 20
17.2526
 30
0.0
 10
-1.1671
 20
17.1207
 30
0.0
 10
-1.1671
 20
17.1207
 30
0.0
 10
-1.1671
 20
17.1207
 30
0.0
 10
-1.1671
 20
16.2786
 30
0.0
 10
-1.1671
 20
16.2786
 30
0.0
 10
-1.1671
 20
16.2786
 30
0.0
 10
-1.1671
 20
16.2786
 30
0.0
 10
-1.9936
 20
16.2786
 30
0.0
 10
-1.9936
 20
16.2786
 30
0.0
  0
SPLINE
  5
57
330
1F
100
AcDbEntity
  8
AXIS
 62
   250
100
AcDbSpline
210
0.0
220
0.0
230
1.0
 70
    11
 71
     3
 72
    36
 73
    32
 74
     0
 42
0.0000000001
 43
0.0000000001
 40
0.0
 40
0.0
 40
0.0
 40
0.0
 40
0.1111111111111111
 40
0.1111111111111111
 40
0.1111111111111111
 40
0.1111111111111111
 40
0.2222222222222222
 40
0.2222222222222222
 40
0.2222222222222222
 40
0.2222222222222222
 40
0.3333333333333333
 40
0.3333333333333333
 40
0.3333333333333333
 40
0.3333333333333333
 40
0.4444444444444444
 40
0.4444444444444444
 40
0.4444444444444444
 40
0.4444444444444444
 40
0.5555555555555556
 40
0.5555555555555556
 40
0.5555555555555556
 40
0.5555555555555556
 40
0.6666666666666666
 40
0.6666666666666666
 40
0.6666666666666666
 40
0.6666666666666666
 40
0.7777777777777778
 40
0.7777777777777778
 40
0.7777777777777778
 40
0.7777777777777778
 40
1.0
 40
1.0
 40
1.0
 40
1.0
 10
-0.1853
 20
17.8463
 30
0.0
 10
-0.1853
 20
17.8463
 30
0.0
 10
-0.1853
 20
17.563
 30
0.0
 10
-0.1853
 20
17.563
 30
0.0
 10
-0.1853
 20
17.563
 30
0.0
 10
-0.1853
 20
17.563
 30
0.0
 10
1.0487
 20
17.563
 30
0.0
 10
1.0487
 20
17.563
 30
0.0
 10
1.0487
 20
17.563
 30
0.0
 10
1.0487
 20
17.563
 30
0.0
 10
1.0487
 20
17.5553
 30
0.0
 10
1.0487
 20
17.5553
 30
0.0
 10
1.0487
 20
17.5553
 30
0.0
 10
1.0487
 20
17.5553
 30
0.0
 10
-0.0456
 20
15.324
 30
0.0
 10
-0.0456
 20
15.324
 30
0.0
 10
-0.0456
 20
15.324
 30
0.0
 10
-0.0456
 20
15.324
 30
0.0
 10
0.3075
 20
15.324
 30
0.0
 10
0.3075
 20
15.324
 30
0.0
 10
0.3075
 20
15.324
 30
0.0
 10
0.3075
 20
15.324
 30
0.0
 10
1.4057
 20
17.6213
 30
0.0
 10
1.4057
 20
17.6213
 30
0.0
 10
1.4057
 20
17.6213
 30
0.0
 10
1.4057
 20
17.6213
 30
0.0
 10
1.4057
 20
17.8463
 30
0.0
 10
1.4057
 20
17.8463
 30
0.0
 10
1.4057
 20
17.8463
 30
0.0
 10
1.4057
 20
17.8463
 30
0.0
 10
-0.1853
 20
17.8463
 30
0.0
 10
-0.1853
 20
17.8463
 30
0.0
  0
SPLINE
  5
58
330
1F
100
AcDbEntity
  8
AXIS
 62
   250
100
AcDbSpline
210
0.0
220
0.0
230
1.0
 70
    11
 71
     3
 72
    36
 73
    32
 74
     0
 42
0.0000000001
 43
0.0000000001
 40
0.0
 40
0.0
 40
0.0
 40
0.0
 40
0.1111111111111111
 40
0.1111111111111111
 40
0.1111111111111111
 40
0.1111111111111111
 40
0.2222222222222222
 40
0.2222222222222222
 40
0.2222222222222222
 40
0.2222222222222222
 40
0.3333333333333333
 40
0.3333333333333333
 40
0.3333333333333333
 40
0.3333333333333333
 40
0.4444444444444444
 40
0.4444444444444444
 40
0.4444444444444444
 40
0.4444444444444444
 40
0.5555555555555556
 40
0.5555555555555556
 40
0.5555555555555556
 40
0.5555555555555556
 40
0.6666666666666666
 40
0.6666666666666666
 40
0.6666666666666666
 40
0.6666666666666666
 40
0.7777777777777778
 40
0.7777777777777778
 40
0.7777777777777778
 40
0.7777777777777778
 40
1.0
 40
1.0
 40
1.0
 40
1.0
 10
-28.8622
 20
-3.3949
 30
0.0
 10
-28.8622
 20
-3.3949
 30
0.0
 10
-28.8622
 20
-3.0651
 30
0.0
 10
-28.8622
 20
-3.0651
 30
0.0
 10
-28.8622
 20
-3.0651
 30
0.0
 10
-28.8622
 20
-3.0651
 30
0.0
 10
-31.3845
 20
-3.0651
 30
0.0
 10
-31.3845
 20
-3.0651
 30
0.0
 10
-31.3845
 20
-3.0651
 30
0.0
 10
-31.3845
 20
-3.0651
 30
0.0
 10
-31.3845
 20
-3.3561
 30
0.0
 10
-31.3845
 20
-3.3561
 30
0.0
 10
-31.3845
 20
-3.3561
 30
0.0
 10
-31.3845
 20
-3.3561
 30
0.0
 10
-31.0896
 20
-3.9071
 30
0.0
 10
-31.0896
 20
-3.9071
 30
0.0
 10
-31.0896
 20
-3.9071
 30
0.0
 10
-31.0896
 20
-3.9071
 30
0.0
 10
-30.8296
 20
-3.8412
 30
0.0
 10
-30.8296
 20
-3.8412
 30
0.0
 10
-30.8296
 20
-3.8412
 30
0.0
 10
-30.8296
 20
-3.8412
 30
0.0
 10
-31.0663
 20
-3.4027
 30
0.0
 10
-31.0663
 20
-3.4027
 30
0.0
 10
-31.0663
 20
-3.4027
 30
0.0
 10
-31.0663
 20
-3.4027
 30
0.0
 10
-31.0663
 20
-3.3949
 30
0.0
 10
-31.0663
 20
-3.3949
 30
0.0
 10
-31.0663
 20
-3.3949
 30
0.0
 10
-31.0663
 20
-3.3949
 30
0.0
 10
-28.8622
 20
-3.3949
 30
0.0
 10
-28.8622
 20
-3.3949
 30
0.0
  0
SPLINE
  5
59
330
1F
100
AcDbEntity
  8
AXIS
 62
   250
100
AcDbSpline
210
0.0
220
0.0
230
1.0
 70
    11
 71
     3
 72
   124
 73
   120
 74
     0
 42
0.0000000001
 43
0.0000000001
 40
0.0
 40
0.0
 40
0.0
 40
0.0
 40
0.032258064516129
 40
0.032258064516129
 40
0.032258064516129
 40
0.032258064516129
 40
0.0645161290322581
 40
0.0645161290322581
 40
0.0645161290322581
 40
0.0645161290322581
 40
0.0967741935483871
 40
0.0967741935483871
 40
0.0967741935483871
 40
0.0967741935483871
 40
0.1290322580645161
 40
0.1290322580645161
 40
0.1290322580645161
 40
0.1290322580645161
 40
0.1612903225806452
 40
0.1612903225806452
 40
0.1612903225806452
 40
0.1612903225806452
 40
0.1935483870967742
 40
0.1935483870967742
 40
0.1935483870967742
 40
0.1935483870967742
 40
0.2258064516129032
 40
0.2258064516129032
 40
0.2258064516129032
 40
0.2258064516129032
 40
0.2580645161290323
 40
0.2580645161290323
 40
0.2580645161290323
 40
0.2580645161290323
 40
0.2903225806451613
 40
0.2903225806451613
 40
0.2903225806451613
 40
0.2903225806451613
 40
0.3225806451612903
 40
0.3225806451612903
 40
0.3225806451612903
 40
0.3225806451612903
 40
0.3548387096774194
 40
0.3548387096774194
 40
0.3548387096774194
 40
0.3548387096774194
 40
0.3870967741935484
 40
0.3870967741935484
 40
0.3870967741935484
 40
0.3870967741935484
 40
0.4193548387096774
 40
0.4193548387096774
 40
0.4193548387096774
 40
0.4193548387096774
 40
0.4516129032258064
 40
0.4516129032258064
 40
0.4516129032258064
 40
0.4516129032258064
 40
0.4838709677419355
 40
0.4838709677419355
 40
0.4838709677419355
 40
0.4838709677419355
 40
0.5161290322580645
 40
0.5161290322580645
 40
0.5161290322580645
 40
0.5161290322580645
 40
0.5483870967741935
 40
0.5483870967741935
 40
0.5483870967741935
 40
0.5483870967741935
 40
0.5806451612903226
 40
0.5806451612903226
 40
0.5806451612903226
 40
0.5806451612903226
 40
0.6129032258064516
 40
0.6129032258064516
 40
0.6129032258064516
 40
0.6129032258064516
 40
0.6451612903225806
 40
0.6451612903225806
 40
0.6451612903225806
 40
0.6451612903225806
 40
0.6774193548387096
 40
0.6774193548387096
 40
0.6774193548387096
 40
0.6774193548387096
 40
0.7096774193548387
 40
0.7096774193548387
 40
0.7096774193548387
 40
0.7096774193548387
 40
0.7419354838709677
 40
0.7419354838709677
 40
0.7419354838709677
 40
0.7419354838709677
 40
0.7741935483870968
 40
0.7741935483870968
 40
0.7741935483870968
 40
0.7741935483870968
 40
0.8064516129032258
 40
0.8064516129032258
 40
0.8064516129032258
 40
0.8064516129032258
 40
0.8387096774193549
 40
0.8387096774193549
 40
0.8387096774193549
 40
0.8387096774193549
 40
0.8709677419354839
 40
0.8709677419354839
 40
0.8709677419354839
 40
0.8709677419354839
 40
0.9032258064516129
 40
0.9032258064516129
 40
0.9032258064516129
 40
0.9032258064516129
 40
0.9354838709677419
 40
0.9354838709677419
 40
0.9354838709677419
 40
0.9354838709677419
 40
1.0
 40
1.0
 40
1.0
 40
1.0
 10
-31.4233
 20
-0.7057
 30
0.0
 10
-31.4233
 20
-0.7368
 30
0.0
 10
-31.422
 20
-0.7736
 30
0.0
 10
-31.4194
 20
-0.815
 30
0.0
 10
-31.4194
 20
-0.815
 30
0.0
 10
-31.4169
 20
-0.8571
 30
0.0
 10
-31.4117
 20
-0.9036
 30
0.0
 10
-31.4039
 20
-0.9541
 30
0.0
 10
-31.4039
 20
-0.9541
 30
0.0
 10
-31.3845
 20
-1.1138
 30
0.0
 10
-31.3431
 20
-1.2619
 30
0.0
 10
-31.2804
 20
-1.3984
 30
0.0
 10
-31.2804
 20
-1.3984
 30
0.0
 10
-31.2177
 20
-1.5348
 30
0.0
 10
-31.1349
 20
-1.6558
 30
0.0
 10
-31.0314
 20
-1.7612
 30
0.0
 10
-31.0314
 20
-1.7612
 30
0.0
 10
-30.9486
 20
-1.8459
 30
0.0
 10
-30.8503
 20
-1.9203
 30
0.0
 10
-30.7365
 20
-1.9837
 30
0.0
 10
-30.7365
 20
-1.9837
 30
0.0
 10
-30.6233
 20
-2.0477
 30
0.0
 10
-30.4959
 20
-2.0975
 30
0.0
 10
-30.3549
 20
-2.1337
 30
0.0
 10
-30.3549
 20
-2.1337
 30
0.0
 10
-30.2139
 20
-2.1693
 30
0.0
 10
-30.06
 20
-2.1874
 30
0.0
 10
-29.8944
 20
-2.1881
 30
0.0
 10
-29.8944
 20
-2.1881
 30
0.0
 10
-29.7301
 20
-2.1874
 30
0.0
 10
-29.582
 20
-2.1661
 30
0.0
 10
-29.4501
 20
-2.1247
 30
0.0
 10
-29.4501
 20
-2.1247
 30
0.0
 10
-29.3175
 20
-2.0826
 30
0.0
 10
-29.205
 20
-2.0225
 30
0.0
 10
-29.1112
 20
-1.9442
 30
0.0
 10
-29.1112
 20
-1.9442
 30
0.0
 10
-29.0174
 20
-1.8666
 30
0.0
 10
-28.945
 20
-1.7728
 30
0.0
 10
-28.8952
 20
-1.6642
 30
0.0
 10
-28.8952
 20
-1.6642
 30
0.0
 10
-28.8454
 20
-1.5555
 30
0.0
 10
-28.8202
 20
-1.434
 30
0.0
 10
-28.8195
 20
-1.2994
 30
0.0
 10
-28.8195
 20
-1.2994
 30
0.0
 10
-28.8208
 20
-1.1675
 30
0.0
 10
-28.8454
 20
-1.0491
 30
0.0
 10
-28.8932
 20
-0.945
 30
0.0
 10
-28.8932
 20
-0.945
 30
0.0
 10
-28.9418
 20
-0.8415
 30
0.0
 10
-29.0077
 20
-0.7529
 30
0.0
 10
-29.0911
 20
-0.6805
 30
0.0
 10
-29.0911
 20
-0.6805
 30
0.0
 10
-29.1746
 20
-0.6081
 30
0.0
 10
-29.2697
 20
-0.5524
 30
0.0
 10
-29.3764
 20
-0.5149
 30
0.0
 10
-29.3764
 20
-0.5149
 30
0.0
 10
-29.4824
 20
-0.4768
 30
0.0
 10
-29.5943
 20
-0.4574
 30
0.0
 10
-29.712
 20
-0.4574
 30
0.0
 10
-29.712
 20
-0.4574
 30
0.0
 10
-29.8349
 20
-0.458
 30
0.0
 10
-29.9462
 20
-0.4768
 30
0.0
 10
-30.0458
 20
-0.5136
 30
0.0
 10
-30.0458
 20
-0.5136
 30
0.0
 10
-30.1454
 20
-0.5505
 30
0.0
 10
-30.2314
 20
-0.6029
 30
0.0
 10
-30.3032
 20
-0.6701
 30
0.0
 10
-30.3032
 20
-0.6701
 30
0.0
 10
-30.3743
 20
-0.738
 30
0.0
 10
-30.4299
 20
-0.8182
 30
0.0
 10
-30.4681
 20
-0.9107
 30
0.0
 10
-30.4681
 20
-0.9107
 30
0.0
 10
-30.5069
 20
-1.0032
 30
0.0
 10
-30.5263
 20
-1.1061
 30
0.0
 10
-30.5269
 20
-1.2179
 30
0.0
 10
-30.5269
 20
-1.2179
 30
0.0
 10
-30.5263
 20
-1.3111
 30
0.0
 10
-30.5127
 20
-1.3964
 30
0.0
 10
-30.4868
 20
-1.4741
 30
0.0
 10
-30.4868
 20
-1.4741
 30
0.0
 10
-30.4603
 20
-1.5517
 30
0.0
 10
-30.4254
 20
-1.6209
 30
0.0
 10
-30.3808
 20
-1.681
 30
0.0
 10
-30.3808
 20
-1.681
 30
0.0
 10
-30.3368
 20
-1.7405
 30
0.0
 10
-30.287
 20
-1.791
 30
0.0
 10
-30.232
 20
-1.8311
 30
0.0
 10
-30.232
 20
-1.8311
 30
0.0
 10
-30.232
 20
-1.8311
 30
0.0
 10
-30.232
 20
-1.8388
 30
0.0
 10
-30.232
 20
-1.8388
 30
0.0
 10
-30.232
 20
-1.8388
 30
0.0
 10
-30.3374
 20
-1.8246
 30
0.0
 10
-30.439
 20
-1.7961
 30
0.0
 10
-30.5366
 20
-1.7528
 30
0.0
 10
-30.5366
 20
-1.7528
 30
0.0
 10
-30.6336
 20
-1.7101
 30
0.0
 10
-30.7229
 20
-1.6532
 30
0.0
 10
-30.8037
 20
-1.5808
 30
0.0
 10
-30.8037
 20
-1.5808
 30
0.0
 10
-30.8839
 20
-1.5083
 30
0.0
 10
-30.9525
 20
-1.421
 30
0.0
 10
-31.0081
 20
-1.3182
 30
0.0
 10
-31.0081
 20
-1.3182
 30
0.0
 10
-31.0637
 20
-1.2154
 30
0.0
 10
-31.1025
 20
-1.0963
 30
0.0
 10
-31.1245
 20
-0.9618
 30
0.0
 10
-31.1245
 20
-0.9618
 30
0.0
 10
-31.1323
 20
-0.9133
 30
0.0
 10
-31.1381
 20
-0.8668
 30
0.0
 10
-31.1413
 20
-0.8234
 30
0.0
 10
-31.1413
 20
-0.8234
 30
0.0
 10
-31.1452
 20
-0.7801
 30
0.0
 10
-31.1459
 20
-0.7406
 30
0.0
 10
-31.1439
 20
-0.7057
 30
0.0
 10
-31.1439
 20
-0.7057
 30
0.0
 10
-31.1439
 20
-0.7057
 30
0.0
 10
-31.4233
 20
-0.7057
 30
0.0
 10
-31.4233
 20
-0.7057
 30
0.0
  0
SPLINE
  5
5A
330
1F
100
AcDbEntity
  8
AXIS
 62
   250
100
AcDbSpline
210
0.0
220
0.0
230
1.0
 70
    11
 71
     3
 72
    64
 73
    60
 74
     0
 42
0.0000000001
 43
0.0000000001
 40
0.0
 40
0.0
 40
0.0
 40
0.0
 40
0.0625
 40
0.0625
 40
0.0625
 40
0.0625
 40
0.125
 40
0.125
 40
0.125
 40
0.125
 40
0.1875
 40
0.1875
 40
0.1875
 40
0.1875
 40
0.25
 40
0.25
 40
0.25
 40
0.25
 40
0.3125
 40
0.3125
 40
0.3125
 40
0.3125
 40
0.375
 40
0.375
 40
0.375
 40
0.375
 40
0.4375
 40
0.4375
 40
0.4375
 40
0.4375
 40
0.5
 40
0.5
 40
0.5
 40
0.5
 40
0.5625
 40
0.5625
 40
0.5625
 40
0.5625
 40
0.625
 40
0.625
 40
0.625
 40
0.625
 40
0.6875
 40
0.6875
 40
0.6875
 40
0.6875
 40
0.75
 40
0.75
 40
0.75
 40
0.75
 40
0.8125
 40
0.8125
 40
0.8125
 40
0.8125
 40
0.875
 40
0.875
 40
0.875
 40
0.875
 40
1.0
 40
1.0
 40
1.0
 40
1.0
 10
-29.0834
 20
-1.2917
 30
0.0
 10
-29.084
 20
-1.3822
 30
0.0
 10
-29.1021
 20
-1.4618
 30
0.0
 10
-29.1384
 20
-1.531
 30
0.0
 10
-29.1384
 20
-1.531
 30
0.0
 10
-29.1746
 20
-1.5995
 30
0.0
 10
-29.225
 20
-1.6577
 30
0.0
 10
-29.2903
 20
-1.7049
 30
0.0
 10
-29.2903
 20
-1.7049
 30
0.0
 10
-29.3557
 20
-1.7522
 30
0.0
 10
-29.4326
 20
-1.7877
 30
0.0
 10
-29.5206
 20
-1.8123
 30
0.0
 10
-29.5206
 20
-1.8123
 30
0.0
 10
-29.6085
 20
-1.8369
 30
0.0
 10
-29.7049
 20
-1.8492
 30
0.0
 10
-29.809
 20
-1.8505
 30
0.0
 10
-29.809
 20
-1.8505
 30
0.0
 10
-29.8401
 20
-1.8505
 30
0.0
 10
-29.8672
 20
-1.8466
 30
0.0
 10
-29.8918
 20
-1.8401
 30
0.0
 10
-29.8918
 20
-1.8401
 30
0.0
 10
-29.9158
 20
-1.8336
 30
0.0
 10
-29.9371
 20
-1.8252
 30
0.0
 10
-29.9565
 20
-1.8155
 30
0.0
 10
-29.9565
 20
-1.8155
 30
0.0
 10
-30.0192
 20
-1.7838
 30
0.0
 10
-30.0736
 20
-1.7431
 30
0.0
 10
-30.1201
 20
-1.692
 30
0.0
 10
-30.1201
 20
-1.692
 30
0.0
 10
-30.166
 20
-1.6416
 30
0.0
 10
-30.2023
 20
-1.5846
 30
0.0
 10
-30.2281
 20
-1.5213
 30
0.0
 10
-30.2281
 20
-1.5213
 30
0.0
 10
-30.2534
 20
-1.4579
 30
0.0
 10
-30.2669
 20
-1.3919
 30
0.0
 10
-30.2669
 20
-1.3227
 30
0.0
 10
-30.2669
 20
-1.3227
 30
0.0
 10
-30.2663
 20
-1.2173
 30
0.0
 10
-30.243
 20
-1.1261
 30
0.0
 10
-30.1971
 20
-1.0478
 30
0.0
 10
-30.1971
 20
-1.0478
 30
0.0
 10
-30.1512
 20
-0.9702
 30
0.0
 10
-30.0852
 20
-0.9101
 30
0.0
 10
-29.9992
 20
-0.8674
 30
0.0
 10
-29.9992
 20
-0.8674
 30
0.0
 10
-29.9132
 20
-0.8247
 30
0.0
 10
-29.8097
 20
-0.8034
 30
0.0
 10
-29.6887
 20
-0.8027
 30
0.0
 10
-29.6887
 20
-0.8027
 30
0.0
 10
-29.5678
 20
-0.8034
 30
0.0
 10
-29.4617
 20
-0.8241
 30
0.0
 10
-29.3712
 20
-0.8648
 30
0.0
 10
-29.3712
 20
-0.8648
 30
0.0
 10
-29.2806
 20
-0.9056
 30
0.0
 10
-29.2108
 20
-0.9625
 30
0.0
 10
-29.1604
 20
-1.0356
 30
0.0
 10
-29.1604
 20
-1.0356
 30
0.0
 10
-29.1099
 20
-1.1086
 30
0.0
 10
-29.084
 20
-1.194
 30
0.0
 10
-29.0834
 20
-1.2917
 30
0.0
  0
SPLINE
  5
5B
330
1F
100
AcDbEntity
  8
AXIS
 62
   250
100
AcDbSpline
210
0.0
220
0.0
230
1.0
 70
    11
 71
     3
 72
   132
 73
   128
 74
     0
 42
0.0000000001
 43
0.0000000001
 40
0.0
 40
0.0
 40
0.0
 40
0.0
 40
0.0303030303030303
 40
0.0303030303030303
 40
0.0303030303030303
 40
0.0303030303030303
 40
0.0606060606060606
 40
0.0606060606060606
 40
0.0606060606060606
 40
0.0606060606060606
 40
0.0909090909090909
 40
0.0909090909090909
 40
0.0909090909090909
 40
0.0909090909090909
 40
0.1212121212121212
 40
0.1212121212121212
 40
0.1212121212121212
 40
0.1212121212121212
 40
0.1515151515151515
 40
0.1515151515151515
 40
0.1515151515151515
 40
0.1515151515151515
 40
0.1818181818181818
 40
0.1818181818181818
 40
0.1818181818181818
 40
0.1818181818181818
 40
0.2121212121212121
 40
0.2121212121212121
 40
0.2121212121212121
 40
0.2121212121212121
 40
0.2424242424242424
 40
0.2424242424242424
 40
0.2424242424242424
 40
0.2424242424242424
 40
0.2727272727272727
 40
0.2727272727272727
 40
0.2727272727272727
 40
0.2727272727272727
 40
0.303030303030303
 40
0.303030303030303
 40
0.303030303030303
 40
0.303030303030303
 40
0.3333333333333333
 40
0.3333333333333333
 40
0.3333333333333333
 40
0.3333333333333333
 40
0.3636363636363636
 40
0.3636363636363636
 40
0.3636363636363636
 40
0.3636363636363636
 40
0.3939393939393939
 40
0.3939393939393939
 40
0.3939393939393939
 40
0.3939393939393939
 40
0.4242424242424243
 40
0.4242424242424243
 40
0.4242424242424243
 40
0.4242424242424243
 40
0.4545454545454545
 40
0.4545454545454545
 40
0.4545454545454545
 40
0.4545454545454545
 40
0.4848484848484849
 40
0.4848484848484849
 40
0.4848484848484849
 40
0.4848484848484849
 40
0.5151515151515151
 40
0.5151515151515151
 40
0.5151515151515151
 40
0.5151515151515151
 40
0.5454545454545454
 40
0.5454545454545454
 40
0.5454545454545454
 40
0.5454545454545454
 40
0.5757575757575758
 40
0.5757575757575758
 40
0.5757575757575758
 40
0.5757575757575758
 40
0.6060606060606061
 40
0.6060606060606061
 40
0.6060606060606061
 40
0.6060606060606061
 40
0.6363636363636364
 40
0.6363636363636364
 40
0.6363636363636364
 40
0.6363636363636364
 40
0.6666666666666666
 40
0.6666666666666666
 40
0.6666666666666666
 40
0.6666666666666666
 40
0.696969696969697
 40
0.696969696969697
 40
0.696969696969697
 40
0.696969696969697
 40
0.7272727272727273
 40
0.7272727272727273
 40
0.7272727272727273
 40
0.7272727272727273
 40
0.7575757575757576
 40
0.7575757575757576
 40
0.7575757575757576
 40
0.7575757575757576
 40
0.7878787878787878
 40
0.7878787878787878
 40
0.7878787878787878
 40
0.7878787878787878
 40
0.8181818181818182
 40
0.8181818181818182
 40
0.8181818181818182
 40
0.8181818181818182
 40
0.8484848484848485
 40
0.8484848484848485
 40
0.8484848484848485
 40
0.8484848484848485
 40
0.8787878787878788
 40
0.8787878787878788
 40
0.8787878787878788
 40
0.8787878787878788
 40
0.9090909090909091
 40
0.9090909090909091
 40
0.9090909090909091
 40
0.9090909090909091
 40
0.9393939393939394
 40
0.9393939393939394
 40
0.9393939393939394
 40
0.9393939393939394
 40
1.0
 40
1.0
 40
1.0
 40
1.0
 10
-31.3845
 20
1.351
 30
0.0
 10
-31.3845
 20
1.351
 30
0.0
 10
-31.3845
 20
0.1441
 30
0.0
 10
-31.3845
 20
0.1441
 30
0.0
 10
-31.3845
 20
0.1441
 30
0.0
 10
-31.3845
 20
0.1441
 30
0.0
 10
-30.1738
 20
-0.0189
 30
0.0
 10
-30.1738
 20
-0.0189
 30
0.0
 10
-30.1738
 20
-0.0189
 30
0.0
 10
-30.1803
 20
0.0277
 30
0.0
 10
-30.1855
 20
0.0794
 30
0.0
 10
-30.19
 20
0.1377
 30
0.0
 10
-30.19
 20
0.1377
 30
0.0
 10
-30.1945
 20
0.1952
 30
0.0
 10
-30.1971
 20
0.2612
 30
0.0
 10
-30.1971
 20
0.3343
 30
0.0
 10
-30.1971
 20
0.3343
 30
0.0
 10
-30.1964
 20
0.5011
 30
0.0
 10
-30.1725
 20
0.6376
 30
0.0
 10
-30.1259
 20
0.7437
 30
0.0
 10
-30.1259
 20
0.7437
 30
0.0
 10
-30.0787
 20
0.8504
 30
0.0
 10
-30.0141
 20
0.9293
 30
0.0
 10
-29.9313
 20
0.9804
 30
0.0
 10
-29.9313
 20
0.9804
 30
0.0
 10
-29.8478
 20
1.0315
 30
0.0
 10
-29.7515
 20
1.0567
 30
0.0
 10
-29.6422
 20
1.056
 30
0.0
 10
-29.6422
 20
1.056
 30
0.0
 10
-29.5575
 20
1.0567
 30
0.0
 10
-29.4818
 20
1.0412
 30
0.0
 10
-29.4145
 20
1.0095
 30
0.0
 10
-29.4145
 20
1.0095
 30
0.0
 10
-29.3466
 20
0.9784
 30
0.0
 10
-29.2897
 20
0.9351
 30
0.0
 10
-29.2418
 20
0.8801
 30
0.0
 10
-29.2418
 20
0.8801
 30
0.0
 10
-29.1946
 20
0.8251
 30
0.0
 10
-29.1584
 20
0.7618
 30
0.0
 10
-29.1332
 20
0.69
 30
0.0
 10
-29.1332
 20
0.69
 30
0.0
 10
-29.108
 20
0.6182
 30
0.0
 10
-29.095
 20
0.5425
 30
0.0
 10
-29.095
 20
0.4623
 30
0.0
 10
-29.095
 20
0.4623
 30
0.0
 10
-29.0957
 20
0.3841
 30
0.0
 10
-29.1028
 20
0.3103
 30
0.0
 10
-29.1177
 20
0.2411
 30
0.0
 10
-29.1177
 20
0.2411
 30
0.0
 10
-29.1319
 20
0.1719
 30
0.0
 10
-29.1494
 20
0.1098
 30
0.0
 10
-29.1707
 20
0.0549
 30
0.0
 10
-29.1707
 20
0.0549
 30
0.0
 10
-29.192
 20
-0.0001
 30
0.0
 10
-29.2134
 20
-0.0454
 30
0.0
 10
-29.2347
 20
-0.0809
 30
0.0
 10
-29.2347
 20
-0.0809
 30
0.0
 10
-29.2347
 20
-0.0809
 30
0.0
 10
-28.9747
 20
-0.1663
 30
0.0
 10
-28.9747
 20
-0.1663
 30
0.0
 10
-28.9747
 20
-0.1663
 30
0.0
 10
-28.9482
 20
-0.1243
 30
0.0
 10
-28.9236
 20
-0.0719
 30
0.0
 10
-28.8997
 20
-0.0092
 30
0.0
 10
-28.8997
 20
-0.0092
 30
0.0
 10
-28.8764
 20
0.0536
 30
0.0
 10
-28.8577
 20
0.1247
 30
0.0
 10
-28.8428
 20
0.2043
 30
0.0
 10
-28.8428
 20
0.2043
 30
0.0
 10
-28.8279
 20
0.2845
 30
0.0
 10
-28.8202
 20
0.3705
 30
0.0
 10
-28.8195
 20
0.4623
 30
0.0
 10
-28.8195
 20
0.4623
 30
0.0
 10
-28.8202
 20
0.6001
 30
0.0
 10
-28.8422
 20
0.7255
 30
0.0
 10
-28.8848
 20
0.84
 30
0.0
 10
-28.8848
 20
0.84
 30
0.0
 10
-28.9275
 20
0.9545
 30
0.0
 10
-28.9877
 20
1.0535
 30
0.0
 10
-29.0653
 20
1.1369
 30
0.0
 10
-29.0653
 20
1.1369
 30
0.0
 10
-29.1429
 20
1.221
 30
0.0
 10
-29.2341
 20
1.2856
 30
0.0
 10
-29.3382
 20
1.3316
 30
0.0
 10
-29.3382
 20
1.3316
 30
0.0
 10
-29.443
 20
1.3775
 30
0.0
 10
-29.5575
 20
1.4008
 30
0.0
 10
-29.681
 20
1.4014
 30
0.0
 10
-29.681
 20
1.4014
 30
0.0
 10
-29.7858
 20
1.4008
 30
0.0
 10
-29.8802
 20
1.3839
 30
0.0
 10
-29.9636
 20
1.3516
 30
0.0
 10
-29.9636
 20
1.3516
 30
0.0
 10
-30.047
 20
1.3193
 30
0.0
 10
-30.1188
 20
1.2766
 30
0.0
 10
-30.1796
 20
1.2223
 30
0.0
 10
-30.1796
 20
1.2223
 30
0.0
 10
-30.2404
 20
1.1679
 30
0.0
 10
-30.2889
 20
1.1071
 30
0.0
 10
-30.3251
 20
1.0405
 30
0.0
 10
-30.3251
 20
1.0405
 30
0.0
 10
-30.373
 20
0.9623
 30
0.0
 10
-30.4079
 20
0.8775
 30
0.0
 10
-30.4293
 20
0.7851
 30
0.0
 10
-30.4293
 20
0.7851
 30
0.0
 10
-30.4506
 20
0.6926
 30
0.0
 10
-30.4616
 20
0.5968
 30
0.0
 10
-30.461
 20
0.4972
 30
0.0
 10
-30.461
 20
0.4972
 30
0.0
 10
-30.461
 20
0.452
 30
0.0
 10
-30.4603
 20
0.4132
 30
0.0
 10
-30.4584
 20
0.3815
 30
0.0
 10
-30.4584
 20
0.3815
 30
0.0
 10
-30.4564
 20
0.3498
 30
0.0
 10
-30.4532
 20
0.32
 30
0.0
 10
-30.4493
 20
0.2916
 30
0.0
 10
-30.4493
 20
0.2916
 30
0.0
 10
-30.4493
 20
0.2916
 30
0.0
 10
-31.0974
 20
0.3886
 30
0.0
 10
-31.0974
 20
0.3886
 30
0.0
 10
-31.0974
 20
0.3886
 30
0.0
 10
-31.0974
 20
0.3886
 30
0.0
 10
-31.0974
 20
1.351
 30
0.0
 10
-31.0974
 20
1.351
 30
0.0
 10
-31.0974
 20
1.351
 30
0.0
 10
-31.0974
 20
1.351
 30
0.0
 10
-31.3845
 20
1.351
 30
0.0
 10
-31.3845
 20
1.351
 30
0.0
  0
SPLINE
  5
5C
330
1F
100
AcDbEntity
  8
AXIS
 62
   250
370
     9
100
AcDbSpline
210
0.0
220
0.0
230
1.0
 70
    11
 71
     3
 72
    32
 73
    28
 74
     0
 42
0.0000000001
 43
0.0000000001
 40
0.0
 40
0.0
 40
0.0
 40
0.0
 40
0.125
 40
0.125
 40
0.125
 40
0.125
 40
0.25
 40
0.25
 40
0.25
 40
0.25
 40
0.375
 40
0.375
 40
0.375
 40
0.375
 40
0.5
 40
0.5
 40
0.5
 40
0.5
 40
0.625
 40
0.625
 40
0.625
 40
0.625
 40
0.75
 40
0.75
 40
0.75
 40
0.75
 40
1.0
 40
1.0
 40
1.0
 40
1.0
 10
17.393
 20
14.4926
 30
0.0
 10
17.393
 20
14.4926
 30
0.0
 10
17.393
 20
14.4926
 30
0.0
 10
17.393
 20
14.4926
 30
0.0
 10
17.393
 20
14.4926
 30
0.0
 10
17.393
 20
14.4926
 30
0.0
 10
17.393
 20
14.4926
 30
0.0
 10
17.393
 20
14.4926
 30
0.0
 10
17.393
 20
14.4926
 30
0.0
 10
17.393
 20
14.4926
 30
0.0
 10
18.6658
 20
14.936
 30
0.0
 10
18.6658
 20
14.936
 30
0.0
 10
18.6658
 20
14.936
 30
0.0
 10
18.6658
 20
14.936
 30
0.0
 10
17.393
 20
15.3794
 30
0.0
 10
17.393
 20
15.3794
 30
0.0
 10
17.393
 20
15.3794
 30
0.0
 10
17.393
 20
15.3794
 30
0.0
 10
17.393
 20
15.3794
 30
0.0
 10
17.393
 20
15.3794
 30
0.0
 10
17.393
 20
15.3794
 30
0.0
 10
17.393
 20
15.3794
 30
0.0
 10
17.393
 20
15.3794
 30
0.0
 10
17.393
 20
15.3794
 30
0.0
 10
17.393
 20
15.3794
 30
0.0
 10
17.393
 20
15.3794
 30
0.0
 10
17.393
 20
14.4926
 30
0.0
 10
17.393
 20
14.4926
 30
0.0
  0
SPLINE
  5
5D
330
1F
100
AcDbEntity
  8
AXIS
 62
   250
370
     9
100
AcDbSpline
210
0.0
220
0.0
230
1.0
 70
    11
 71
     3
 72
    32
 73
    28
 74
     0
 42
0.0000000001
 43
0.0000000001
 40
0.0
 40
0.0
 40
0.0
 40
0.0
 40
0.125
 40
0.125
 40
0.125
 40
0.125
 40
0.25
 40
0.25
 40
0.25
 40
0.25
 40
0.375
 40
0.375
 40
0.375
 40
0.375
 40
0.5
 40
0.5
 40
0.5
 40
0.5
 40
0.625
 40
0.625
 40
0.625
 40
0.625
 40
0.75
 40
0.75
 40
0.75
 40
0.75
 40
1.0
 40
1.0
 40
1.0
 40
1.0
 10
24.9702
 20
14.3167
 30
0.0
 10
24.9702
 20
14.3167
 30
0.0
 10
24.9702
 20
14.3167
 30
0.0
 10
24.9702
 20
14.3167
 30
0.0
 10
24.9702
 20
14.3167
 30
0.0
 10
24.9702
 20
14.3167
 30
0.0
 10
24.9702
 20
14.3167
 30
0.0
 10
24.9702
 20
14.3167
 30
0.0
 10
24.9702
 20
14.3167
 30
0.0
 10
24.9702
 20
14.3167
 30
0.0
 10
26.243
 20
14.7601
 30
0.0
 10
26.243
 20
14.7601
 30
0.0
 10
26.243
 20
14.7601
 30
0.0
 10
26.243
 20
14.7601
 30
0.0
 10
24.9702
 20
15.2035
 30
0.0
 10
24.9702
 20
15.2035
 30
0.0
 10
24.9702
 20
15.2035
 30
0.0
 10
24.9702
 20
15.2035
 30
0.0
 10
24.9702
 20
15.2035
 30
0.0
 10
24.9702
 20
15.2035
 30
0.0
 10
24.9702
 20
15.2035
 30
0.0
 10
24.9702
 20
15.2035
 30
0.0
 10
24.9702
 20
15.2035
 30
0.0
 10
24.9702
 20
15.2035
 30
0.0
 10
24.9702
 20
15.2035
 30
0.0
 10
24.9702
 20
15.2035
 30
0.0
 10
24.9702
 20
14.3167
 30
0.0
 10
24.9702
 20
14.3167
 30
0.0
  0
SPLINE
  5
5E
330
1F
100
AcDbEntity
  8
AXIS
 62
   250
370
     9
100
AcDbSpline
210
0.0
220
0.0
230
1.0
 70
    11
 71
     3
 72
    32
 73
    28
 74
     0
 42
0.0000000001
 43
0.0000000001
 40
0.0
 40
0.0
 40
0.0
 40
0.0
 40
0.125
 40
0.125
 40
0.125
 40
0.125
 40
0.25
 40
0.25
 40
0.25
 40
0.25
 40
0.375
 40
0.375
 40
0.375
 40
0.375
 40
0.5
 40
0.5
 40
0.5
 40
0.5
 40
0.625
 40
0.625
 40
0.625
 40
0.625
 40
0.75
 40
0.75
 40
0.75
 40
0.75
 40
1.0
 40
1.0
 40
1.0
 40
1.0
 10
25.5303
 20
-17.7085
 30
0.0
 10
25.5303
 20
-17.7085
 30
0.0
 10
25.5303
 20
-17.7085
 30
0.0
 10
25.5303
 20
-17.7085
 30
0.0
 10
25.5303
 20
-17.7085
 30
0.0
 10
25.5303
 20
-17.7085
 30
0.0
 10
25.5303
 20
-17.7085
 30
0.0
 10
25.5303
 20
-17.7085
 30
0.0
 10
25.5303
 20
-17.7085
 30
0.0
 10
25.5303
 20
-17.7085
 30
0.0
 10
26.8031
 20
-17.2651
 30
0.0
 10
26.8031
 20
-17.2651
 30
0.0
 10
26.8031
 20
-17.2651
 30
0.0
 10
26.8031
 20
-17.2651
 30
0.0
 10
25.5303
 20
-16.8217
 30
0.0
 10
25.5303
 20
-16.8217
 30
0.0
 10
25.5303
 20
-16.8217
 30
0.0
 10
25.5303
 20
-16.8217
 30
0.0
 10
25.5303
 20
-16.8217
 30
0.0
 10
25.5303
 20
-16.8217
 30
0.0
 10
25.5303
 20
-16.8217
 30
0.0
 10
25.5303
 20
-16.8217
 30
0.0
 10
25.5303
 20
-16.8217
 30
0.0
 10
25.5303
 20
-16.8217
 30
0.0
 10
25.5303
 20
-16.8217
 30
0.0
 10
25.5303
 20
-16.8217
 30
0.0
 10
25.5303
 20
-17.7085
 30
0.0
 10
25.5303
 20
-17.7085
 30
0.0
  0
SPLINE
  5
5F
330
1F
100
AcDbEntity
  8
AXIS
 62
   250
370
     9
100
AcDbSpline
210
0.0
220
0.0
230
1.0
 70
    11
 71
     3
 72
    32
 73
    28
 74
     0
 42
0.0000000001
 43
0.0000000001
 40
0.0
 40
0.0
 40
0.0
 40
0.0
 40
0.125
 40
0.125
 40
0.125
 40
0.125
 40
0.25
 40
0.25
 40
0.25
 40
0.25
 40
0.375
 40
0.375
 40
0.375
 40
0.375
 40
0.5
 40
0.5
 40
0.5
 40
0.5
 40
0.625
 40
0.625
 40
0.625
 40
0.625
 40
0.75
 40
0.75
 40
0.75
 40
0.75
 40
1.0
 40
1.0
 40
1.0
 40
1.0
 10
28.8641
 20
14.2896
 30
0.0
 10
28.8641
 20
14.2896
 30
0.0
 10
28.8641
 20
14.2896
 30
0.0
 10
28.8641
 20
14.2896
 30
0.0
 10
28.8641
 20
14.2896
 30
0.0
 10
28.8641
 20
14.2896
 30
0.0
 10
28.8641
 20
14.2896
 30
0.0
 10
28.8641
 20
14.2896
 30
0.0
 10
28.8641
 20
14.2896
 30
0.0
 10
28.8641
 20
14.2896
 30
0.0
 10
27.5913
 20
14.733
 30
0.0
 10
27.5913
 20
14.733
 30
0.0
 10
27.5913
 20
14.733
 30
0.0
 10
27.5913
 20
14.733
 30
0.0
 10
28.8641
 20
15.1764
 30
0.0
 10
28.8641
 20
15.1764
 30
0.0
 10
28.8641
 20
15.1764
 30
0.0
 10
28.8641
 20
15.1764
 30
0.0
 10
28.8641
 20
15.1764
 30
0.0
 10
28.8641
 20
15.1764
 30
0.0
 10
28.8641
 20
15.1764
 30
0.0
 10
28.8641
 20
15.1764
 30
0.0
 10
28.8641
 20
15.1764
 30
0.0
 10
28.8641
 20
15.1764
 30
0.0
 10
28.8641
 20
15.1764
 30
0.0
 10
28.8641
 20
15.1764
 30
0.0
 10
28.8641
 20
14.2896
 30
0.0
 10
28.8641
 20
14.2896
 30
0.0
  0
SPLINE
  5
60
330
1F
100
AcDbEntity
  8
AXIS
 62
   250
370
     9
100
AcDbSpline
210
0.0
220
0.0
230
1.0
 70
    11
 71
     3
 72
    32
 73
    28
 74
     0
 42
0.0000000001
 43
0.0000000001
 40
0.0
 40
0.0
 40
0.0
 40
0.0
 40
0.125
 40
0.125
 40
0.125
 40
0.125
 40
0.25
 40
0.25
 40
0.25
 40
0.25
 40
0.375
 40
0.375
 40
0.375
 40
0.375
 40
0.5
 40
0.5
 40
0.5
 40
0.5
 40
0.625
 40
0.625
 40
0.625
 40
0.625
 40
0.75
 40
0.75
 40
0.75
 40
0.75
 40
1.0
 40
1.0
 40
1.0
 40
1.0
 10
28.7876
 20
-17.7441
 30
0.0
 10
28.7876
 20
-17.7441
 30
0.0
 10
28.7876
 20
-17.7441
 30
0.0
 10
28.7876
 20
-17.7441
 30
0.0
 10
28.7876
 20
-17.7441
 30
0.0
 10
28.7876
 20
-17.7441
 30
0.0
 10
28.7876
 20
-17.7441
 30
0.0
 10
28.7876
 20
-17.7441
 30
0.0
 10
28.7876
 20
-17.7441
 30
0.0
 10
28.7876
 20
-17.7441
 30
0.0
 10
27.5148
 20
-17.3007
 30
0.0
 10
27.5148
 20
-17.3007
 30
0.0
 10
27.5148
 20
-17.3007
 30
0.0
 10
27.5148
 20
-17.3007
 30
0.0
 10
28.7876
 20
-16.8573
 30
0.0
 10
28.7876
 20
-16.8573
 30
0.0
 10
28.7876
 20
-16.8573
 30
0.0
 10
28.7876
 20
-16.8573
 30
0.0
 10
28.7876
 20
-16.8573
 30
0.0
 10
28.7876
 20
-16.8573
 30
0.0
 10
28.7876
 20
-16.8573
 30
0.0
 10
28.7876
 20
-16.8573
 30
0.0
 10
28.7876
 20
-16.8573
 30
0.0
 10
28.7876
 20
-16.8573
 30
0.0
 10
28.7876
 20
-16.8573
 30
0.0
 10
28.7876
 20
-16.8573
 30
0.0
 10
28.7876
 20
-17.7441
 30
0.0
 10
28.7876
 20
-17.7441
 30
0.0
  0
SPLINE
  5
61
330
1F
100
AcDbEntity
  8
AXIS
 62
   250
370
     9
100
AcDbSpline
210
0.0
220
0.0
230
1.0
 70
    11
 71
     3
 72
    32
 73
    28
 74
     0
 42
0.0000000001
 43
0.0000000001
 40
0.0
 40
0.0
 40
0.0
 40
0.0
 40
0.125
 40
0.125
 40
0.125
 40
0.125
 40
0.25
 40
0.25
 40
0.25
 40
0.25
 40
0.375
 40
0.375
 40
0.375
 40
0.375
 40
0.5
 40
0.5
 40
0.5
 40
0.5
 40
0.625
 40
0.625
 40
0.625
 40
0.625
 40
0.75
 40
0.75
 40
0.75
 40
0.75
 40
1.0
 40
1.0
 40
1.0
 40
1.0
 10
-28.1516
 20
10.2992
 30
0.0
 10
-28.1516
 20
10.2992
 30
0.0
 10
-28.1516
 20
10.2992
 30
0.0
 10
-28.1516
 20
10.2992
 30
0.0
 10
-28.1516
 20
10.2992
 30
0.0
 10
-28.1516
 20
10.2992
 30
0.0
 10
-28.1516
 20
10.2992
 30
0.0
 10
-28.1516
 20
10.2992
 30
0.0
 10
-28.1516
 20
10.2992
 30
0.0
 10
-28.1516
 20
10.2992
 30
0.0
 10
-28.595
 20
11.572
 30
0.0
 10
-28.595
 20
11.572
 30
0.0
 10
-28.595
 20
11.572
 30
0.0
 10
-28.595
 20
11.572
 30
0.0
 10
-29.0384
 20
10.2992
 30
0.0
 10
-29.0384
 20
10.2992
 30
0.0
 10
-29.0384
 20
10.2992
 30
0.0
 10
-29.0384
 20
10.2992
 30
0.0
 10
-29.0384
 20
10.2992
 30
0.0
 10
-29.0384
 20
10.2992
 30
0.0
 10
-29.0384
 20
10.2992
 30
0.0
 10
-29.0384
 20
10.2992
 30
0.0
 10
-29.0384
 20
10.2992
 30
0.0
 10
-29.0384
 20
10.2992
 30
0.0
 10
-29.0384
 20
10.2992
 30
0.0
 10
-29.0384
 20
10.2992
 30
0.0
 10
-28.1516
 20
10.2992
 30
0.0
 10
-28.1516
 20
10.2992
 30
0.0
  0
SPLINE
  5
62
330
1F
100
AcDbEntity
  8
AXIS
 62
   250
370
     9
100
AcDbSpline
210
0.0
220
0.0
230
1.0
 70
    11
 71
     3
 72
    32
 73
    28
 74
     0
 42
0.0000000001
 43
0.0000000001
 40
0.0
 40
0.0
 40
0.0
 40
0.0
 40
0.125
 40
0.125
 40
0.125
 40
0.125
 40
0.25
 40
0.25
 40
0.25
 40
0.25
 40
0.375
 40
0.375
 40
0.375
 40
0.375
 40
0.5
 40
0.5
 40
0.5
 40
0.5
 40
0.625
 40
0.625
 40
0.625
 40
0.625
 40
0.75
 40
0.75
 40
0.75
 40
0.75
 40
1.0
 40
1.0
 40
1.0
 40
1.0
 10
-29.0324
 20
-14.4587
 30
0.0
 10
-29.0324
 20
-14.4587
 30
0.0
 10
-29.0324
 20
-14.4587
 30
0.0
 10
-29.0324
 20
-14.4587
 30
0.0
 10
-29.0324
 20
-14.4587
 30
0.0
 10
-29.0324
 20
-14.4587
 30
0.0
 10
-29.0324
 20
-14.4587
 30
0.0
 10
-29.0324
 20
-14.4587
 30
0.0
 10
-29.0324
 20
-14.4587
 30
0.0
 10
-29.0324
 20
-14.4587
 30
0.0
 10
-28.589
 20
-15.7315
 30
0.0
 10
-28.589
 20
-15.7315
 30
0.0
 10
-28.589
 20
-15.7315
 30
0.0
 10
-28.589
 20
-15.7315
 30
0.0
 10
-28.1456
 20
-14.4587
 30
0.0
 10
-28.1456
 20
-14.4587
 30
0.0
 10
-28.1456
 20
-14.4587
 30
0.0
 10
-28.1456
 20
-14.4587
 30
0.0
 10
-28.1456
 20
-14.4587
 30
0.0
 10
-28.1456
 20
-14.4587
 30
0.0
 10
-28.1456
 20
-14.4587
 30
0.0
 10
-28.1456
 20
-14.4587
 30
0.0
 10
-28.1456
 20
-14.4587
 30
0.0
 10
-28.1456
 20
-14.4587
 30
0.0
 10
-28.1456
 20
-14.4587
 30
0.0
 10
-28.1456
 20
-14.4587
 30
0.0
 10
-29.0324
 20
-14.4587
 30
0.0
 10
-29.0324
 20
-14.4587
 30
0.0
  0
SPLINE
  5
63
330
1F
100
AcDbEntity
  8
AXIS
 62
   250
370
     9
100
AcDbSpline
210
0.0
220
0.0
230
1.0
 70
    11
 71
     3
 72
    32
 73
    28
 74
     0
 42
0.0000000001
 43
0.0000000001
 40
0.0
 40
0.0
 40
0.0
 40
0.0
 40
0.125
 40
0.125
 40
0.125
 40
0.125
 40
0.25
 40
0.25
 40
0.25
 40
0.25
 40
0.375
 40
0.375
 40
0.375
 40
0.375
 40
0.5
 40
0.5
 40
0.5
 40
0.5
 40
0.625
 40
0.625
 40
0.625
 40
0.625
 40
0.75
 40
0.75
 40
0.75
 40
0.75
 40
1.0
 40
1.0
 40
1.0
 40
1.0
 10
-21.0361
 20
14.4811
 30
0.0
 10
-21.0361
 20
14.4811
 30
0.0
 10
-21.0361
 20
14.4811
 30
0.0
 10
-21.0361
 20
14.4811
 30
0.0
 10
-21.0361
 20
14.4811
 30
0.0
 10
-21.0361
 20
14.4811
 30
0.0
 10
-21.0361
 20
14.4811
 30
0.0
 10
-21.0361
 20
14.4811
 30
0.0
 10
-21.0361
 20
14.4811
 30
0.0
 10
-21.0361
 20
14.4811
 30
0.0
 10
-22.3089
 20
14.9245
 30
0.0
 10
-22.3089
 20
14.9245
 30
0.0
 10
-22.3089
 20
14.9245
 30
0.0
 10
-22.3089
 20
14.9245
 30
0.0
 10
-21.0361
 20
15.3679
 30
0.0
 10
-21.0361
 20
15.3679
 30
0.0
 10
-21.0361
 20
15.3679
 30
0.0
 10
-21.0361
 20
15.3679
 30
0.0
 10
-21.0361
 20
15.3679
 30
0.0
 10
-21.0361
 20
15.3679
 30
0.0
 10
-21.0361
 20
15.3679
 30
0.0
 10
-21.0361
 20
15.3679
 30
0.0
 10
-21.0361
 20
15.3679
 30
0.0
 10
-21.0361
 20
15.3679
 30
0.0
 10
-21.0361
 20
15.3679
 30
0.0
 10
-21.0361
 20
15.3679
 30
0.0
 10
-21.0361
 20
14.4811
 30
0.0
 10
-21.0361
 20
14.4811
 30
0.0
  0
SPLINE
  5
64
330
1F
100
AcDbEntity
  8
AXIS
 62
   250
370
    30
100
AcDbSpline
210
0.0
220
0.0
230
1.0
 70
    24
 71
     3
 72
     8
 73
     4
 74
     0
 42
0.0000000001
 43
0.0000000001
 40
0.0
 40
0.0
 40
0.0
 40
0.0
 40
1.0
 40
1.0
 40
1.0
 40
1.0
 10
27.5513
 20
-5.584
 30
0.0
 10
27.5513
 20
-5.584
 30
0.0
 10
27.5348
 20
-5.584
 30
0.0
 10
27.5348
 20
-5.584
 30
0.0
  0
SPLINE
  5
65
330
1F
100
AcDbEntity
  8
AXIS
 62
   250
370
    30
100
AcDbSpline
210
0.0
220
0.0
230
1.0
 70
    24
 71
     3
 72
     8
 73
     4
 74
     0
 42
0.0000000001
 43
0.0000000001
 40
0.0
 40
0.0
 40
0.0
 40
0.0
 40
1.0
 40
1.0
 40
1.0
 40
1.0
 10
27.5513
 20
0.8928
 30
0.0
 10
27.5513
 20
0.8928
 30
0.0
 10
27.5513
 20
-5.584
 30
0.0
 10
27.5513
 20
-5.584
 30
0.0
  0
SPLINE
  5
66
330
1F
100
AcDbEntity
  8
AXIS
 62
   250
370
    30
100
AcDbSpline
210
0.0
220
0.0
230
1.0
 70
    24
 71
     3
 72
     8
 73
     4
 74
     0
 42
0.0000000001
 43
0.0000000001
 40
0.0
 40
0.0
 40
0.0
 40
0.0
 40
1.0
 40
1.0
 40
1.0
 40
1.0
 10
27.5348
 20
0.8928
 30
0.0
 10
27.5348
 20
0.8928
 30
0.0
 10
27.5513
 20
0.8928
 30
0.0
 10
27.5513
 20
0.8928
 30
0.0
  0
SPLINE
  5
67
330
1F
100
AcDbEntity
  8
AXIS
 62
   250
370
    30
100
AcDbSpline
210
0.0
220
0.0
230
1.0
 70
    24
 71
     3
 72
     8
 73
     4
 74
     0
 42
0.0000000001
 43
0.0000000001
 40
0.0
 40
0.0
 40
0.0
 40
0.0
 40
1.0
 40
1.0
 40
1.0
 40
1.0
 10
26.8873
 20
10.851
 30
0.0
 10
26.8873
 20
10.851
 30
0.0
 10
26.8873
 20
-15.5427
 30
0.0
 10
26.8873
 20
-15.5427
 30
0.0
  0
SPLINE
  5
68
330
1F
100
AcDbEntity
  8
AXIS
 62
   250
370
    30
100
AcDbSpline
210
0.0
220
0.0
230
1.0
 70
    24
 71
     3
 72
     8
 73
     4
 74
     0
 42
0.0000000001
 43
0.0000000001
 40
0.0
 40
0.0
 40
0.0
 40
0.0
 40
1.0
 40
1.0
 40
1.0
 40
1.0
 10
27.3728
 20
-15.5427
 30
0.0
 10
27.3728
 20
-15.5427
 30
0.0
 10
26.8873
 20
-15.5427
 30
0.0
 10
26.8873
 20
-15.5427
 30
0.0
  0
SPLINE
  5
69
330
1F
100
AcDbEntity
  8
AXIS
 62
   250
370
    30
100
AcDbSpline
210
0.0
220
0.0
230
1.0
 70
    24
 71
     3
 72
     8
 73
     4
 74
     0
 42
0.0000000001
 43
0.0000000001
 40
0.0
 40
0.0
 40
0.0
 40
0.0
 40
1.0
 40
1.0
 40
1.0
 40
1.0
 10
26.8873
 20
-15.7044
 30
0.0
 10
26.8873
 20
-15.7044
 30
0.0
 10
27.13
 20
-15.7044
 30
0.0
 10
27.13
 20
-15.7044
 30
0.0
  0
SPLINE
  5
6A
330
1F
100
AcDbEntity
  8
AXIS
 62
   250
370
    30
100
AcDbSpline
210
0.0
220
0.0
230
1.0
 70
     8
 71
     3
 72
     8
 73
     4
 74
     0
 42
0.0000000001
 43
0.0000000001
 40
0.0
 40
0.0
 40
0.0
 40
0.0
 40
1.0
 40
1.0
 40
1.0
 40
1.0
 10
27.13
 20
-15.7044
 30
0.0
 10
27.2944
 20
-15.7044
 30
0.0
 10
27.4619
 20
-15.7614
 30
0.0
 10
27.5348
 20
-15.5427
 30
0.0
  0
SPLINE
  5
6B
330
1F
100
AcDbEntity
  8
AXIS
 62
   250
370
    30
100
AcDbSpline
210
0.0
220
0.0
230
1.0
 70
    24
 71
     3
 72
    16
 73
    12
 74
     0
 42
0.0000000001
 43
0.0000000001
 40
0.0
 40
0.0
 40
0.0
 40
0.0
 40
0.25
 40
0.25
 40
0.25
 40
0.25
 40
0.5
 40
0.5
 40
0.5
 40
0.5
 40
1.0
 40
1.0
 40
1.0
 40
1.0
 10
27.5348
 20
-15.5427
 30
0.0
 10
27.5348
 20
-15.5427
 30
0.0
 10
27.5348
 20
-15.2188
 30
0.0
 10
27.5348
 20
-15.2188
 30
0.0
 10
27.5348
 20
-15.2188
 30
0.0
 10
27.5348
 20
-15.2188
 30
0.0
 10
27.5348
 20
10.527
 30
0.0
 10
27.5348
 20
10.527
 30
0.0
 10
27.5348
 20
10.527
 30
0.0
 10
27.5348
 20
10.527
 30
0.0
 10
27.5348
 20
10.851
 30
0.0
 10
27.5348
 20
10.851
 30
0.0
  0
SPLINE
  5
6C
330
1F
100
AcDbEntity
  8
AXIS
 62
   250
370
    30
100
AcDbSpline
210
0.0
220
0.0
230
1.0
 70
     8
 71
     3
 72
     8
 73
     4
 74
     0
 42
0.0000000001
 43
0.0000000001
 40
0.0
 40
0.0
 40
0.0
 40
0.0
 40
1.0
 40
1.0
 40
1.0
 40
1.0
 10
27.5348
 20
10.851
 30
0.0
 10
27.4619
 20
11.0702
 30
0.0
 10
27.2944
 20
11.0132
 30
0.0
 10
27.13
 20
11.0132
 30
0.0
  0
SPLINE
  5
6D
330
1F
100
AcDbEntity
  8
AXIS
 62
   250
370
    30
100
AcDbSpline
210
0.0
220
0.0
230
1.0
 70
    24
 71
     3
 72
     8
 73
     4
 74
     0
 42
0.0000000001
 43
0.0000000001
 40
0.0
 40
0.0
 40
0.0
 40
0.0
 40
1.0
 40
1.0
 40
1.0
 40
1.0
 10
27.13
 20
11.0132
 30
0.0
 10
27.13
 20
11.0132
 30
0.0
 10
26.8873
 20
11.0132
 30
0.0
 10
26.8873
 20
11.0132
 30
0.0
  0
SPLINE
  5
6E
330
1F
100
AcDbEntity
  8
AXIS
 62
   250
370
    30
100
AcDbSpline
210
0.0
220
0.0
230
1.0
 70
     8
 71
     3
 72
    12
 73
     8
 74
     0
 42
0.0000000001
 43
0.0000000001
 40
0.0
 40
0.0
 40
0.0
 40
0.0
 40
0.3333333333333333
 40
0.3333333333333333
 40
0.3333333333333333
 40
0.3333333333333333
 40
1.0
 40
1.0
 40
1.0
 40
1.0
 10
27.4537
 20
10.9318
 30
0.0
 10
27.4537
 20
10.9318
 30
0.0
 10
27.3728
 20
10.851
 30
0.0
 10
27.3728
 20
10.851
 30
0.0
 10
27.3728
 20
10.851
 30
0.0
 10
27.3728
 20
10.851
 30
0.0
 10
26.8873
 20
10.851
 30
0.0
 10
26.8873
 20
10.851
 30
0.0
  0
SPLINE
  5
6F
330
1F
100
AcDbEntity
  8
AXIS
 62
   250
370
    30
100
AcDbSpline
210
0.0
220
0.0
230
1.0
 70
     8
 71
     3
 72
    20
 73
    16
 74
     0
 42
0.0000000001
 43
0.0000000001
 40
0.0
 40
0.0
 40
0.0
 40
0.0
 40
0.2
 40
0.2
 40
0.2
 40
0.2
 40
0.4
 40
0.4
 40
0.4
 40
0.4
 40
0.6
 40
0.6
 40
0.6
 40
0.6
 40
1.0
 40
1.0
 40
1.0
 40
1.0
 10
27.3728
 20
10.851
 30
0.0
 10
27.3728
 20
10.851
 30
0.0
 10
27.3728
 20
10.527
 30
0.0
 10
27.3728
 20
10.527
 30
0.0
 10
27.3728
 20
10.527
 30
0.0
 10
27.3728
 20
10.527
 30
0.0
 10
27.3728
 20
-15.2188
 30
0.0
 10
27.3728
 20
-15.2188
 30
0.0
 10
27.3728
 20
-15.2188
 30
0.0
 10
27.3728
 20
-15.2188
 30
0.0
 10
27.3728
 20
-15.5427
 30
0.0
 10
27.3728
 20
-15.5427
 30
0.0
 10
27.3728
 20
-15.5427
 30
0.0
 10
27.3728
 20
-15.5427
 30
0.0
 10
27.4537
 20
-15.6236
 30
0.0
 10
27.4537
 20
-15.6236
 30
0.0
  0
SPLINE
  5
70
330
1F
100
AcDbEntity
  8
AXIS
 62
   250
370
    30
100
AcDbSpline
210
0.0
220
0.0
230
1.0
 70
    24
 71
     3
 72
     8
 73
     4
 74
     0
 42
0.0000000001
 43
0.0000000001
 40
0.0
 40
0.0
 40
0.0
 40
0.0
 40
1.0
 40
1.0
 40
1.0
 40
1.0
 10
26.3202
 20
10.2034
 30
0.0
 10
26.3202
 20
10.2034
 30
0.0
 10
26.3202
 20
-14.8945
 30
0.0
 10
26.3202
 20
-14.8945
 30
0.0
  0
SPLINE
  5
71
330
1F
100
AcDbEntity
  8
AXIS
 62
   250
370
    30
100
AcDbSpline
210
0.0
220
0.0
230
1.0
 70
    24
 71
     3
 72
     8
 73
     4
 74
     0
 42
0.0000000001
 43
0.0000000001
 40
0.0
 40
0.0
 40
0.0
 40
0.0
 40
1.0
 40
1.0
 40
1.0
 40
1.0
 10
26.8873
 20
-14.8945
 30
0.0
 10
26.8873
 20
-14.8945
 30
0.0
 10
26.3202
 20
-14.8945
 30
0.0
 10
26.3202
 20
-14.8945
 30
0.0
  0
SPLINE
  5
72
330
1F
100
AcDbEntity
  8
AXIS
 62
   250
370
    30
100
AcDbSpline
210
0.0
220
0.0
230
1.0
 70
    24
 71
     3
 72
     8
 73
     4
 74
     0
 42
0.0000000001
 43
0.0000000001
 40
0.0
 40
0.0
 40
0.0
 40
0.0
 40
1.0
 40
1.0
 40
1.0
 40
1.0
 10
26.8873
 20
10.2034
 30
0.0
 10
26.8873
 20
10.2034
 30
0.0
 10
26.8873
 20
-14.8945
 30
0.0
 10
26.8873
 20
-14.8945
 30
0.0
  0
SPLINE
  5
73
330
1F
100
AcDbEntity
  8
AXIS
 62
   250
370
    30
100
AcDbSpline
210
0.0
220
0.0
230
1.0
 70
    24
 71
     3
 72
     8
 73
     4
 74
     0
 42
0.0000000001
 43
0.0000000001
 40
0.0
 40
0.0
 40
0.0
 40
0.0
 40
1.0
 40
1.0
 40
1.0
 40
1.0
 10
26.3202
 20
10.2034
 30
0.0
 10
26.3202
 20
10.2034
 30
0.0
 10
26.8873
 20
10.2034
 30
0.0
 10
26.8873
 20
10.2034
 30
0.0
  0
SPLINE
  5
74
330
1F
100
AcDbEntity
  8
AXIS
 62
   250
370
    30
100
AcDbSpline
210
0.0
220
0.0
230
1.0
 70
    24
 71
     3
 72
     8
 73
     4
 74
     0
 42
0.0000000001
 43
0.0000000001
 40
0.0
 40
0.0
 40
0.0
 40
0.0
 40
1.0
 40
1.0
 40
1.0
 40
1.0
 10
26.3202
 20
11.0132
 30
0.0
 10
26.3202
 20
11.0132
 30
0.0
 10
26.3202
 20
10.2034
 30
0.0
 10
26.3202
 20
10.2034
 30
0.0
  0
SPLINE
  5
75
330
1F
100
AcDbEntity
  8
AXIS
 62
   250
370
    30
100
AcDbSpline
210
0.0
220
0.0
230
1.0
 70
    24
 71
     3
 72
     8
 73
     4
 74
     0
 42
0.0000000001
 43
0.0000000001
 40
0.0
 40
0.0
 40
0.0
 40
0.0
 40
1.0
 40
1.0
 40
1.0
 40
1.0
 10
26.8873
 20
10.2034
 30
0.0
 10
26.8873
 20
10.2034
 30
0.0
 10
26.3202
 20
10.2034
 30
0.0
 10
26.3202
 20
10.2034
 30
0.0
  0
SPLINE
  5
76
330
1F
100
AcDbEntity
  8
AXIS
 62
   250
370
    30
100
AcDbSpline
210
0.0
220
0.0
230
1.0
 70
    24
 71
     3
 72
     8
 73
     4
 74
     0
 42
0.0000000001
 43
0.0000000001
 40
0.0
 40
0.0
 40
0.0
 40
0.0
 40
1.0
 40
1.0
 40
1.0
 40
1.0
 10
26.8873
 20
11.0132
 30
0.0
 10
26.8873
 20
11.0132
 30
0.0
 10
26.8873
 20
10.2034
 30
0.0
 10
26.8873
 20
10.2034
 30
0.0
  0
SPLINE
  5
77
330
1F
100
AcDbEntity
  8
AXIS
 62
   250
370
    30
100
AcDbSpline
210
0.0
220
0.0
230
1.0
 70
    24
 71
     3
 72
     8
 73
     4
 74
     0
 42
0.0000000001
 43
0.0000000001
 40
0.0
 40
0.0
 40
0.0
 40
0.0
 40
1.0
 40
1.0
 40
1.0
 40
1.0
 10
26.3202
 20
11.0132
 30
0.0
 10
26.3202
 20
11.0132
 30
0.0
 10
26.8873
 20
11.0132
 30
0.0
 10
26.8873
 20
11.0132
 30
0.0
  0
SPLINE
  5
78
330
1F
100
AcDbEntity
  8
AXIS
 62
   250
370
    30
100
AcDbSpline
210
0.0
220
0.0
230
1.0
 70
    24
 71
     3
 72
     8
 73
     4
 74
     0
 42
0.0000000001
 43
0.0000000001
 40
0.0
 40
0.0
 40
0.0
 40
0.0
 40
1.0
 40
1.0
 40
1.0
 40
1.0
 10
26.3202
 20
-14.8945
 30
0.0
 10
26.3202
 20
-14.8945
 30
0.0
 10
26.3202
 20
-15.7044
 30
0.0
 10
26.3202
 20
-15.7044
 30
0.0
  0
SPLINE
  5
79
330
1F
100
AcDbEntity
  8
AXIS
 62
   250
370
    30
100
AcDbSpline
210
0.0
220
0.0
230
1.0
 70
    24
 71
     3
 72
     8
 73
     4
 74
     0
 42
0.0000000001
 43
0.0000000001
 40
0.0
 40
0.0
 40
0.0
 40
0.0
 40
1.0
 40
1.0
 40
1.0
 40
1.0
 10
26.8873
 20
-15.7044
 30
0.0
 10
26.8873
 20
-15.7044
 30
0.0
 10
26.3202
 20
-15.7044
 30
0.0
 10
26.3202
 20
-15.7044
 30
0.0
  0
SPLINE
  5
7A
330
1F
100
AcDbEntity
  8
AXIS
 62
   250
370
    30
100
AcDbSpline
210
0.0
220
0.0
230
1.0
 70
    24
 71
     3
 72
     8
 73
     4
 74
     0
 42
0.0000000001
 43
0.0000000001
 40
0.0
 40
0.0
 40
0.0
 40
0.0
 40
1.0
 40
1.0
 40
1.0
 40
1.0
 10
26.8873
 20
-14.8945
 30
0.0
 10
26.8873
 20
-14.8945
 30
0.0
 10
26.8873
 20
-15.7044
 30
0.0
 10
26.8873
 20
-15.7044
 30
0.0
  0
SPLINE
  5
7B
330
1F
100
AcDbEntity
  8
AXIS
 62
   250
370
    30
100
AcDbSpline
210
0.0
220
0.0
230
1.0
 70
    24
 71
     3
 72
     8
 73
     4
 74
     0
 42
0.0000000001
 43
0.0000000001
 40
0.0
 40
0.0
 40
0.0
 40
0.0
 40
1.0
 40
1.0
 40
1.0
 40
1.0
 10
26.3202
 20
-14.8945
 30
0.0
 10
26.3202
 20
-14.8945
 30
0.0
 10
26.8873
 20
-14.8945
 30
0.0
 10
26.8873
 20
-14.8945
 30
0.0
  0
SPLINE
  5
7C
330
1F
100
AcDbEntity
  8
AXIS
 62
   250
370
    30
100
AcDbSpline
210
0.0
220
0.0
230
1.0
 70
    24
 71
     3
 72
     8
 73
     4
 74
     0
 42
0.0000000001
 43
0.0000000001
 40
0.0
 40
0.0
 40
0.0
 40
0.0
 40
1.0
 40
1.0
 40
1.0
 40
1.0
 10
26.3202
 20
-12.709
 30
0.0
 10
26.3202
 20
-12.709
 30
0.0
 10
24.7011
 20
-12.709
 30
0.0
 10
24.7011
 20
-12.709
 30
0.0
  0
SPLINE
  5
7D
330
1F
100
AcDbEntity
  8
AXIS
 62
   250
370
    30
100
AcDbSpline
210
0.0
220
0.0
230
1.0
 70
    24
 71
     3
 72
     8
 73
     4
 74
     0
 42
0.0000000001
 43
0.0000000001
 40
0.0
 40
0.0
 40
0.0
 40
0.0
 40
1.0
 40
1.0
 40
1.0
 40
1.0
 10
24.7011
 20
-12.709
 30
0.0
 10
24.7011
 20
-12.709
 30
0.0
 10
24.7011
 20
8.0172
 30
0.0
 10
24.7011
 20
8.0172
 30
0.0
  0
SPLINE
  5
7E
330
1F
100
AcDbEntity
  8
AXIS
 62
   250
370
    30
100
AcDbSpline
210
0.0
220
0.0
230
1.0
 70
     8
 71
     3
 72
    12
 73
     8
 74
     0
 42
0.0000000001
 43
0.0000000001
 40
0.0
 40
0.0
 40
0.0
 40
0.0
 40
0.3333333333333333
 40
0.3333333333333333
 40
0.3333333333333333
 40
0.3333333333333333
 40
1.0
 40
1.0
 40
1.0
 40
1.0
 10
24.3774
 20
-12.0608
 30
0.0
 10
24.3774
 20
-12.2819
 30
0.0
 10
24.3235
 20
-12.5815
 30
0.0
 10
24.5794
 20
-12.6854
 30
0.0
 10
24.5794
 20
-12.6854
 30
0.0
 10
24.6189
 20
-12.7008
 30
0.0
 10
24.6594
 20
-12.7076
 30
0.0
 10
24.7011
 20
-12.709
 30
0.0
  0
SPLINE
  5
7F
330
1F
100
AcDbEntity
  8
AXIS
 62
   250
370
    30
100
AcDbSpline
210
0.0
220
0.0
230
1.0
 70
    24
 71
     3
 72
    12
 73
     8
 74
     0
 42
0.0000000001
 43
0.0000000001
 40
0.0
 40
0.0
 40
0.0
 40
0.0
 40
0.3333333333333333
 40
0.3333333333333333
 40
0.3333333333333333
 40
0.3333333333333333
 40
1.0
 40
1.0
 40
1.0
 40
1.0
 10
24.3774
 20
-12.1024
 30
0.0
 10
24.3774
 20
-12.1024
 30
0.0
 10
24.3774
 20
-11.5615
 30
0.0
 10
24.3774
 20
-11.5615
 30
0.0
 10
24.3774
 20
-11.5615
 30
0.0
 10
24.3774
 20
-11.5615
 30
0.0
 10
24.3774
 20
7.3697
 30
0.0
 10
24.3774
 20
7.3697
 30
0.0
  0
SPLINE
  5
80
330
1F
100
AcDbEntity
  8
AXIS
 62
   250
370
    30
100
AcDbSpline
210
0.0
220
0.0
230
1.0
 70
     8
 71
     3
 72
    12
 73
     8
 74
     0
 42
0.0000000001
 43
0.0000000001
 40
0.0
 40
0.0
 40
0.0
 40
0.0
 40
0.3333333333333333
 40
0.3333333333333333
 40
0.3333333333333333
 40
0.3333333333333333
 40
1.0
 40
1.0
 40
1.0
 40
1.0
 10
24.3774
 20
7.3697
 30
0.0
 10
24.3774
 20
7.5907
 30
0.0
 10
24.3235
 20
7.8897
 30
0.0
 10
24.5794
 20
7.9937
 30
0.0
 10
24.5794
 20
7.9937
 30
0.0
 10
24.6181
 20
8.0096
 30
0.0
 10
24.6594
 20
8.0172
 30
0.0
 10
24.7011
 20
8.0172
 30
0.0
  0
SPLINE
  5
81
330
1F
100
AcDbEntity
  8
AXIS
 62
   250
370
    30
100
AcDbSpline
210
0.0
220
0.0
230
1.0
 70
    24
 71
     3
 72
    16
 73
    12
 74
     0
 42
0.0000000001
 43
0.0000000001
 40
0.0
 40
0.0
 40
0.0
 40
0.0
 40
0.25
 40
0.25
 40
0.25
 40
0.25
 40
0.5
 40
0.5
 40
0.5
 40
0.5
 40
1.0
 40
1.0
 40
1.0
 40
1.0
 10
24.7011
 20
8.0172
 30
0.0
 10
24.7011
 20
8.0172
 30
0.0
 10
25.0253
 20
8.0172
 30
0.0
 10
25.0253
 20
8.0172
 30
0.0
 10
25.0253
 20
8.0172
 30
0.0
 10
25.0253
 20
8.0172
 30
0.0
 10
25.9965
 20
8.0172
 30
0.0
 10
25.9965
 20
8.0172
 30
0.0
 10
25.9965
 20
8.0172
 30
0.0
 10
25.9965
 20
8.0172
 30
0.0
 10
26.3202
 20
8.0172
 30
0.0
 10
26.3202
 20
8.0172
 30
0.0
  0
SPLINE
  5
82
330
1F
100
AcDbEntity
  8
AXIS
 62
   250
370
    30
100
AcDbSpline
210
0.0
220
0.0
230
1.0
 70
     8
 71
     3
 72
    24
 73
    20
 74
     0
 42
0.0000000001
 43
0.0000000001
 40
0.0
 40
0.0
 40
0.0
 40
0.0
 40
0.1666666666666667
 40
0.1666666666666667
 40
0.1666666666666667
 40
0.1666666666666667
 40
0.3333333333333333
 40
0.3333333333333333
 40
0.3333333333333333
 40
0.3333333333333333
 40
0.5
 40
0.5
 40
0.5
 40
0.5
 40
0.6666666666666666
 40
0.6666666666666666
 40
0.6666666666666666
 40
0.6666666666666666
 40
1.0
 40
1.0
 40
1.0
 40
1.0
 10
24.3761
 20
-10.571
 30
0.0
 10
24.3761
 20
-10.571
 30
0.0
 10
23.8139
 20
-10.5743
 30
0.0
 10
23.8139
 20
-10.5743
 30
0.0
 10
23.8139
 20
-10.5743
 30
0.0
 10
23.8139
 20
-10.5743
 30
0.0
 10
23.6322
 20
-10.6787
 30
0.0
 10
23.6322
 20
-10.6787
 30
0.0
 10
23.6322
 20
-10.6787
 30
0.0
 10
23.6322
 20
-10.6787
 30
0.0
 10
23.6322
 20
-11.7594
 30
0.0
 10
23.6322
 20
-11.7594
 30
0.0
 10
23.6322
 20
-11.7594
 30
0.0
 10
23.6322
 20
-11.7594
 30
0.0
 10
23.8139
 20
-11.8639
 30
0.0
 10
23.8139
 20
-11.8639
 30
0.0
 10
23.8139
 20
-11.8639
 30
0.0
 10
23.8139
 20
-11.8639
 30
0.0
 10
24.3787
 20
-11.8678
 30
0.0
 10
24.3787
 20
-11.8678
 30
0.0
  0
SPLINE
  5
83
330
1F
100
AcDbEntity
  8
AXIS
 62
   250
370
    30
100
AcDbSpline
210
0.0
220
0.0
230
1.0
 70
    24
 71
     3
 72
     8
 73
     4
 74
     0
 42
0.0000000001
 43
0.0000000001
 40
0.0
 40
0.0
 40
0.0
 40
0.0
 40
1.0
 40
1.0
 40
1.0
 40
1.0
 10
23.7778
 20
-11.6926
 30
0.0
 10
23.7778
 20
-11.6926
 30
0.0
 10
23.8655
 20
-10.7373
 30
0.0
 10
23.8655
 20
-10.7373
 30
0.0
  0
SPLINE
  5
84
330
1F
100
AcDbEntity
  8
AXIS
 62
   250
370
    30
100
AcDbSpline
210
0.0
220
0.0
230
1.0
 70
    24
 71
     3
 72
     8
 73
     4
 74
     0
 42
0.0000000001
 43
0.0000000001
 40
0.0
 40
0.0
 40
0.0
 40
0.0
 40
1.0
 40
1.0
 40
1.0
 40
1.0
 10
23.935
 20
-11.6926
 30
0.0
 10
23.935
 20
-11.6926
 30
0.0
 10
24.0225
 20
-10.7373
 30
0.0
 10
24.0225
 20
-10.7373
 30
0.0
  0
SPLINE
  5
85
330
1F
100
AcDbEntity
  8
AXIS
 62
   250
370
    30
100
AcDbSpline
210
0.0
220
0.0
230
1.0
 70
    24
 71
     3
 72
     8
 73
     4
 74
     0
 42
0.0000000001
 43
0.0000000001
 40
0.0
 40
0.0
 40
0.0
 40
0.0
 40
1.0
 40
1.0
 40
1.0
 40
1.0
 10
24.0983
 20
-11.6926
 30
0.0
 10
24.0983
 20
-11.6926
 30
0.0
 10
24.1854
 20
-10.7373
 30
0.0
 10
24.1854
 20
-10.7373
 30
0.0
  0
SPLINE
  5
86
330
1F
100
AcDbEntity
  8
AXIS
 62
   250
370
    30
100
AcDbSpline
210
0.0
220
0.0
230
1.0
 70
    24
 71
     3
 72
     8
 73
     4
 74
     0
 42
0.0000000001
 43
0.0000000001
 40
0.0
 40
0.0
 40
0.0
 40
0.0
 40
1.0
 40
1.0
 40
1.0
 40
1.0
 10
24.2549
 20
-11.6926
 30
0.0
 10
24.2549
 20
-11.6926
 30
0.0
 10
24.3424
 20
-10.7373
 30
0.0
 10
24.3424
 20
-10.7373
 30
0.0
  0
SPLINE
  5
87
330
1F
100
AcDbEntity
  8
AXIS
 62
   250
370
    30
100
AcDbSpline
210
0.0
220
0.0
230
1.0
 70
     8
 71
     3
 72
    24
 73
    20
 74
     0
 42
0.0000000001
 43
0.0000000001
 40
0.0
 40
0.0
 40
0.0
 40
0.0
 40
0.1666666666666667
 40
0.1666666666666667
 40
0.1666666666666667
 40
0.1666666666666667
 40
0.3333333333333333
 40
0.3333333333333333
 40
0.3333333333333333
 40
0.3333333333333333
 40
0.5
 40
0.5
 40
0.5
 40
0.5
 40
0.6666666666666666
 40
0.6666666666666666
 40
0.6666666666666666
 40
0.6666666666666666
 40
1.0
 40
1.0
 40
1.0
 40
1.0
 10
24.3761
 20
7.183
 30
0.0
 10
24.3761
 20
7.183
 30
0.0
 10
23.8139
 20
7.1799
 30
0.0
 10
23.8139
 20
7.1799
 30
0.0
 10
23.8139
 20
7.1799
 30
0.0
 10
23.8139
 20
7.1799
 30
0.0
 10
23.6322
 20
7.0749
 30
0.0
 10
23.6322
 20
7.0749
 30
0.0
 10
23.6322
 20
7.0749
 30
0.0
 10
23.6322
 20
7.0749
 30
0.0
 10
23.6322
 20
5.9947
 30
0.0
 10
23.6322
 20
5.9947
 30
0.0
 10
23.6322
 20
5.9947
 30
0.0
 10
23.6322
 20
5.9947
 30
0.0
 10
23.8139
 20
5.8902
 30
0.0
 10
23.8139
 20
5.8902
 30
0.0
 10
23.8139
 20
5.8902
 30
0.0
 10
23.8139
 20
5.8902
 30
0.0
 10
24.3787
 20
5.8862
 30
0.0
 10
24.3787
 20
5.8862
 30
0.0
  0
SPLINE
  5
88
330
1F
100
AcDbEntity
  8
AXIS
 62
   250
370
    30
100
AcDbSpline
210
0.0
220
0.0
230
1.0
 70
    24
 71
     3
 72
     8
 73
     4
 74
     0
 42
0.0000000001
 43
0.0000000001
 40
0.0
 40
0.0
 40
0.0
 40
0.0
 40
1.0
 40
1.0
 40
1.0
 40
1.0
 10
23.7778
 20
6.0615
 30
0.0
 10
23.7778
 20
6.0615
 30
0.0
 10
23.8655
 20
7.0168
 30
0.0
 10
23.8655
 20
7.0168
 30
0.0
  0
SPLINE
  5
89
330
1F
100
AcDbEntity
  8
AXIS
 62
   250
370
    30
100
AcDbSpline
210
0.0
220
0.0
230
1.0
 70
    24
 71
     3
 72
     8
 73
     4
 74
     0
 42
0.0000000001
 43
0.0000000001
 40
0.0
 40
0.0
 40
0.0
 40
0.0
 40
1.0
 40
1.0
 40
1.0
 40
1.0
 10
23.935
 20
6.0615
 30
0.0
 10
23.935
 20
6.0615
 30
0.0
 10
24.0225
 20
7.0168
 30
0.0
 10
24.0225
 20
7.0168
 30
0.0
  0
SPLINE
  5
8A
330
1F
100
AcDbEntity
  8
AXIS
 62
   250
370
    30
100
AcDbSpline
210
0.0
220
0.0
230
1.0
 70
    24
 71
     3
 72
     8
 73
     4
 74
     0
 42
0.0000000001
 43
0.0000000001
 40
0.0
 40
0.0
 40
0.0
 40
0.0
 40
1.0
 40
1.0
 40
1.0
 40
1.0
 10
24.0983
 20
6.0615
 30
0.0
 10
24.0983
 20
6.0615
 30
0.0
 10
24.1854
 20
7.0168
 30
0.0
 10
24.1854
 20
7.0168
 30
0.0
  0
SPLINE
  5
8B
330
1F
100
AcDbEntity
  8
AXIS
 62
   250
370
    30
100
AcDbSpline
210
0.0
220
0.0
230
1.0
 70
    24
 71
     3
 72
     8
 73
     4
 74
     0
 42
0.0000000001
 43
0.0000000001
 40
0.0
 40
0.0
 40
0.0
 40
0.0
 40
1.0
 40
1.0
 40
1.0
 40
1.0
 10
24.2549
 20
6.0615
 30
0.0
 10
24.2549
 20
6.0615
 30
0.0
 10
24.3424
 20
7.0168
 30
0.0
 10
24.3424
 20
7.0168
 30
0.0
  0
SPLINE
  5
8C
330
1F
100
AcDbEntity
  8
AXIS
 62
     8
100
AcDbSpline
210
0.0
220
0.0
230
1.0
 70
    11
 71
     3
 72
    20
 73
    16
 74
     0
 42
0.0000000001
 43
0.0000000001
 40
0.0
 40
0.0
 40
0.0
 40
0.0
 40
0.2
 40
0.2
 40
0.2
 40
0.2
 40
0.4
 40
0.4
 40
0.4
 40
0.4
 40
0.6
 40
0.6
 40
0.6
 40
0.6
 40
1.0
 40
1.0
 40
1.0
 40
1.0
 10
-22.2876
 20
11.6258
 30
0.0
 10
-22.2876
 20
11.6258
 30
0.0
 10
18.5906
 20
11.6258
 30
0.0
 10
18.5906
 20
11.6258
 30
0.0
 10
18.5906
 20
11.6258
 30
0.0
 10
18.5906
 20
11.6258
 30
0.0
 10
18.5906
 20
-15.6705
 30
0.0
 10
18.5906
 20
-15.6705
 30
0.0
 10
18.5906
 20
-15.6705
 30
0.0
 10
18.5906
 20
-15.6705
 30
0.0
 10
-22.2876
 20
-15.6705
 30
0.0
 10
-22.2876
 20
-15.6705
 30
0.0
 10
-22.2876
 20
-15.6705
 30
0.0
 10
-22.2876
 20
-15.6705
 30
0.0
 10
-22.2876
 20
11.6258
 30
0.0
 10
-22.2876
 20
11.6258
 30
0.0
  0
SPLINE
  5
8E
330
1F
100
AcDbEntity
  8
Standard layer
370
    25
100
AcDbSpline
210
0.0
220
0.0
230
1.0
 70
    24
 71
     3
 72
     8
 73
     4
 74
     0
 42
0.0000000001
 43
0.0000000001
 40
0.0
 40
0.0
 40
0.0
 40
0.0
 40
1.0
 40
1.0
 40
1.0
 40
1.0
 10
18.3998
 20
11.5578
 30
0.0
 10
18.3998
 20
11.5578
 30
0.0
 10
18.3998
 20
-15.5589
 30
0.0
 10
18.3998
 20
-15.5589
 30
0.0
  0
SPLINE
  5
8F
330
1F
100
AcDbEntity
  8
Standard layer
370
    25
100
AcDbSpline
210
0.0
220
0.0
230
1.0
 70
     8
 71
     3
 72
    20
 73
    16
 74
     0
 42
0.0000000001
 43
0.0000000001
 40
0.0
 40
0.0
 40
0.0
 40
0.0
 40
0.2
 40
0.2
 40
0.2
 40
0.2
 40
0.4
 40
0.4
 40
0.4
 40
0.4
 40
0.6
 40
0.6
 40
0.6
 40
0.6
 40
1.0
 40
1.0
 40
1.0
 40
1.0
 10
-22.4425
 20
-15.6422
 30
0.0
 10
-22.4425
 20
-15.6422
 30
0.0
 10
-22.5253
 20
-15.5589
 30
0.0
 10
-22.5253
 20
-15.5589
 30
0.0
 10
-22.5253
 20
-15.5589
 30
0.0
 10
-22.5253
 20
-15.5589
 30
0.0
 10
-22.5253
 20
-15.226
 30
0.0
 10
-22.5253
 20
-15.226
 30
0.0
 10
-22.5253
 20
-15.226
 30
0.0
 10
-22.5253
 20
-15.226
 30
0.0
 10
-22.5253
 20
11.2252
 30
0.0
 10
-22.5253
 20
11.2252
 30
0.0
 10
-22.5253
 20
11.2252
 30
0.0
 10
-22.5253
 20
11.2252
 30
0.0
 10
-22.5253
 20
11.5578
 30
0.0
 10
-22.5253
 20
11.5578
 30
0.0
  0
SPLINE
  5
90
330
1F
100
AcDbEntity
  8
Standard layer
370
    25
100
AcDbSpline
210
0.0
220
0.0
230
1.0
 70
     8
 71
     3
 72
     8
 73
     4
 74
     0
 42
0.0000000001
 43
0.0000000001
 40
0.0
 40
0.0
 40
0.0
 40
0.0
 40
1.0
 40
1.0
 40
1.0
 40
1.0
 10
-22.5253
 20
11.5578
 30
0.0
 10
-22.2805
 20
11.8027
 30
0.0
 10
-22.4376
 20
11.7243
 30
0.0
 10
-22.0258
 20
11.7243
 30
0.0
  0
SPLINE
  5
91
330
1F
100
AcDbEntity
  8
Standard layer
370
    25
100
AcDbSpline
210
0.0
220
0.0
230
1.0
 70
    24
 71
     3
 72
     8
 73
     4
 74
     0
 42
0.0000000001
 43
0.0000000001
 40
0.0
 40
0.0
 40
0.0
 40
0.0
 40
1.0
 40
1.0
 40
1.0
 40
1.0
 10
-22.0258
 20
11.7243
 30
0.0
 10
-22.0258
 20
11.7243
 30
0.0
 10
18.0668
 20
11.7243
 30
0.0
 10
18.0668
 20
11.7243
 30
0.0
  0
SPLINE
  5
92
330
1F
100
AcDbEntity
  8
Standard layer
370
    25
100
AcDbSpline
210
0.0
220
0.0
230
1.0
 70
     8
 71
     3
 72
     8
 73
     4
 74
     0
 42
0.0000000001
 43
0.0000000001
 40
0.0
 40
0.0
 40
0.0
 40
0.0
 40
1.0
 40
1.0
 40
1.0
 40
1.0
 10
18.0668
 20
11.7243
 30
0.0
 10
18.2477
 20
11.7243
 30
0.0
 10
18.4851
 20
11.8027
 30
0.0
 10
18.5667
 20
11.5578
 30
0.0
  0
SPLINE
  5
93
330
1F
100
AcDbEntity
  8
Standard layer
370
    25
100
AcDbSpline
210
0.0
220
0.0
230
1.0
 70
    24
 71
     3
 72
    12
 73
     8
 74
     0
 42
0.0000000001
 43
0.0000000001
 40
0.0
 40
0.0
 40
0.0
 40
0.0
 40
0.3333333333333333
 40
0.3333333333333333
 40
0.3333333333333333
 40
0.3333333333333333
 40
1.0
 40
1.0
 40
1.0
 40
1.0
 10
18.5667
 20
11.5578
 30
0.0
 10
18.5667
 20
11.5578
 30
0.0
 10
18.5667
 20
11.2252
 30
0.0
 10
18.5667
 20
11.2252
 30
0.0
 10
18.5667
 20
11.2252
 30
0.0
 10
18.5667
 20
11.2252
 30
0.0
 10
18.5667
 20
-15.226
 30
0.0
 10
18.5667
 20
-15.226
 30
0.0
  0
SPLINE
  5
94
330
1F
100
AcDbEntity
  8
Standard layer
370
    25
100
AcDbSpline
210
0.0
220
0.0
230
1.0
 70
     8
 71
     3
 72
     8
 73
     4
 74
     0
 42
0.0000000001
 43
0.0000000001
 40
0.0
 40
0.0
 40
0.0
 40
0.0
 40
1.0
 40
1.0
 40
1.0
 40
1.0
 10
18.5667
 20
-15.226
 30
0.0
 10
18.5667
 20
-15.6372
 30
0.0
 10
18.645
 20
-15.4806
 30
0.0
 10
18.3998
 20
-15.725
 30
0.0
  0
SPLINE
  5
95
330
1F
100
AcDbEntity
  8
Standard layer
370
    25
100
AcDbSpline
210
0.0
220
0.0
230
1.0
 70
     8
 71
     3
 72
    20
 73
    16
 74
     0
 42
0.0000000001
 43
0.0000000001
 40
0.0
 40
0.0
 40
0.0
 40
0.0
 40
0.2
 40
0.2
 40
0.2
 40
0.2
 40
0.4
 40
0.4
 40
0.4
 40
0.4
 40
0.6
 40
0.6
 40
0.6
 40
0.6
 40
1.0
 40
1.0
 40
1.0
 40
1.0
 10
18.3998
 20
-15.725
 30
0.0
 10
18.3998
 20
-15.725
 30
0.0
 10
18.0668
 20
-15.725
 30
0.0
 10
18.0668
 20
-15.725
 30
0.0
 10
18.0668
 20
-15.725
 30
0.0
 10
18.0668
 20
-15.725
 30
0.0
 10
-22.0258
 20
-15.725
 30
0.0
 10
-22.0258
 20
-15.725
 30
0.0
 10
-22.0258
 20
-15.725
 30
0.0
 10
-22.0258
 20
-15.725
 30
0.0
 10
-22.3592
 20
-15.725
 30
0.0
 10
-22.3592
 20
-15.725
 30
0.0
 10
-22.3592
 20
-15.725
 30
0.0
 10
-22.3592
 20
-15.725
 30
0.0
 10
-22.4425
 20
-15.6422
 30
0.0
 10
-22.4425
 20
-15.6422
 30
0.0
  0
SPLINE
  5
96
330
1F
100
AcDbEntity
  8
Standard layer
370
    25
100
AcDbSpline
210
0.0
220
0.0
230
1.0
 70
     8
 71
     3
 72
     8
 73
     4
 74
     0
 42
0.0000000001
 43
0.0000000001
 40
0.0
 40
0.0
 40
0.0
 40
0.0
 40
1.0
 40
1.0
 40
1.0
 40
1.0
 10
18.483
 20
-15.6422
 30
0.0
 10
18.3215
 20
-15.4806
 30
0.0
 10
18.439
 20
-15.5589
 30
0.0
 10
18.0668
 20
-15.5589
 30
0.0
  0
SPLINE
  5
97
330
1F
100
AcDbEntity
  8
Standard layer
370
    25
100
AcDbSpline
210
0.0
220
0.0
230
1.0
 70
     8
 71
     3
 72
    16
 73
    12
 74
     0
 42
0.0000000001
 43
0.0000000001
 40
0.0
 40
0.0
 40
0.0
 40
0.0
 40
0.25
 40
0.25
 40
0.25
 40
0.25
 40
0.5
 40
0.5
 40
0.5
 40
0.5
 40
1.0
 40
1.0
 40
1.0
 40
1.0
 10
18.0668
 20
-15.5589
 30
0.0
 10
18.0668
 20
-15.5589
 30
0.0
 10
-22.0258
 20
-15.5589
 30
0.0
 10
-22.0258
 20
-15.5589
 30
0.0
 10
-22.0258
 20
-15.5589
 30
0.0
 10
-22.0258
 20
-15.5589
 30
0.0
 10
-22.3592
 20
-15.5589
 30
0.0
 10
-22.3592
 20
-15.5589
 30
0.0
 10
-22.3592
 20
-15.5589
 30
0.0
 10
-22.3592
 20
-15.5589
 30
0.0
 10
-22.4425
 20
-15.6422
 30
0.0
 10
-22.4425
 20
-15.6422
 30
0.0
  0
SPLINE
  5
98
330
1F
100
AcDbEntity
  8
Standard layer
370
    25
100
AcDbSpline
210
0.0
220
0.0
230
1.0
 70
    24
 71
     3
 72
    12
 73
     8
 74
     0
 42
0.0000000001
 43
0.0000000001
 40
0.0
 40
0.0
 40
0.0
 40
0.0
 40
0.3333333333333333
 40
0.3333333333333333
 40
0.3333333333333333
 40
0.3333333333333333
 40
1.0
 40
1.0
 40
1.0
 40
1.0
 10
-22.3592
 20
-15.5589
 30
0.0
 10
-22.3592
 20
-15.5589
 30
0.0
 10
-22.3592
 20
-15.226
 30
0.0
 10
-22.3592
 20
-15.226
 30
0.0
 10
-22.3592
 20
-15.226
 30
0.0
 10
-22.3592
 20
-15.226
 30
0.0
 10
-22.3592
 20
11.2252
 30
0.0
 10
-22.3592
 20
11.2252
 30
0.0
  0
SPLINE
  5
99
330
1F
100
AcDbEntity
  8
Standard layer
370
    25
100
AcDbSpline
210
0.0
220
0.0
230
1.0
 70
     8
 71
     3
 72
     8
 73
     4
 74
     0
 42
0.0000000001
 43
0.0000000001
 40
0.0
 40
0.0
 40
0.0
 40
0.0
 40
1.0
 40
1.0
 40
1.0
 40
1.0
 10
-22.3592
 20
11.2252
 30
0.0
 10
-22.3592
 20
11.5974
 30
0.0
 10
-22.2805
 20
11.4795
 30
0.0
 10
-22.4425
 20
11.6411
 30
0.0
  0
SPLINE
  5
9A
330
1F
100
AcDbEntity
  8
Standard layer
370
    25
100
AcDbSpline
210
0.0
220
0.0
230
1.0
 70
    24
 71
     3
 72
    12
 73
     8
 74
     0
 42
0.0000000001
 43
0.0000000001
 40
0.0
 40
0.0
 40
0.0
 40
0.0
 40
0.3333333333333333
 40
0.3333333333333333
 40
0.3333333333333333
 40
0.3333333333333333
 40
1.0
 40
1.0
 40
1.0
 40
1.0
 10
-22.3592
 20
11.5578
 30
0.0
 10
-22.3592
 20
11.5578
 30
0.0
 10
-22.0258
 20
11.5578
 30
0.0
 10
-22.0258
 20
11.5578
 30
0.0
 10
-22.0258
 20
11.5578
 30
0.0
 10
-22.0258
 20
11.5578
 30
0.0
 10
18.0668
 20
11.5578
 30
0.0
 10
18.0668
 20
11.5578
 30
0.0
  0
SPLINE
  5
9B
330
1F
100
AcDbEntity
  8
Standard layer
370
    25
100
AcDbSpline
210
0.0
220
0.0
230
1.0
 70
     8
 71
     3
 72
     8
 73
     4
 74
     0
 42
0.0000000001
 43
0.0000000001
 40
0.0
 40
0.0
 40
0.0
 40
0.0
 40
1.0
 40
1.0
 40
1.0
 40
1.0
 10
18.0668
 20
11.5578
 30
0.0
 10
18.439
 20
11.5578
 30
0.0
 10
18.3215
 20
11.4795
 30
0.0
 10
18.483
 20
11.6411
 30
0.0
  0
SPLINE
  5
9C
330
1F
100
AcDbEntity
  8
Standard layer
 62
     9
370
    25
100
AcDbSpline
210
0.0
220
0.0
230
1.0
 70
    11
 71
     3
 72
    16
 73
    12
 74
     0
 42
0.0000000001
 43
0.0000000001
 40
0.0
 40
0.0
 40
0.0
 40
0.0
 40
0.25
 40
0.25
 40
0.25
 40
0.25
 40
0.5
 40
0.5
 40
0.5
 40
0.5
 40
1.0
 40
1.0
 40
1.0
 40
1.0
 10
-10.5475
 20
0.0374
 30
0.0
 10
-10.5475
 20
0.0374
 30
0.0
 10
-10.5475
 20
-4.0385
 30
0.0
 10
-10.5475
 20
-4.0385
 30
0.0
 10
-10.5475
 20
-4.0385
 30
0.0
 10
-10.5475
 20
-4.0385
 30
0.0
 10
-14.0409
 20
-2.0008
 30
0.0
 10
-14.0409
 20
-2.0008
 30
0.0
 10
-14.0409
 20
-2.0008
 30
0.0
 10
-14.0409
 20
-2.0008
 30
0.0
 10
-10.5475
 20
0.0374
 30
0.0
 10
-10.5475
 20
0.0374
 30
0.0
  0
SPLINE
  5
9D
330
1F
100
AcDbEntity
  8
Standard layer
 62
     9
370
    25
100
AcDbSpline
210
0.0
220
0.0
230
1.0
 70
    11
 71
     3
 72
    16
 73
    12
 74
     0
 42
0.0000000001
 43
0.0000000001
 40
0.0
 40
0.0
 40
0.0
 40
0.0
 40
0.25
 40
0.25
 40
0.25
 40
0.25
 40
0.5
 40
0.5
 40
0.5
 40
0.5
 40
1.0
 40
1.0
 40
1.0
 40
1.0
 10
-6.7212
 20
-4.0385
 30
0.0
 10
-6.7212
 20
-4.0385
 30
0.0
 10
-6.7212
 20
0.0374
 30
0.0
 10
-6.7212
 20
0.0374
 30
0.0
 10
-6.7212
 20
0.0374
 30
0.0
 10
-6.7212
 20
0.0374
 30
0.0
 10
-10.2146
 20
-2.0008
 30
0.0
 10
-10.2146
 20
-2.0008
 30
0.0
 10
-10.2146
 20
-2.0008
 30
0.0
 10
-10.2146
 20
-2.0008
 30
0.0
 10
-6.7212
 20
-4.0385
 30
0.0
 10
-6.7212
 20
-4.0385
 30
0.0
  0
SPLINE
  5
9E
330
1F
100
AcDbEntity
  8
Standard layer
 62
     9
370
    25
100
AcDbSpline
210
0.0
220
0.0
230
1.0
 70
    11
 71
     3
 72
    16
 73
    12
 74
     0
 42
0.0000000001
 43
0.0000000001
 40
0.0
 40
0.0
 40
0.0
 40
0.0
 40
0.25
 40
0.25
 40
0.25
 40
0.25
 40
0.5
 40
0.5
 40
0.5
 40
0.5
 40
1.0
 40
1.0
 40
1.0
 40
1.0
 10
6.5885
 20
0.0374
 30
0.0
 10
6.5885
 20
0.0374
 30
0.0
 10
10.0814
 20
-2.0008
 30
0.0
 10
10.0814
 20
-2.0008
 30
0.0
 10
10.0814
 20
-2.0008
 30
0.0
 10
10.0814
 20
-2.0008
 30
0.0
 10
6.5885
 20
-4.0385
 30
0.0
 10
6.5885
 20
-4.0385
 30
0.0
 10
6.5885
 20
-4.0385
 30
0.0
 10
6.5885
 20
-4.0385
 30
0.0
 10
6.5885
 20
0.0374
 30
0.0
 10
6.5885
 20
0.0374
 30
0.0
  0
ENDSEC
  0
SECTION
  2
OBJECTS
  0
DICTIONARY
  5
C
330
0
100
AcDbDictionary
281
     1
  3
ACAD_GROUP
350
D
  3
ACAD_LAYOUT
350
1A
  3
ACAD_MATERIAL
350
3B
  3
ACAD_MLEADERSTYLE
350
A1
  3
ACAD_MLINESTYLE
350
17
  3
ACAD_PLOTSETTINGS
350
19
  3
ACAD_PLOTSTYLENAME
350
E
  3
ACAD_VISUALSTYLE
350
2A
  3
AcDbVariableDictionary
350
9F
  0
DICTIONARY
  5
D
102
{ACAD_REACTORS
330
C
102
}
330
C
100
AcDbDictionary
281
     1
  0
DICTIONARY
  5
1A
102
{ACAD_REACTORS
330
C
102
}
330
C
100
AcDbDictionary
281
     1
  3
Layout1
350
1E
  3
Layout2
350
26
  3
Model
350
22
  0
DICTIONARY
  5
3B
102
{ACAD_REACTORS
330
C
102
}
330
C
100
AcDbDictionary
281
     1
  3
ByBlock
350
3D
  3
ByLayer
350
3C
  3
Global
350
3E
  0
DICTIONARY
  5
A1
102
{ACAD_REACTORS
330
C
102
}
330
C
100
AcDbDictionary
281
     1
  0
DICTIONARY
  5
17
102
{ACAD_REACTORS
330
C
102
}
330
C
100
AcDbDictionary
281
     1
  3
Standard
350
18
  0
DICTIONARY
  5
19
102
{ACAD_REACTORS
330
C
102
}
330
C
100
AcDbDictionary
281
     1
  0
ACDBDICTIONARYWDFLT
  5
E
102
{ACAD_REACTORS
330
C
102
}
330
C
100
AcDbDictionary
281
     1
  3
Normal
350
F
100
AcDbDictionaryWithDefault
340
F
  0
DICTIONARY
  5
2A
102
{ACAD_REACTORS
330
C
102
}
330
C
100
AcDbDictionary
281
     1
  3
2dWireframe
350
2F
  3
3D Hidden
350
31
  3
3dWireframe
350
30
  3
Basic
350
32
  3
Brighten
350
36
  3
ColorChange
350
3A
  3
Conceptual
350
34
  3
Dim
350
35
  3
Facepattern
350
39
  3
Flat
350
2B
  3
FlatWithEdges
350
2C
  3
Gouraud
350
2D
  3
GouraudWithEdges
350
2E
  3
Linepattern
350
38
  3
Realistic
350
33
  3
Thicken
350
37
  0
DICTIONARY
  5
9F
102
{ACAD_REACTORS
330
C
102
}
330
C
100
AcDbDictionary
281
     1
  3
DIMASSOC
350
A2
  3
HIDETEXT
350
A3
  0
LAYOUT
  5
1E
102
{ACAD_REACTORS
330
1A
102
}
330
1A
100
AcDbPlotSettings
  1

  2
none_device
  4

  6

 40
0.0
 41
0.0
 42
0.0
 43
0.0
 44
0.0
 45
0.0
 46
0.0
 47
0.0
 48
0.0
 49
0.0
140
0.0
141
0.0
142
1.0
143
1.0
 70
   688
 72
     0
 73
     0
 74
     5
  7

 75
    16
147
1.0
148
0.0
149
0.0
100
AcDbLayout
  1
Layout1
 70
     1
 71
     1
 10
0.0
 20
0.0
 11
12.0
 21
9.0
 12
0.0
 22
0.0
 32
0.0
 14
1.000000000000000E+20
 24
1.000000000000000E+20
 34
1.000000000000000E+20
 15
-1.000000000000000E+20
 25
-1.000000000000000E+20
 35
-1.000000000000000E+20
146
0.0
 13
0.0
 23
0.0
 33
0.0
 16
1.0
 26
0.0
 36
0.0
 17
0.0
 27
1.0
 37
0.0
 76
     0
330
1B
  0
LAYOUT
  5
26
102
{ACAD_REACTORS
330
1A
102
}
330
1A
100
AcDbPlotSettings
  1

  2
none_device
  4

  6

 40
0.0
 41
0.0
 42
0.0
 43
0.0
 44
0.0
 45
0.0
 46
0.0
 47
0.0
 48
0.0
 49
0.0
140
0.0
141
0.0
142
1.0
143
1.0
 70
   688
 72
     0
 73
     0
 74
     5
  7

 75
    16
147
1.0
148
0.0
149
0.0
100
AcDbLayout
  1
Layout2
 70
     1
 71
     2
 10
0.0
 20
0.0
 11
0.0
 21
0.0
 12
0.0
 22
0.0
 32
0.0
 14
0.0
 24
0.0
 34
0.0
 15
0.0
 25
0.0
 35
0.0
146
0.0
 13
0.0
 23
0.0
 33
0.0
 16
1.0
 26
0.0
 36
0.0
 17
0.0
 27
1.0
 37
0.0
 76
     0
330
23
  0
LAYOUT
  5
22
102
{ACAD_REACTORS
330
1A
102
}
330
1A
100
AcDbPlotSettings
  1

  2
none_device
  4

  6

 40
0.0
 41
0.0
 42
0.0
 43
0.0
 44
0.0
 45
0.0
 46
0.0
 47
0.0
 48
0.0
 49
0.0
140
0.0
141
0.0
142
1.0
143
1.0
 70
  1712
 72
     0
 73
     0
 74
     0
  7

 75
     0
147
1.0
148
0.0
149
0.0
100
AcDbLayout
  1
Model
 70
     1
 71
     0
 10
0.0
 20
0.0
 11
12.0
 21
9.0
 12
0.0
 22
0.0
 32
0.0
 14
-31.4233
 24
-18.0383
 34
0.0
 15
31.4233
 25
18.0383
 35
0.0
146
0.0
 13
0.0
 23
0.0
 33
0.0
 16
1.0
 26
0.0
 36
0.0
 17
0.0
 27
1.0
 37
0.0
 76
     0
330
1F
331
29
  0
MATERIAL
  5
3D
102
{ACAD_REACTORS
330
3B
102
}
102
{ACAD_XDICTIONARY
360
C6
102
}
330
3B
100
AcDbMaterial
  1
ByBlock
  0
MATERIAL
  5
3C
102
{ACAD_REACTORS
330
3B
102
}
102
{ACAD_XDICTIONARY
360
C4
102
}
330
3B
100
AcDbMaterial
  1
ByLayer
  0
MATERIAL
  5
3E
102
{ACAD_REACTORS
330
3B
102
}
102
{ACAD_XDICTIONARY
360
C8
102
}
330
3B
100
AcDbMaterial
  1
Global
  0
MLINESTYLE
  5
18
102
{ACAD_REACTORS
330
17
102
}
330
17
100
AcDbMlineStyle
  2
Standard
 70
     0
  3

 62
   256
 51
90.0
 52
90.0
 71
     2
 49
0.5
 62
   256
  6
BYLAYER
 49
-0.5
 62
   256
  6
BYLAYER
  0
ACDBPLACEHOLDER
  5
F
102
{ACAD_REACTORS
330
E
102
}
330
E
  0
VISUALSTYLE
  5
2F
102
{ACAD_REACTORS
330
2A
102
}
102
{ACAD_XDICTIONARY
360
AC
102
}
330
2A
100
AcDbVisualStyle
  2
2dWireframe
 70
     4
 71
     0
 72
     2
 73
     0
 90
        0
 40
-0.6
 41
-30.0
 62
     5
 63
     7
 74
     1
 91
        4
 64
     7
 65
   257
 75
     1
175
     1
 42
1.0
 92
        0
 66
   257
 43
1.0
 76
     1
 77
     6
 78
     2
 67
     7
 79
     5
170
     0
171
     0
290
     0
174
     0
 93
        1
 44
0.0
173
     0
291
     0
 45
0.0
1001
ACAD
1000
AcDbSavedByObjectVersion
1070
     0
  0
VISUALSTYLE
  5
31
102
{ACAD_REACTORS
330
2A
102
}
102
{ACAD_XDICTIONARY
360
B0
102
}
330
2A
100
AcDbVisualStyle
  2
3D Hidden
 70
     6
 71
     1
 72
     2
 73
     2
 90
        0
 40
-0.6
 41
-30.0
 62
     5
 63
     7
 74
     2
 91
        2
 64
     7
 65
   257
 75
     2
175
     1
 42
40.0
 92
        0
 66
   257
 43
1.0
 76
     1
 77
     6
 78
     2
 67
     7
 79
     3
170
     0
171
     0
290
     0
174
     0
 93
        1
 44
0.0
173
     0
291
     0
 45
0.0
1001
ACAD
1000
AcDbSavedByObjectVersion
1070
     0
  0
VISUALSTYLE
  5
30
102
{ACAD_REACTORS
330
2A
102
}
102
{ACAD_XDICTIONARY
360
AE
102
}
330
2A
100
AcDbVisualStyle
  2
3dWireframe
 70
     5
 71
     0
 72
     2
 73
     0
 90
        0
 40
-0.6
 41
-30.0
 62
     5
 63
     7
 74
     1
 91
        4
 64
     7
 65
   257
 75
     1
175
     1
 42
1.0
 92
        0
 66
   257
 43
1.0
 76
     1
 77
     6
 78
     2
 67
     7
 79
     5
170
     0
171
     0
290
     0
174
     0
 93
        1
 44
0.0
173
     0
291
     0
 45
0.0
1001
ACAD
1000
AcDbSavedByObjectVersion
1070
     0
  0
VISUALSTYLE
  5
32
102
{ACAD_REACTORS
330
2A
102
}
102
{ACAD_XDICTIONARY
360
B2
102
}
330
2A
100
AcDbVisualStyle
  2
Basic
 70
     7
 71
     1
 72
     0
 73
     1
 90
        0
 40
-0.6
 41
-30.0
 62
     5
 63
     7
 74
     0
 91
        4
 64
     7
 65
   257
 75
     1
175
     1
 42
1.0
 92
        8
 66
     7
 43
1.0
 76
     1
 77
     6
 78
     2
 67
     7
 79
     5
170
     0
171
     0
290
     0
174
     0
 93
        1
 44
0.0
173
     0
291
     1
 45
0.0
1001
ACAD
1000
AcDbSavedByObjectVersion
1070
     0
  0
VISUALSTYLE
  5
36
102
{ACAD_REACTORS
330
2A
102
}
102
{ACAD_XDICTIONARY
360
BA
102
}
330
2A
100
AcDbVisualStyle
  2
Brighten
 70
    12
 71
     2
 72
     2
 73
     0
 90
        0
 40
-0.6
 41
-30.0
 62
     5
 63
     7
 74
     1
 91
        4
 64
     7
 65
   257
 75
     1
175
     1
 42
1.0
 92
        8
 66
     7
 43
1.0
 76
     1
 77
     6
 78
     2
 67
     7
 79
     5
170
     0
171
     0
290
     0
174
     0
 93
        1
 44
50.0
173
     0
291
     1
 45
0.0
1001
ACAD
1000
AcDbSavedByObjectVersion
1070
     0
  0
VISUALSTYLE
  5
3A
102
{ACAD_REACTORS
330
2A
102
}
102
{ACAD_XDICTIONARY
360
C2
102
}
330
2A
100
AcDbVisualStyle
  2
ColorChange
 70
    16
 71
     2
 72
     2
 73
     3
 90
        0
 40
-0.6
 41
-30.0
 62
     5
 63
     8
 74
     1
 91
        4
 64
     7
 65
   257
 75
     1
175
     1
 42
1.0
 92
        8
 66
     8
 43
1.0
 76
     1
 77
     6
 78
     2
 67
     7
 79
     5
170
     0
171
     0
290
     0
174
     0
 93
        1
 44
0.0
173
     0
291
     1
 45
0.0
1001
ACAD
1000
AcDbSavedByObjectVersion
1070
     0
  0
VISUALSTYLE
  5
34
102
{ACAD_REACTORS
330
2A
102
}
102
{ACAD_XDICTIONARY
360
B6
102
}
330
2A
100
AcDbVisualStyle
  2
Conceptual
 70
     9
 71
     3
 72
     2
 73
     0
 90
        0
 40
-0.6
 41
-30.0
 62
     5
 63
     7
 74
     2
 91
        2
 64
     7
 65
   257
 75
     1
175
     1
 42
40.0
 92
        8
 66
     7
 43
1.0
 76
     1
 77
     6
 78
     2
 67
     7
 79
     3
170
     0
171
     0
290
     0
174
     0
 93
        1
 44
0.0
173
     0
291
     0
 45
0.0
1001
ACAD
1000
AcDbSavedByObjectVersion
1070
     0
  0
VISUALSTYLE
  5
35
102
{ACAD_REACTORS
330
2A
102
}
102
{ACAD_XDICTIONARY
360
B8
102
}
330
2A
100
AcDbVisualStyle
  2
Dim
 70
    11
 71
     2
 72
     2
 73
     0
 90
        0
 40
-0.6
 41
-30.0
 62
     5
 63
     7
 74
     1
 91
        4
 64
     7
 65
   257
 75
     1
175
     1
 42
1.0
 92
        8
 66
     7
 43
1.0
 76
     1
 77
     6
 78
     2
 67
     7
 79
     5
170
     0
171
     0
290
     0
174
     0
 93
        1
 44
-50.0
173
     0
291
     1
 45
0.0
1001
ACAD
1000
AcDbSavedByObjectVersion
1070
     0
  0
VISUALSTYLE
  5
39
102
{ACAD_REACTORS
330
2A
102
}
102
{ACAD_XDICTIONARY
360
C0
102
}
330
2A
100
AcDbVisualStyle
  2
Facepattern
 70
    15
 71
     2
 72
     2
 73
     0
 90
        0
 40
-0.6
 41
-30.0
 62
     5
 63
     7
 74
     1
 91
        4
 64
     7
 65
   257
 75
     1
175
     1
 42
1.0
 92
        8
 66
     7
 43
1.0
 76
     1
 77
     6
 78
     2
 67
     7
 79
     5
170
     0
171
     0
290
     0
174
     0
 93
        1
 44
0.0
173
     0
291
     1
 45
0.0
1001
ACAD
1000
AcDbSavedByObjectVersion
1070
     0
  0
VISUALSTYLE
  5
2B
102
{ACAD_REACTORS
330
2A
102
}
102
{ACAD_XDICTIONARY
360
A4
102
}
330
2A
100
AcDbVisualStyle
  2
Flat
 70
     0
 71
     2
 72
     1
 73
     1
 90
        2
 40
-0.6
 41
30.0
 62
     5
 63
     7
 74
     0
 91
        4
 64
     7
 65
   257
 75
     1
175
     1
 42
1.0
 92
        8
 66
     7
 43
1.0
 76
     1
 77
     6
 78
     2
 67
     7
 79
     5
170
     0
171
     0
290
     0
174
     0
 93
       13
 44
0.0
173
     0
291
     1
 45
0.0
1001
ACAD
1000
AcDbSavedByObjectVersion
1070
     0
  0
VISUALSTYLE
  5
2C
102
{ACAD_REACTORS
330
2A
102
}
102
{ACAD_XDICTIONARY
360
A6
102
}
330
2A
100
AcDbVisualStyle
  2
FlatWithEdges
 70
     1
 71
     2
 72
     1
 73
     1
 90
        2
 40
-0.6
 41
30.0
 62
     5
 63
     7
 74
     1
 91
        4
 64
     7
 65
   257
 75
     1
175
     1
 42
1.0
 92
        0
 66
   257
 43
1.0
 76
     1
 77
     6
 78
     2
 67
     7
 79
     5
170
     0
171
     0
290
     0
174
     0
 93
       13
 44
0.0
173
     0
291
     1
 45
0.0
1001
ACAD
1000
AcDbSavedByObjectVersion
1070
     0
  0
VISUALSTYLE
  5
2D
102
{ACAD_REACTORS
330
2A
102
}
102
{ACAD_XDICTIONARY
360
A8
102
}
330
2A
100
AcDbVisualStyle
  2
Gouraud
 70
     2
 71
     2
 72
     2
 73
     1
 90
        2
 40
-0.6
 41
30.0
 62
     5
 63
     7
 74
     0
 91
        4
 64
     7
 65
   257
 75
     1
175
     1
 42
1.0
 92
        0
 66
     7
 43
1.0
 76
     1
 77
     6
 78
     2
 67
     7
 79
     5
170
     0
171
     0
290
     0
174
     0
 93
       13
 44
0.0
173
     0
291
     1
 45
0.0
1001
ACAD
1000
AcDbSavedByObjectVersion
1070
     0
  0
VISUALSTYLE
  5
2E
102
{ACAD_REACTORS
330
2A
102
}
102
{ACAD_XDICTIONARY
360
AA
102
}
330
2A
100
AcDbVisualStyle
  2
GouraudWithEdges
 70
     3
 71
     2
 72
     2
 73
     1
 90
        2
 40
-0.6
 41
30.0
 62
     5
 63
     7
 74
     1
 91
        4
 64
     7
 65
   257
 75
     1
175
     1
 42
1.0
 92
        0
 66
   257
 43
1.0
 76
     1
 77
     6
 78
     2
 67
     7
 79
     5
170
     0
171
     0
290
     0
174
     0
 93
       13
 44
0.0
173
     0
291
     1
 45
0.0
1001
ACAD
1000
AcDbSavedByObjectVersion
1070
     0
  0
VISUALSTYLE
  5
38
102
{ACAD_REACTORS
330
2A
102
}
102
{ACAD_XDICTIONARY
360
BE
102
}
330
2A
100
AcDbVisualStyle
  2
Linepattern
 70
    14
 71
     2
 72
     2
 73
     0
 90
        0
 40
-0.6
 41
-30.0
 62
     5
 63
     7
 74
     1
 91
        4
 64
     7
 65
   257
 75
     7
175
     7
 42
1.0
 92
        8
 66
     7
 43
1.0
 76
     1
 77
     6
 78
     2
 67
     7
 79
     5
170
     0
171
     0
290
     0
174
     0
 93
        1
 44
0.0
173
     0
291
     1
 45
0.0
1001
ACAD
1000
AcDbSavedByObjectVersion
1070
     0
  0
VISUALSTYLE
  5
33
102
{ACAD_REACTORS
330
2A
102
}
102
{ACAD_XDICTIONARY
360
B4
102
}
330
2A
100
AcDbVisualStyle
  2
Realistic
 70
     8
 71
     2
 72
     2
 73
     0
 90
        0
 40
-0.6
 41
-30.0
 62
     5
 63
     7
 74
     1
 91
        0
 64
     7
 65
   257
 75
     1
175
     1
 42
1.0
 92
        8
 66
     8
 43
1.0
 76
     1
 77
     6
 78
     2
 67
     7
 79
     5
170
     0
171
     0
290
     0
174
     0
 93
       13
 44
0.0
173
     0
291
     0
 45
0.0
1001
ACAD
1000
AcDbSavedByObjectVersion
1070
     0
  0
VISUALSTYLE
  5
37
102
{ACAD_REACTORS
330
2A
102
}
102
{ACAD_XDICTIONARY
360
BC
102
}
330
2A
100
AcDbVisualStyle
  2
Thicken
 70
    13
 71
     2
 72
     2
 73
     0
 90
        0
 40
-0.6
 41
-30.0
 62
     5
 63
     7
 74
     1
 91
        4
 64
     7
 65
   257
 75
     1
175
     1
 42
1.0
 92
       12
 66
     7
 43
1.0
 76
     1
 77
     6
 78
     2
 67
     7
 79
     5
170
     0
171
     0
290
     0
174
     0
 93
        1
 44
0.0
173
     0
291
     1
 45
0.0
1001
ACAD
1000
AcDbSavedByObjectVersion
1070
     0
  0
DICTIONARYVAR
  5
A2
102
{ACAD_REACTORS
330
9F
102
}
330
9F
100
DictionaryVariables
280
     0
  1
2
  0
DICTIONARYVAR
  5
A3
102
{ACAD_REACTORS
330
9F
102
}
330
9F
100
DictionaryVariables
280
     0
  1
1
  0
DICTIONARY
  5
C6
330
3D
100
AcDbDictionary
280
     1
281
     1
  3
ACAD_XREC_ROUNDTRIP
360
C7
  0
DICTIONARY
  5
C4
330
3C
100
AcDbDictionary
280
     1
281
     1
  3
ACAD_XREC_ROUNDTRIP
360
C5
  0
DICTIONARY
  5
C8
330
3E
100
AcDbDictionary
280
     1
281
     1
  3
ACAD_XREC_ROUNDTRIP
360
C9
  0
DICTIONARY
  5
AC
330
2F
100
AcDbDictionary
280
     1
281
     1
  3
ACAD_XREC_ROUNDTRIP
360
AD
  0
DICTIONARY
  5
B0
330
31
100
AcDbDictionary
280
     1
281
     1
  3
ACAD_XREC_ROUNDTRIP
360
B1
  0
DICTIONARY
  5
AE
330
30
100
AcDbDictionary
280
     1
281
     1
  3
ACAD_XREC_ROUNDTRIP
360
AF
  0
DICTIONARY
  5
B2
330
32
100
AcDbDictionary
280
     1
281
     1
  3
ACAD_XREC_ROUNDTRIP
360
B3
  0
DICTIONARY
  5
BA
330
36
100
AcDbDictionary
280
     1
281
     1
  3
ACAD_XREC_ROUNDTRIP
360
BB
  0
DICTIONARY
  5
C2
330
3A
100
AcDbDictionary
280
     1
281
     1
  3
ACAD_XREC_ROUNDTRIP
360
C3
  0
DICTIONARY
  5
B6
330
34
100
AcDbDictionary
280
     1
281
     1
  3
ACAD_XREC_ROUNDTRIP
360
B7
  0
DICTIONARY
  5
B8
330
35
100
AcDbDictionary
280
     1
281
     1
  3
ACAD_XREC_ROUNDTRIP
360
B9
  0
DICTIONARY
  5
C0
330
39
100
AcDbDictionary
280
     1
281
     1
  3
ACAD_XREC_ROUNDTRIP
360
C1
  0
DICTIONARY
  5
A4
330
2B
100
AcDbDictionary
280
     1
281
     1
  3
ACAD_XREC_ROUNDTRIP
360
A5
  0
DICTIONARY
  5
A6
330
2C
100
AcDbDictionary
280
     1
281
     1
  3
ACAD_XREC_ROUNDTRIP
360
A7
  0
DICTIONARY
  5
A8
330
2D
100
AcDbDictionary
280
     1
281
     1
  3
ACAD_XREC_ROUNDTRIP
360
A9
  0
DICTIONARY
  5
AA
330
2E
100
AcDbDictionary
280
     1
281
     1
  3
ACAD_XREC_ROUNDTRIP
360
AB
  0
DICTIONARY
  5
BE
330
38
100
AcDbDictionary
280
     1
281
     1
  3
ACAD_XREC_ROUNDTRIP
360
BF
  0
DICTIONARY
  5
B4
330
33
100
AcDbDictionary
280
     1
281
     1
  3
ACAD_XREC_ROUNDTRIP
360
B5
  0
DICTIONARY
  5
BC
330
37
100
AcDbDictionary
280
     1
281
     1
  3
ACAD_XREC_ROUNDTRIP
360
BD
  0
XRECORD
  5
C7
102
{ACAD_REACTORS
330
C6
102
}
330
C6
100
AcDbXrecord
280
     1
102
MATERIAL
148
0.0
149
0.0
149
0.0
 93
        0
 94
      127
282
     0
 72
     1
 77
     1
171
     1
175
     1
179
     1
273
     0
  0
XRECORD
  5
C5
102
{ACAD_REACTORS
330
C4
102
}
330
C4
100
AcDbXrecord
280
     1
102
MATERIAL
148
0.0
149
0.0
149
0.0
 93
        0
 94
      127
282
     0
 72
     1
 77
     1
171
     1
175
     1
179
     1
273
     0
  0
XRECORD
  5
C9
102
{ACAD_REACTORS
330
C8
102
}
330
C8
100
AcDbXrecord
280
     1
102
MATERIAL
148
0.0
149
0.0
149
0.0
 93
        0
 94
      127
282
     0
 72
     1
 77
     1
171
     1
175
     1
179
     1
273
     0
  0
XRECORD
  5
AD
102
{ACAD_REACTORS
330
AC
102
}
330
AC
100
AcDbXrecord
280
     1
102
RTVSPropertyOp0
 70
     1
102
RTVSPropertyOp1
 70
     1
102
RTVSPropertyOp2
 70
     1
102
RTVSPropertyOp3
 70
     1
102
RTVSPropertyOp4
 70
     1
102
RTVSPropertyOp5
 70
     1
102
RTVSPropertyOp6
 70
     1
102
RTVSPropertyOp7
 70
     1
102
RTVSPropertyOp8
 70
     1
102
RTVSPropertyOp9
 70
     1
102
RTVSPropertyOp10
 70
     1
102
RTVSPropertyOp11
 70
     1
102
RTVSPropertyOp12
 70
     1
102
RTVSPropertyOp13
 70
     1
102
RTVSPropertyOp14
 70
     1
102
RTVSPropertyOp15
 70
     1
102
RTVSPropertyOp16
 70
     1
102
RTVSPropertyOp17
 70
     1
102
RTVSPropertyOp18
 70
     1
102
RTVSPropertyOp19
 70
     1
102
RTVSPropertyOp20
 70
     1
102
RTVSPropertyOp21
 70
     1
102
RTVSPropertyOp22
 70
     1
102
RTVSPropertyOp23
 70
     1
102
RTVSPropertyOp24
 70
     1
102
RTVSPropertyOp25
 70
     1
102
RTVSPropertyOp26
 70
     1
102
RTVSPropertyOp27
 70
     1
  0
XRECORD
  5
B1
102
{ACAD_REACTORS
330
B0
102
}
330
B0
100
AcDbXrecord
280
     1
102
RTVSPropertyOp0
 70
     1
102
RTVSPropertyOp1
 70
     1
102
RTVSPropertyOp2
 70
     1
102
RTVSPropertyOp3
 70
     1
102
RTVSPropertyOp4
 70
     1
102
RTVSPropertyOp5
 70
     1
102
RTVSPropertyOp6
 70
     1
102
RTVSPropertyOp7
 70
     1
102
RTVSPropertyOp8
 70
     1
102
RTVSPropertyOp9
 70
     1
102
RTVSPropertyOp10
 70
     1
102
RTVSPropertyOp11
 70
     1
102
RTVSPropertyOp12
 70
     1
102
RTVSPropertyOp13
 70
     1
102
RTVSPropertyOp14
 70
     1
102
RTVSPropertyOp15
 70
     1
102
RTVSPropertyOp16
 70
     1
102
RTVSPropertyOp17
 70
     1
102
RTVSPropertyOp18
 70
     1
102
RTVSPropertyOp19
 70
     1
102
RTVSPropertyOp20
 70
     1
102
RTVSPropertyOp21
 70
     1
102
RTVSPropertyOp22
 70
     1
102
RTVSPropertyOp23
 70
     1
102
RTVSPropertyOp24
 70
     1
102
RTVSPropertyOp25
 70
     1
102
RTVSPropertyOp26
 70
     1
102
RTVSPropertyOp27
 70
     1
  0
XRECORD
  5
AF
102
{ACAD_REACTORS
330
AE
102
}
330
AE
100
AcDbXrecord
280
     1
102
RTVSPropertyOp0
 70
     1
102
RTVSPropertyOp1
 70
     1
102
RTVSPropertyOp2
 70
     1
102
RTVSPropertyOp3
 70
     1
102
RTVSPropertyOp4
 70
     1
102
RTVSPropertyOp5
 70
     1
102
RTVSPropertyOp6
 70
     1
102
RTVSPropertyOp7
 70
     1
102
RTVSPropertyOp8
 70
     1
102
RTVSPropertyOp9
 70
     1
102
RTVSPropertyOp10
 70
     1
102
RTVSPropertyOp11
 70
     1
102
RTVSPropertyOp12
 70
     1
102
RTVSPropertyOp13
 70
     1
102
RTVSPropertyOp14
 70
     1
102
RTVSPropertyOp15
 70
     1
102
RTVSPropertyOp16
 70
     1
102
RTVSPropertyOp17
 70
     1
102
RTVSPropertyOp18
 70
     1
102
RTVSPropertyOp19
 70
     1
102
RTVSPropertyOp20
 70
     1
102
RTVSPropertyOp21
 70
     1
102
RTVSPropertyOp22
 70
     1
102
RTVSPropertyOp23
 70
     1
102
RTVSPropertyOp24
 70
     1
102
RTVSPropertyOp25
 70
     1
102
RTVSPropertyOp26
 70
     1
102
RTVSPropertyOp27
 70
     1
  0
XRECORD
  5
B3
102
{ACAD_REACTORS
330
B2
102
}
330
B2
100
AcDbXrecord
280
     1
102
RTVSPropertyOp0
 70
     1
102
RTVSPropertyOp1
 70
     1
102
RTVSPropertyOp2
 70
     1
102
RTVSPropertyOp3
 70
     1
102
RTVSPropertyOp4
 70
     1
102
RTVSPropertyOp5
 70
     1
102
RTVSPropertyOp6
 70
     1
102
RTVSPropertyOp7
 70
     1
102
RTVSPropertyOp8
 70
     1
102
RTVSPropertyOp9
 70
     1
102
RTVSPropertyOp10
 70
     1
102
RTVSPropertyOp11
 70
     1
102
RTVSPropertyOp12
 70
     1
102
RTVSPropertyOp13
 70
     1
102
RTVSPropertyOp14
 70
     1
102
RTVSPropertyOp15
 70
     1
102
RTVSPropertyOp16
 70
     1
102
RTVSPropertyOp17
 70
     1
102
RTVSPropertyOp18
 70
     1
102
RTVSPropertyOp19
 70
     1
102
RTVSPropertyOp20
 70
     1
102
RTVSPropertyOp21
 70
     1
102
RTVSPropertyOp22
 70
     1
102
RTVSPropertyOp23
 70
     1
102
RTVSPropertyOp24
 70
     1
102
RTVSPropertyOp25
 70
     1
102
RTVSPropertyOp26
 70
     1
102
RTVSPropertyOp27
 70
     1
  0
XRECORD
  5
BB
102
{ACAD_REACTORS
330
BA
102
}
330
BA
100
AcDbXrecord
280
     1
102
RTVSPropertyOp0
 70
     1
102
RTVSPropertyOp1
 70
     1
102
RTVSPropertyOp2
 70
     1
102
RTVSPropertyOp3
 70
     1
102
RTVSPropertyOp4
 70
     1
102
RTVSPropertyOp5
 70
     1
102
RTVSPropertyOp6
 70
     1
102
RTVSPropertyOp7
 70
     1
102
RTVSPropertyOp8
 70
     1
102
RTVSPropertyOp9
 70
     1
102
RTVSPropertyOp10
 70
     1
102
RTVSPropertyOp11
 70
     1
102
RTVSPropertyOp12
 70
     1
102
RTVSPropertyOp13
 70
     1
102
RTVSPropertyOp14
 70
     1
102
RTVSPropertyOp15
 70
     1
102
RTVSPropertyOp16
 70
     1
102
RTVSPropertyOp17
 70
     1
102
RTVSPropertyOp18
 70
     1
102
RTVSPropertyOp19
 70
     1
102
RTVSPropertyOp20
 70
     1
102
RTVSPropertyOp21
 70
     1
102
RTVSPropertyOp22
 70
     1
102
RTVSPropertyOp23
 70
     1
102
RTVSPropertyOp24
 70
     1
102
RTVSPropertyOp25
 70
     1
102
RTVSPropertyOp26
 70
     1
102
RTVSPropertyOp27
 70
     1
  0
XRECORD
  5
C3
102
{ACAD_REACTORS
330
C2
102
}
330
C2
100
AcDbXrecord
280
     1
102
RTVSPropertyOp0
 70
     1
102
RTVSPropertyOp1
 70
     1
102
RTVSPropertyOp2
 70
     1
102
RTVSPropertyOp3
 70
     1
102
RTVSPropertyOp4
 70
     1
102
RTVSPropertyOp5
 70
     1
102
RTVSPropertyOp6
 70
     1
102
RTVSPropertyOp7
 70
     1
102
RTVSPropertyOp8
 70
     1
102
RTVSPropertyOp9
 70
     1
102
RTVSPropertyOp10
 70
     1
102
RTVSPropertyOp11
 70
     1
102
RTVSPropertyOp12
 70
     1
102
RTVSPropertyOp13
 70
     1
102
RTVSPropertyOp14
 70
     1
102
RTVSPropertyOp15
 70
     1
102
RTVSPropertyOp16
 70
     1
102
RTVSPropertyOp17
 70
     1
102
RTVSPropertyOp18
 70
     1
102
RTVSPropertyOp19
 70
     1
102
RTVSPropertyOp20
 70
     1
102
RTVSPropertyOp21
 70
     1
102
RTVSPropertyOp22
 70
     1
102
RTVSPropertyOp23
 70
     1
102
RTVSPropertyOp24
 70
     1
102
RTVSPropertyOp25
 70
     1
102
RTVSPropertyOp26
 70
     1
102
RTVSPropertyOp27
 70
     1
  0
XRECORD
  5
B7
102
{ACAD_REACTORS
330
B6
102
}
330
B6
100
AcDbXrecord
280
     1
102
RTVSPropertyOp0
 70
     1
102
RTVSPropertyOp1
 70
     1
102
RTVSPropertyOp2
 70
     1
102
RTVSPropertyOp3
 70
     1
102
RTVSPropertyOp4
 70
     1
102
RTVSPropertyOp5
 70
     1
102
RTVSPropertyOp6
 70
     1
102
RTVSPropertyOp7
 70
     1
102
RTVSPropertyOp8
 70
     1
102
RTVSPropertyOp9
 70
     1
102
RTVSPropertyOp10
 70
     1
102
RTVSPropertyOp11
 70
     1
102
RTVSPropertyOp12
 70
     1
102
RTVSPropertyOp13
 70
     1
102
RTVSPropertyOp14
 70
     1
102
RTVSPropertyOp15
 70
     1
102
RTVSPropertyOp16
 70
     1
102
RTVSPropertyOp17
 70
     1
102
RTVSPropertyOp18
 70
     1
102
RTVSPropertyOp19
 70
     1
102
RTVSPropertyOp20
 70
     1
102
RTVSPropertyOp21
 70
     1
102
RTVSPropertyOp22
 70
     1
102
RTVSPropertyOp23
 70
     1
102
RTVSPropertyOp24
 70
     1
102
RTVSPropertyOp25
 70
     1
102
RTVSPropertyOp26
 70
     1
102
RTVSPropertyOp27
 70
     1
  0
XRECORD
  5
B9
102
{ACAD_REACTORS
330
B8
102
}
330
B8
100
AcDbXrecord
280
     1
102
RTVSPropertyOp0
 70
     1
102
RTVSPropertyOp1
 70
     1
102
RTVSPropertyOp2
 70
     1
102
RTVSPropertyOp3
 70
     1
102
RTVSPropertyOp4
 70
     1
102
RTVSPropertyOp5
 70
     1
102
RTVSPropertyOp6
 70
     1
102
RTVSPropertyOp7
 70
     1
102
RTVSPropertyOp8
 70
     1
102
RTVSPropertyOp9
 70
     1
102
RTVSPropertyOp10
 70
     1
102
RTVSPropertyOp11
 70
     1
102
RTVSPropertyOp12
 70
     1
102
RTVSPropertyOp13
 70
     1
102
RTVSPropertyOp14
 70
     1
102
RTVSPropertyOp15
 70
     1
102
RTVSPropertyOp16
 70
     1
102
RTVSPropertyOp17
 70
     1
102
RTVSPropertyOp18
 70
     1
102
RTVSPropertyOp19
 70
     1
102
RTVSPropertyOp20
 70
     1
102
RTVSPropertyOp21
 70
     1
102
RTVSPropertyOp22
 70
     1
102
RTVSPropertyOp23
 70
     1
102
RTVSPropertyOp24
 70
     1
102
RTVSPropertyOp25
 70
     1
102
RTVSPropertyOp26
 70
     1
102
RTVSPropertyOp27
 70
     1
  0
XRECORD
  5
C1
102
{ACAD_REACTORS
330
C0
102
}
330
C0
100
AcDbXrecord
280
     1
102
RTVSPropertyOp0
 70
     1
102
RTVSPropertyOp1
 70
     1
102
RTVSPropertyOp2
 70
     1
102
RTVSPropertyOp3
 70
     1
102
RTVSPropertyOp4
 70
     1
102
RTVSPropertyOp5
 70
     1
102
RTVSPropertyOp6
 70
     1
102
RTVSPropertyOp7
 70
     1
102
RTVSPropertyOp8
 70
     1
102
RTVSPropertyOp9
 70
     1
102
RTVSPropertyOp10
 70
     1
102
RTVSPropertyOp11
 70
     1
102
RTVSPropertyOp12
 70
     1
102
RTVSPropertyOp13
 70
     1
102
RTVSPropertyOp14
 70
     1
102
RTVSPropertyOp15
 70
     1
102
RTVSPropertyOp16
 70
     1
102
RTVSPropertyOp17
 70
     1
102
RTVSPropertyOp18
 70
     1
102
RTVSPropertyOp19
 70
     1
102
RTVSPropertyOp20
 70
     1
102
RTVSPropertyOp21
 70
     1
102
RTVSPropertyOp22
 70
     1
102
RTVSPropertyOp23
 70
     1
102
RTVSPropertyOp24
 70
     1
102
RTVSPropertyOp25
 70
     1
102
RTVSPropertyOp26
 70
     1
102
RTVSPropertyOp27
 70
     1
  0
XRECORD
  5
A5
102
{ACAD_REACTORS
330
A4
102
}
330
A4
100
AcDbXrecord
280
     1
102
RTVSPropertyOp0
 70
     1
102
RTVSPropertyOp1
 70
     1
102
RTVSPropertyOp2
 70
     1
102
RTVSPropertyOp3
 70
     1
102
RTVSPropertyOp4
 70
     1
102
RTVSPropertyOp5
 70
     1
102
RTVSPropertyOp6
 70
     1
102
RTVSPropertyOp7
 70
     1
102
RTVSPropertyOp8
 70
     1
102
RTVSPropertyOp9
 70
     1
102
RTVSPropertyOp10
 70
     1
102
RTVSPropertyOp11
 70
     1
102
RTVSPropertyOp12
 70
     1
102
RTVSPropertyOp13
 70
     1
102
RTVSPropertyOp14
 70
     1
102
RTVSPropertyOp15
 70
     1
102
RTVSPropertyOp16
 70
     1
102
RTVSPropertyOp17
 70
     1
102
RTVSPropertyOp18
 70
     1
102
RTVSPropertyOp19
 70
     1
102
RTVSPropertyOp20
 70
     1
102
RTVSPropertyOp21
 70
     1
102
RTVSPropertyOp22
 70
     1
102
RTVSPropertyOp23
 70
     1
102
RTVSPropertyOp24
 70
     1
102
RTVSPropertyOp25
 70
     1
102
RTVSPropertyOp26
 70
     1
102
RTVSPropertyOp27
 70
     1
  0
XRECORD
  5
A7
102
{ACAD_REACTORS
330
A6
102
}
330
A6
100
AcDbXrecord
280
     1
102
RTVSPropertyOp0
 70
     1
102
RTVSPropertyOp1
 70
     1
102
RTVSPropertyOp2
 70
     1
102
RTVSPropertyOp3
 70
     1
102
RTVSPropertyOp4
 70
     1
102
RTVSPropertyOp5
 70
     1
102
RTVSPropertyOp6
 70
     1
102
RTVSPropertyOp7
 70
     1
102
RTVSPropertyOp8
 70
     1
102
RTVSPropertyOp9
 70
     1
102
RTVSPropertyOp10
 70
     1
102
RTVSPropertyOp11
 70
     1
102
RTVSPropertyOp12
 70
     1
102
RTVSPropertyOp13
 70
     1
102
RTVSPropertyOp14
 70
     1
102
RTVSPropertyOp15
 70
     1
102
RTVSPropertyOp16
 70
     1
102
RTVSPropertyOp17
 70
     1
102
RTVSPropertyOp18
 70
     1
102
RTVSPropertyOp19
 70
     1
102
RTVSPropertyOp20
 70
     1
102
RTVSPropertyOp21
 70
     1
102
RTVSPropertyOp22
 70
     1
102
RTVSPropertyOp23
 70
     1
102
RTVSPropertyOp24
 70
     1
102
RTVSPropertyOp25
 70
     1
102
RTVSPropertyOp26
 70
     1
102
RTVSPropertyOp27
 70
     1
  0
XRECORD
  5
A9
102
{ACAD_REACTORS
330
A8
102
}
330
A8
100
AcDbXrecord
280
     1
102
RTVSPropertyOp0
 70
     1
102
RTVSPropertyOp1
 70
     1
102
RTVSPropertyOp2
 70
     1
102
RTVSPropertyOp3
 70
     1
102
RTVSPropertyOp4
 70
     1
102
RTVSPropertyOp5
 70
     1
102
RTVSPropertyOp6
 70
     1
102
RTVSPropertyOp7
 70
     1
102
RTVSPropertyOp8
 70
     1
102
RTVSPropertyOp9
 70
     1
102
RTVSPropertyOp10
 70
     1
102
RTVSPropertyOp11
 70
     1
102
RTVSPropertyOp12
 70
     1
102
RTVSPropertyOp13
 70
     1
102
RTVSPropertyOp14
 70
     1
102
RTVSPropertyOp15
 70
     1
102
RTVSPropertyOp16
 70
     1
102
RTVSPropertyOp17
 70
     1
102
RTVSPropertyOp18
 70
     1
102
RTVSPropertyOp19
 70
     1
102
RTVSPropertyOp20
 70
     1
102
RTVSPropertyOp21
 70
     1
102
RTVSPropertyOp22
 70
     1
102
RTVSPropertyOp23
 70
     1
102
RTVSPropertyOp24
 70
     1
102
RTVSPropertyOp25
 70
     1
102
RTVSPropertyOp26
 70
     1
102
RTVSPropertyOp27
 70
     1
  0
XRECORD
  5
AB
102
{ACAD_REACTORS
330
AA
102
}
330
AA
100
AcDbXrecord
280
     1
102
RTVSPropertyOp0
 70
     1
102
RTVSPropertyOp1
 70
     1
102
RTVSPropertyOp2
 70
     1
102
RTVSPropertyOp3
 70
     1
102
RTVSPropertyOp4
 70
     1
102
RTVSPropertyOp5
 70
     1
102
RTVSPropertyOp6
 70
     1
102
RTVSPropertyOp7
 70
     1
102
RTVSPropertyOp8
 70
     1
102
RTVSPropertyOp9
 70
     1
102
RTVSPropertyOp10
 70
     1
102
RTVSPropertyOp11
 70
     1
102
RTVSPropertyOp12
 70
     1
102
RTVSPropertyOp13
 70
     1
102
RTVSPropertyOp14
 70
     1
102
RTVSPropertyOp15
 70
     1
102
RTVSPropertyOp16
 70
     1
102
RTVSPropertyOp17
 70
     1
102
RTVSPropertyOp18
 70
     1
102
RTVSPropertyOp19
 70
     1
102
RTVSPropertyOp20
 70
     1
102
RTVSPropertyOp21
 70
     1
102
RTVSPropertyOp22
 70
     1
102
RTVSPropertyOp23
 70
     1
102
RTVSPropertyOp24
 70
     1
102
RTVSPropertyOp25
 70
     1
102
RTVSPropertyOp26
 70
     1
102
RTVSPropertyOp27
 70
     1
  0
XRECORD
  5
BF
102
{ACAD_REACTORS
330
BE
102
}
330
BE
100
AcDbXrecord
280
     1
102
RTVSPropertyOp0
 70
     1
102
RTVSPropertyOp1
 70
     1
102
RTVSPropertyOp2
 70
     1
102
RTVSPropertyOp3
 70
     1
102
RTVSPropertyOp4
 70
     1
102
RTVSPropertyOp5
 70
     1
102
RTVSPropertyOp6
 70
     1
102
RTVSPropertyOp7
 70
     1
102
RTVSPropertyOp8
 70
     1
102
RTVSPropertyOp9
 70
     1
102
RTVSPropertyOp10
 70
     1
102
RTVSPropertyOp11
 70
     1
102
RTVSPropertyOp12
 70
     1
102
RTVSPropertyOp13
 70
     1
102
RTVSPropertyOp14
 70
     1
102
RTVSPropertyOp15
 70
     1
102
RTVSPropertyOp16
 70
     1
102
RTVSPropertyOp17
 70
     1
102
RTVSPropertyOp18
 70
     1
102
RTVSPropertyOp19
 70
     1
102
RTVSPropertyOp20
 70
     1
102
RTVSPropertyOp21
 70
     1
102
RTVSPropertyOp22
 70
     1
102
RTVSPropertyOp23
 70
     1
102
RTVSPropertyOp24
 70
     1
102
RTVSPropertyOp25
 70
     1
102
RTVSPropertyOp26
 70
     1
102
RTVSPropertyOp27
 70
     1
  0
XRECORD
  5
B5
102
{ACAD_REACTORS
330
B4
102
}
330
B4
100
AcDbXrecord
280
     1
102
RTVSPropertyOp0
 70
     1
102
RTVSPropertyOp1
 70
     1
102
RTVSPropertyOp2
 70
     1
102
RTVSPropertyOp3
 70
     1
102
RTVSPropertyOp4
 70
     1
102
RTVSPropertyOp5
 70
     1
102
RTVSPropertyOp6
 70
     1
102
RTVSPropertyOp7
 70
     1
102
RTVSPropertyOp8
 70
     1
102
RTVSPropertyOp9
 70
     1
102
RTVSPropertyOp10
 70
     1
102
RTVSPropertyOp11
 70
     1
102
RTVSPropertyOp12
 70
     1
102
RTVSPropertyOp13
 70
     1
102
RTVSPropertyOp14
 70
     1
102
RTVSPropertyOp15
 70
     1
102
RTVSPropertyOp16
 70
     1
102
RTVSPropertyOp17
 70
     1
102
RTVSPropertyOp18
 70
     1
102
RTVSPropertyOp19
 70
     1
102
RTVSPropertyOp20
 70
     1
102
RTVSPropertyOp21
 70
     1
102
RTVSPropertyOp22
 70
     1
102
RTVSPropertyOp23
 70
     1
102
RTVSPropertyOp24
 70
     1
102
RTVSPropertyOp25
 70
     1
102
RTVSPropertyOp26
 70
     1
102
RTVSPropertyOp27
 70
     1
  0
XRECORD
  5
BD
102
{ACAD_REACTORS
330
BC
102
}
330
BC
100
AcDbXrecord
280
     1
102
RTVSPropertyOp0
 70
     1
102
RTVSPropertyOp1
 70
     1
102
RTVSPropertyOp2
 70
     1
102
RTVSPropertyOp3
 70
     1
102
RTVSPropertyOp4
 70
     1
102
RTVSPropertyOp5
 70
     1
102
RTVSPropertyOp6
 70
     1
102
RTVSPropertyOp7
 70
     1
102
RTVSPropertyOp8
 70
     1
102
RTVSPropertyOp9
 70
     1
102
RTVSPropertyOp10
 70
     1
102
RTVSPropertyOp11
 70
     1
102
RTVSPropertyOp12
 70
     1
102
RTVSPropertyOp13
 70
     1
102
RTVSPropertyOp14
 70
     1
102
RTVSPropertyOp15
 70
     1
102
RTVSPropertyOp16
 70
     1
102
RTVSPropertyOp17
 70
     1
102
RTVSPropertyOp18
 70
     1
102
RTVSPropertyOp19
 70
     1
102
RTVSPropertyOp20
 70
     1
102
RTVSPropertyOp21
 70
     1
102
RTVSPropertyOp22
 70
     1
102
RTVSPropertyOp23
 70
     1
102
RTVSPropertyOp24
 70
     1
102
RTVSPropertyOp25
 70
     1
102
RTVSPropertyOp26
 70
     1
102
RTVSPropertyOp27
 70
     1
  0
ENDSEC
  0
EOF
