  0
SECTION
  2
HEADER
  9
$ACADVER
  1
AC1014
  9
$ACADMAINTVER
 70
     9
  9
$DWGCODEPAGE
  3
ANSI_1250
  9
$INSBASE
 10
0.0
 20
0.0
 30
0.0
  9
$EXTMIN
 10
-32.0059
 20
-16.7592
 30
0.0
  9
$EXTMAX
 10
32.0057
 20
16.7592
 30
0.0
  9
$LIMMIN
 10
0.0
 20
0.0
  9
$LIMMAX
 10
12.0
 20
9.0
  9
$ORTHOMODE
 70
     0
  9
$REGENMODE
 70
     1
  9
$FILLMODE
 70
     1
  9
$QTEXTMODE
 70
     0
  9
$MIRRTEXT
 70
     1
  9
$DRAGMODE
 70
     2
  9
$LTSCALE
 40
1.0
  9
$OSMODE
 70
    37
  9
$ATTMODE
 70
     1
  9
$TEXTSIZE
 40
0.2
  9
$TRACEWID
 40
0.05
  9
$TEXTSTYLE
  7
STANDARD
  9
$CLAYER
  8
0
  9
$CELTYPE
  6
BYLAYER
  9
$CECOLOR
 62
   256
  9
$CELTSCALE
 40
1.0
  9
$DELOBJ
 70
     1
  9
$DISPSILH
 70
     0
  9
$DIMSCALE
 40
1.0
  9
$DIMASZ
 40
0.18
  9
$DIMEXO
 40
0.0625
  9
$DIMDLI
 40
0.38
  9
$DIMRND
 40
0.0
  9
$DIMDLE
 40
0.0
  9
$DIMEXE
 40
0.18
  9
$DIMTP
 40
0.0
  9
$DIMTM
 40
0.0
  9
$DIMTXT
 40
0.18
  9
$DIMCEN
 40
0.09
  9
$DIMTSZ
 40
0.0
  9
$DIMTOL
 70
     0
  9
$DIMLIM
 70
     0
  9
$DIMTIH
 70
     1
  9
$DIMTOH
 70
     1
  9
$DIMSE1
 70
     0
  9
$DIMSE2
 70
     0
  9
$DIMTAD
 70
     0
  9
$DIMZIN
 70
     0
  9
$DIMBLK
  1

  9
$DIMASO
 70
     1
  9
$DIMSHO
 70
     1
  9
$DIMPOST
  1

  9
$DIMAPOST
  1

  9
$DIMALT
 70
     0
  9
$DIMALTD
 70
     2
  9
$DIMALTF
 40
25.4
  9
$DIMLFAC
 40
1.0
  9
$DIMTOFL
 70
     0
  9
$DIMTVP
 40
0.0
  9
$DIMTIX
 70
     0
  9
$DIMSOXD
 70
     0
  9
$DIMSAH
 70
     0
  9
$DIMBLK1
  1

  9
$DIMBLK2
  1

  9
$DIMSTYLE
  2
STANDARD
  9
$DIMCLRD
 70
     0
  9
$DIMCLRE
 70
     0
  9
$DIMCLRT
 70
     0
  9
$DIMTFAC
 40
1.0
  9
$DIMGAP
 40
0.09
  9
$DIMJUST
 70
     0
  9
$DIMSD1
 70
     0
  9
$DIMSD2
 70
     0
  9
$DIMTOLJ
 70
     1
  9
$DIMTZIN
 70
     0
  9
$DIMALTZ
 70
     0
  9
$DIMALTTZ
 70
     0
  9
$DIMFIT
 70
     3
  9
$DIMUPT
 70
     0
  9
$DIMUNIT
 70
     2
  9
$DIMDEC
 70
     4
  9
$DIMTDEC
 70
     4
  9
$DIMALTU
 70
     2
  9
$DIMALTTD
 70
     2
  9
$DIMTXSTY
  7
STANDARD
  9
$DIMAUNIT
 70
     0
  9
$LUNITS
 70
     2
  9
$LUPREC
 70
     4
  9
$SKETCHINC
 40
0.1
  9
$FILLETRAD
 40
0.5
  9
$AUNITS
 70
     0
  9
$AUPREC
 70
     0
  9
$MENU
  1
.
  9
$ELEVATION
 40
0.0
  9
$PELEVATION
 40
0.0
  9
$THICKNESS
 40
0.0
  9
$LIMCHECK
 70
     0
  9
$CHAMFERA
 40
0.5
  9
$CHAMFERB
 40
0.5
  9
$CHAMFERC
 40
1.0
  9
$CHAMFERD
 40
0.0
  9
$SKPOLY
 70
     0
  9
$TDCREATE
 40
2456266.377259572
  9
$TDUPDATE
 40
2456266.377259583
  9
$TDINDWG
 40
0.0000000116
  9
$TDUSRTIMER
 40
0.0000000116
  9
$USRTIMER
 70
     1
  9
$ANGBASE
 50
0.0
  9
$ANGDIR
 70
     0
  9
$PDMODE
 70
     0
  9
$PDSIZE
 40
0.0
  9
$PLINEWID
 40
0.0
  9
$COORDS
 70
     1
  9
$SPLFRAME
 70
     0
  9
$SPLINETYPE
 70
     6
  9
$SPLINESEGS
 70
     8
  9
$ATTDIA
 70
     0
  9
$ATTREQ
 70
     1
  9
$HANDLING
 70
     1
  9
$HANDSEED
  5
9B
  9
$SURFTAB1
 70
     6
  9
$SURFTAB2
 70
     6
  9
$SURFTYPE
 70
     6
  9
$SURFU
 70
     6
  9
$SURFV
 70
     6
  9
$UCSNAME
  2

  9
$UCSORG
 10
0.0
 20
0.0
 30
0.0
  9
$UCSXDIR
 10
1.0
 20
0.0
 30
0.0
  9
$UCSYDIR
 10
0.0
 20
1.0
 30
0.0
  9
$PUCSNAME
  2

  9
$PUCSORG
 10
0.0
 20
0.0
 30
0.0
  9
$PUCSXDIR
 10
1.0
 20
0.0
 30
0.0
  9
$PUCSYDIR
 10
0.0
 20
1.0
 30
0.0
  9
$USERI1
 70
     0
  9
$USERI2
 70
     0
  9
$USERI3
 70
     0
  9
$USERI4
 70
     0
  9
$USERI5
 70
     0
  9
$USERR1
 40
0.0
  9
$USERR2
 40
0.0
  9
$USERR3
 40
0.0
  9
$USERR4
 40
0.0
  9
$USERR5
 40
0.0
  9
$WORLDVIEW
 70
     1
  9
$SHADEDGE
 70
     3
  9
$SHADEDIF
 70
    70
  9
$TILEMODE
 70
     1
  9
$MAXACTVP
 70
    64
  9
$PINSBASE
 10
0.0
 20
0.0
 30
0.0
  9
$PLIMCHECK
 70
     0
  9
$PEXTMIN
 10
1.000000000000000E+20
 20
1.000000000000000E+20
 30
1.000000000000000E+20
  9
$PEXTMAX
 10
-1.000000000000000E+20
 20
-1.000000000000000E+20
 30
-1.000000000000000E+20
  9
$PLIMMIN
 10
0.0
 20
0.0
  9
$PLIMMAX
 10
12.0
 20
9.0
  9
$UNITMODE
 70
     0
  9
$VISRETAIN
 70
     1
  9
$PLINEGEN
 70
     0
  9
$PSLTSCALE
 70
     1
  9
$TREEDEPTH
 70
  3020
  9
$PICKSTYLE
 70
     1
  9
$CMLSTYLE
  2
STANDARD
  9
$CMLJUST
 70
     0
  9
$CMLSCALE
 40
1.0
  9
$PROXYGRAPHICS
 70
     1
  9
$MEASUREMENT
 70
     0
  0
ENDSEC
  0
SECTION
  2
CLASSES
  0
CLASS
  1
ACDBDICTIONARYWDFLT
  2
AcDbDictionaryWithDefault
  3
ObjectDBX Classes
 90
        0
280
     0
281
     0
  0
CLASS
  1
VISUALSTYLE
  2
AcDbVisualStyle
  3
ObjectDBX Classes
 90
     4095
280
     0
281
     0
  0
CLASS
  1
MATERIAL
  2
AcDbMaterial
  3
ObjectDBX Classes
 90
     1153
280
     0
281
     0
  0
CLASS
  1
DICTIONARYVAR
  2
AcDbDictionaryVar
  3
ObjectDBX Classes
 90
        0
280
     0
281
     0
  0
CLASS
  1
XRECORD
  2
AcDbXrecord
  3
AutoCAD 2000
 90
        0
280
     0
281
     0
  0
CLASS
  1
LWPOLYLINE
  2
AcDbPolyline
  3
AutoCAD 2000
 90
        0
280
     0
281
     1
  0
CLASS
  1
HATCH
  2
AcDbHatch
  3
AutoCAD 2000
 90
        0
280
     0
281
     1
  0
CLASS
  1
ACDBPLACEHOLDER
  2
AcDbPlaceHolder
  3
ObjectDBX Classes
 90
        0
280
     0
281
     0
  0
CLASS
  1
LAYOUT
  2
AcDbLayout
  3
ObjectDBX Classes
 90
        0
280
     0
281
     0
  0
ENDSEC
  0
SECTION
  2
TABLES
  0
TABLE
  2
VPORT
  5
8
330
0
100
AcDbSymbolTable
 70
     1
  0
VPORT
  5
29
330
8
100
AcDbSymbolTableRecord
100
AcDbViewportTableRecord
  2
*ACTIVE
 70
     0
 10
0.0
 20
0.0
 11
1.0
 21
1.0
 12
10.42990654205607
 22
4.5
 13
0.0
 23
0.0
 14
0.5
 24
0.5
 15
0.5
 25
0.5
 16
0.0
 26
0.0
 36
1.0
 17
0.0
 27
0.0
 37
0.0
 40
9.0
 41
1.972972972850329
 42
50.0
 43
0.0
 44
0.0
 50
0.0
 51
0.0
 71
     0
 72
   100
 73
     1
 74
     3
 75
     0
 76
     0
 77
     0
 78
     0
  0
ENDTAB
  0
TABLE
  2
LTYPE
  5
5
330
0
100
AcDbSymbolTable
 70
     2
  0
LTYPE
  5
14
330
5
100
AcDbSymbolTableRecord
100
AcDbLinetypeTableRecord
  2
BYBLOCK
 70
     0
  3

 72
    65
 73
     0
 40
0.0
  0
LTYPE
  5
15
330
5
100
AcDbSymbolTableRecord
100
AcDbLinetypeTableRecord
  2
BYLAYER
 70
     0
  3

 72
    65
 73
     0
 40
0.0
  0
LTYPE
  5
16
330
5
100
AcDbSymbolTableRecord
100
AcDbLinetypeTableRecord
  2
CONTINUOUS
 70
     0
  3
Solid line
 72
    65
 73
     0
 40
0.0
  0
LTYPE
  5
5C
330
5
100
AcDbSymbolTableRecord
100
AcDbLinetypeTableRecord
  2
NEW_LINE1
 70
     0
  3

 72
    65
 73
     4
 40
1.2
 49
0.5
 74
     4
 75
     0
340
0
 46
1.0
 50
0.0
 44
0.0
 45
0.0
 49
-0.3
 74
     4
 75
     0
340
0
 46
1.0
 50
0.0
 44
0.0
 45
0.0
 49
0.1
 74
     4
 75
     0
340
0
 46
1.0
 50
0.0
 44
0.0
 45
0.0
 49
-0.3
 74
     4
 75
     0
340
0
 46
1.0
 50
0.0
 44
0.0
 45
0.0
  0
ENDTAB
  0
TABLE
  2
LAYER
  5
2
330
0
100
AcDbSymbolTable
 70
     2
  0
LAYER
  5
10
330
2
100
AcDbSymbolTableRecord
100
AcDbLayerTableRecord
  2
0
 70
     0
 62
     7
  6
CONTINUOUS
  0
LAYER
  5
40
330
2
100
AcDbSymbolTableRecord
100
AcDbLayerTableRecord
  2
VRSTVA_1
 70
     0
 62
     7
  6
CONTINUOUS
  0
ENDTAB
  0
TABLE
  2
STYLE
  5
3
330
0
100
AcDbSymbolTable
 70
     1
  0
STYLE
  5
11
330
3
100
AcDbSymbolTableRecord
100
AcDbTextStyleTableRecord
  2
STANDARD
 70
     0
 40
0.0
 41
1.0
 50
0.0
 71
     0
 42
0.2
  3
txt
  4

  0
ENDTAB
  0
TABLE
  2
VIEW
  5
6
330
0
100
AcDbSymbolTable
 70
     0
  0
ENDTAB
  0
TABLE
  2
UCS
  5
7
330
0
100
AcDbSymbolTable
 70
     0
  0
ENDTAB
  0
TABLE
  2
APPID
  5
9
330
0
100
AcDbSymbolTable
 70
     2
  0
APPID
  5
12
330
9
100
AcDbSymbolTableRecord
100
AcDbRegAppTableRecord
  2
ACAD
 70
     0
  0
APPID
  5
3F
330
9
100
AcDbSymbolTableRecord
100
AcDbRegAppTableRecord
  2
ODA
 70
     0
  0
ENDTAB
  0
TABLE
  2
DIMSTYLE
  5
A
330
0
100
AcDbSymbolTable
 70
     1
  0
DIMSTYLE
105
27
330
A
100
AcDbSymbolTableRecord
100
AcDbDimStyleTableRecord
  2
STANDARD
 70
     0
  3

  4

  5

  6

  7

 40
1.0
 41
0.18
 42
0.0625
 43
0.38
 44
0.18
 45
0.0
 46
0.0
 47
0.0
 48
0.0
140
0.18
141
0.09
142
0.0
143
25.4
144
1.0
145
0.0
146
1.0
147
0.09
 71
     0
 72
     0
 73
     1
 74
     1
 75
     0
 76
     0
 77
     0
 78
     0
170
     0
171
     2
172
     0
173
     0
174
     0
175
     0
176
     0
177
     0
178
     0
270
     2
271
     4
272
     4
273
     2
274
     2
340
11
275
     0
280
     0
281
     0
282
     0
283
     1
284
     0
285
     0
286
     0
287
     3
288
     0
  0
ENDTAB
  0
TABLE
  2
BLOCK_RECORD
  5
1
330
0
100
AcDbSymbolTable
 70
     1
  0
BLOCK_RECORD
  5
1F
330
1
100
AcDbSymbolTableRecord
100
AcDbBlockTableRecord
  2
*MODEL_SPACE
  0
BLOCK_RECORD
  5
1B
330
1
100
AcDbSymbolTableRecord
100
AcDbBlockTableRecord
  2
*PAPER_SPACE
  0
ENDTAB
  0
ENDSEC
  0
SECTION
  2
BLOCKS
  0
BLOCK
  5
20
330
1F
100
AcDbEntity
  8
0
100
AcDbBlockBegin
  2
*MODEL_SPACE
 70
     0
 10
0.0
 20
0.0
 30
0.0
  3
*MODEL_SPACE
  1

  0
ENDBLK
  5
21
330
1F
100
AcDbEntity
  8
0
100
AcDbBlockEnd
  0
BLOCK
  5
1C
330
1B
100
AcDbEntity
 67
     1
  8
0
100
AcDbBlockBegin
  2
*PAPER_SPACE
 70
     0
 10
0.0
 20
0.0
 30
0.0
  3
*PAPER_SPACE
  1

  0
ENDBLK
  5
1D
330
1B
100
AcDbEntity
 67
     1
  8
0
100
AcDbBlockEnd
  0
ENDSEC
  0
SECTION
  2
ENTITIES
  0
SPLINE
  5
41
330
1F
100
AcDbEntity
  8
VRSTVA_1
 62
   250
100
AcDbSpline
210
0.0
220
0.0
230
1.0
 70
    11
 71
     3
 72
    92
 73
    88
 74
     0
 42
0.0000000001
 43
0.0000000001
 40
0.0
 40
0.0
 40
0.0
 40
0.0
 40
0.0434782608695652
 40
0.0434782608695652
 40
0.0434782608695652
 40
0.0434782608695652
 40
0.0869565217391304
 40
0.0869565217391304
 40
0.0869565217391304
 40
0.0869565217391304
 40
0.1304347826086956
 40
0.1304347826086956
 40
0.1304347826086956
 40
0.1304347826086956
 40
0.1739130434782609
 40
0.1739130434782609
 40
0.1739130434782609
 40
0.1739130434782609
 40
0.2173913043478261
 40
0.2173913043478261
 40
0.2173913043478261
 40
0.2173913043478261
 40
0.2608695652173913
 40
0.2608695652173913
 40
0.2608695652173913
 40
0.2608695652173913
 40
0.3043478260869565
 40
0.3043478260869565
 40
0.3043478260869565
 40
0.3043478260869565
 40
0.3478260869565217
 40
0.3478260869565217
 40
0.3478260869565217
 40
0.3478260869565217
 40
0.391304347826087
 40
0.391304347826087
 40
0.391304347826087
 40
0.391304347826087
 40
0.4347826086956522
 40
0.4347826086956522
 40
0.4347826086956522
 40
0.4347826086956522
 40
0.4782608695652174
 40
0.4782608695652174
 40
0.4782608695652174
 40
0.4782608695652174
 40
0.5217391304347826
 40
0.5217391304347826
 40
0.5217391304347826
 40
0.5217391304347826
 40
0.5652173913043478
 40
0.5652173913043478
 40
0.5652173913043478
 40
0.5652173913043478
 40
0.6086956521739131
 40
0.6086956521739131
 40
0.6086956521739131
 40
0.6086956521739131
 40
0.6521739130434783
 40
0.6521739130434783
 40
0.6521739130434783
 40
0.6521739130434783
 40
0.6956521739130435
 40
0.6956521739130435
 40
0.6956521739130435
 40
0.6956521739130435
 40
0.7391304347826086
 40
0.7391304347826086
 40
0.7391304347826086
 40
0.7391304347826086
 40
0.782608695652174
 40
0.782608695652174
 40
0.782608695652174
 40
0.782608695652174
 40
0.8260869565217391
 40
0.8260869565217391
 40
0.8260869565217391
 40
0.8260869565217391
 40
0.8695652173913043
 40
0.8695652173913043
 40
0.8695652173913043
 40
0.8695652173913043
 40
0.9130434782608695
 40
0.9130434782608695
 40
0.9130434782608695
 40
0.9130434782608695
 40
1.0
 40
1.0
 40
1.0
 40
1.0
 10
-3.6292
 20
14.5214
 30
0.0
 10
-3.6292
 20
14.5214
 30
0.0
 10
-3.6292
 20
14.2233
 30
0.0
 10
-3.6292
 20
14.2233
 30
0.0
 10
-3.6292
 20
14.2233
 30
0.0
 10
-3.6292
 20
14.2233
 30
0.0
 10
-5.2984
 20
14.2233
 30
0.0
 10
-5.2984
 20
14.2233
 30
0.0
 10
-5.2984
 20
14.2233
 30
0.0
 10
-5.3007
 20
14.298
 30
0.0
 10
-5.289
 20
14.3697
 30
0.0
 10
-5.2625
 20
14.4385
 30
0.0
 10
-5.2625
 20
14.4385
 30
0.0
 10
-5.2202
 20
14.5526
 30
0.0
 10
-5.152
 20
14.6643
 30
0.0
 10
-5.0585
 20
14.7748
 30
0.0
 10
-5.0585
 20
14.7748
 30
0.0
 10
-4.9644
 20
14.8848
 30
0.0
 10
-4.8292
 20
15.0124
 30
0.0
 10
-4.6528
 20
15.157
 30
0.0
 10
-4.6528
 20
15.157
 30
0.0
 10
-4.3782
 20
15.3822
 30
0.0
 10
-4.1924
 20
15.5603
 30
0.0
 10
-4.096
 20
15.692
 30
0.0
 10
-4.096
 20
15.692
 30
0.0
 10
-3.9996
 20
15.8232
 30
0.0
 10
-3.9514
 20
15.9478
 30
0.0
 10
-3.9514
 20
16.0648
 30
0.0
 10
-3.9514
 20
16.0648
 30
0.0
 10
-3.9514
 20
16.1877
 30
0.0
 10
-3.9955
 20
16.2912
 30
0.0
 10
-4.0831
 20
16.3758
 30
0.0
 10
-4.0831
 20
16.3758
 30
0.0
 10
-4.1713
 20
16.4599
 30
0.0
 10
-4.2859
 20
16.5023
 30
0.0
 10
-4.427
 20
16.5023
 30
0.0
 10
-4.427
 20
16.5023
 30
0.0
 10
-4.5764
 20
16.5023
 30
0.0
 10
-4.6957
 20
16.4576
 30
0.0
 10
-4.7851
 20
16.3676
 30
0.0
 10
-4.7851
 20
16.3676
 30
0.0
 10
-4.8751
 20
16.2782
 30
0.0
 10
-4.9203
 20
16.1542
 30
0.0
 10
-4.9215
 20
15.996
 30
0.0
 10
-4.9215
 20
15.996
 30
0.0
 10
-4.9215
 20
15.996
 30
0.0
 10
-5.2402
 20
16.0284
 30
0.0
 10
-5.2402
 20
16.0284
 30
0.0
 10
-5.2402
 20
16.0284
 30
0.0
 10
-5.2184
 20
16.2665
 30
0.0
 10
-5.1361
 20
16.4476
 30
0.0
 10
-4.9938
 20
16.5722
 30
0.0
 10
-4.9938
 20
16.5722
 30
0.0
 10
-4.8515
 20
16.6969
 30
0.0
 10
-4.6599
 20
16.7592
 30
0.0
 10
-4.42
 20
16.7592
 30
0.0
 10
-4.42
 20
16.7592
 30
0.0
 10
-4.1777
 20
16.7592
 30
0.0
 10
-3.986
 20
16.6916
 30
0.0
 10
-3.8449
 20
16.5575
 30
0.0
 10
-3.8449
 20
16.5575
 30
0.0
 10
-3.7032
 20
16.4229
 30
0.0
 10
-3.6327
 20
16.2565
 30
0.0
 10
-3.6327
 20
16.0578
 30
0.0
 10
-3.6327
 20
16.0578
 30
0.0
 10
-3.6327
 20
15.9566
 30
0.0
 10
-3.6533
 20
15.8573
 30
0.0
 10
-3.695
 20
15.7597
 30
0.0
 10
-3.695
 20
15.7597
 30
0.0
 10
-3.7362
 20
15.6621
 30
0.0
 10
-3.805
 20
15.5592
 30
0.0
 10
-3.9008
 20
15.4516
 30
0.0
 10
-3.9008
 20
15.4516
 30
0.0
 10
-3.9966
 20
15.3434
 30
0.0
 10
-4.156
 20
15.1952
 30
0.0
 10
-4.3788
 20
15.0071
 30
0.0
 10
-4.3788
 20
15.0071
 30
0.0
 10
-4.5646
 20
14.8507
 30
0.0
 10
-4.684
 20
14.7448
 30
0.0
 10
-4.7369
 20
14.689
 30
0.0
 10
-4.7369
 20
14.689
 30
0.0
 10
-4.7898
 20
14.6337
 30
0.0
 10
-4.8333
 20
14.5778
 30
0.0
 10
-4.868
 20
14.5214
 30
0.0
 10
-4.868
 20
14.5214
 30
0.0
 10
-4.868
 20
14.5214
 30
0.0
 10
-3.6292
 20
14.5214
 30
0.0
 10
-3.6292
 20
14.5214
 30
0.0
  0
SPLINE
  5
42
330
1F
100
AcDbEntity
  8
VRSTVA_1
 62
   250
100
AcDbSpline
210
0.0
220
0.0
230
1.0
 70
    11
 71
     3
 72
    92
 73
    88
 74
     0
 42
0.0000000001
 43
0.0000000001
 40
0.0
 40
0.0
 40
0.0
 40
0.0
 40
0.0434782608695652
 40
0.0434782608695652
 40
0.0434782608695652
 40
0.0434782608695652
 40
0.0869565217391304
 40
0.0869565217391304
 40
0.0869565217391304
 40
0.0869565217391304
 40
0.1304347826086956
 40
0.1304347826086956
 40
0.1304347826086956
 40
0.1304347826086956
 40
0.1739130434782609
 40
0.1739130434782609
 40
0.1739130434782609
 40
0.1739130434782609
 40
0.2173913043478261
 40
0.2173913043478261
 40
0.2173913043478261
 40
0.2173913043478261
 40
0.2608695652173913
 40
0.2608695652173913
 40
0.2608695652173913
 40
0.2608695652173913
 40
0.3043478260869565
 40
0.3043478260869565
 40
0.3043478260869565
 40
0.3043478260869565
 40
0.3478260869565217
 40
0.3478260869565217
 40
0.3478260869565217
 40
0.3478260869565217
 40
0.391304347826087
 40
0.391304347826087
 40
0.391304347826087
 40
0.391304347826087
 40
0.4347826086956522
 40
0.4347826086956522
 40
0.4347826086956522
 40
0.4347826086956522
 40
0.4782608695652174
 40
0.4782608695652174
 40
0.4782608695652174
 40
0.4782608695652174
 40
0.5217391304347826
 40
0.5217391304347826
 40
0.5217391304347826
 40
0.5217391304347826
 40
0.5652173913043478
 40
0.5652173913043478
 40
0.5652173913043478
 40
0.5652173913043478
 40
0.6086956521739131
 40
0.6086956521739131
 40
0.6086956521739131
 40
0.6086956521739131
 40
0.6521739130434783
 40
0.6521739130434783
 40
0.6521739130434783
 40
0.6521739130434783
 40
0.6956521739130435
 40
0.6956521739130435
 40
0.6956521739130435
 40
0.6956521739130435
 40
0.7391304347826086
 40
0.7391304347826086
 40
0.7391304347826086
 40
0.7391304347826086
 40
0.782608695652174
 40
0.782608695652174
 40
0.782608695652174
 40
0.782608695652174
 40
0.8260869565217391
 40
0.8260869565217391
 40
0.8260869565217391
 40
0.8260869565217391
 40
0.8695652173913043
 40
0.8695652173913043
 40
0.8695652173913043
 40
0.8695652173913043
 40
0.9130434782608695
 40
0.9130434782608695
 40
0.9130434782608695
 40
0.9130434782608695
 40
1.0
 40
1.0
 40
1.0
 40
1.0
 10
-1.6672
 20
14.5214
 30
0.0
 10
-1.6672
 20
14.5214
 30
0.0
 10
-1.6672
 20
14.2233
 30
0.0
 10
-1.6672
 20
14.2233
 30
0.0
 10
-1.6672
 20
14.2233
 30
0.0
 10
-1.6672
 20
14.2233
 30
0.0
 10
-3.3364
 20
14.2233
 30
0.0
 10
-3.3364
 20
14.2233
 30
0.0
 10
-3.3364
 20
14.2233
 30
0.0
 10
-3.3387
 20
14.298
 30
0.0
 10
-3.327
 20
14.3697
 30
0.0
 10
-3.3005
 20
14.4385
 30
0.0
 10
-3.3005
 20
14.4385
 30
0.0
 10
-3.2582
 20
14.5526
 30
0.0
 10
-3.19
 20
14.6643
 30
0.0
 10
-3.0965
 20
14.7748
 30
0.0
 10
-3.0965
 20
14.7748
 30
0.0
 10
-3.0024
 20
14.8848
 30
0.0
 10
-2.8672
 20
15.0124
 30
0.0
 10
-2.6908
 20
15.157
 30
0.0
 10
-2.6908
 20
15.157
 30
0.0
 10
-2.4162
 20
15.3822
 30
0.0
 10
-2.2304
 20
15.5603
 30
0.0
 10
-2.134
 20
15.692
 30
0.0
 10
-2.134
 20
15.692
 30
0.0
 10
-2.0376
 20
15.8232
 30
0.0
 10
-1.9894
 20
15.9478
 30
0.0
 10
-1.9894
 20
16.0648
 30
0.0
 10
-1.9894
 20
16.0648
 30
0.0
 10
-1.9894
 20
16.1877
 30
0.0
 10
-2.0335
 20
16.2912
 30
0.0
 10
-2.1211
 20
16.3758
 30
0.0
 10
-2.1211
 20
16.3758
 30
0.0
 10
-2.2093
 20
16.4599
 30
0.0
 10
-2.3239
 20
16.5023
 30
0.0
 10
-2.465
 20
16.5023
 30
0.0
 10
-2.465
 20
16.5023
 30
0.0
 10
-2.6144
 20
16.5023
 30
0.0
 10
-2.7337
 20
16.4576
 30
0.0
 10
-2.8231
 20
16.3676
 30
0.0
 10
-2.8231
 20
16.3676
 30
0.0
 10
-2.9131
 20
16.2782
 30
0.0
 10
-2.9583
 20
16.1542
 30
0.0
 10
-2.9595
 20
15.996
 30
0.0
 10
-2.9595
 20
15.996
 30
0.0
 10
-2.9595
 20
15.996
 30
0.0
 10
-3.2782
 20
16.0284
 30
0.0
 10
-3.2782
 20
16.0284
 30
0.0
 10
-3.2782
 20
16.0284
 30
0.0
 10
-3.2564
 20
16.2665
 30
0.0
 10
-3.1741
 20
16.4476
 30
0.0
 10
-3.0318
 20
16.5722
 30
0.0
 10
-3.0318
 20
16.5722
 30
0.0
 10
-2.8895
 20
16.6969
 30
0.0
 10
-2.6979
 20
16.7592
 30
0.0
 10
-2.458
 20
16.7592
 30
0.0
 10
-2.458
 20
16.7592
 30
0.0
 10
-2.2157
 20
16.7592
 30
0.0
 10
-2.024
 20
16.6916
 30
0.0
 10
-1.8829
 20
16.5575
 30
0.0
 10
-1.8829
 20
16.5575
 30
0.0
 10
-1.7412
 20
16.4229
 30
0.0
 10
-1.6707
 20
16.2565
 30
0.0
 10
-1.6707
 20
16.0578
 30
0.0
 10
-1.6707
 20
16.0578
 30
0.0
 10
-1.6707
 20
15.9566
 30
0.0
 10
-1.6913
 20
15.8573
 30
0.0
 10
-1.733
 20
15.7597
 30
0.0
 10
-1.733
 20
15.7597
 30
0.0
 10
-1.7742
 20
15.6621
 30
0.0
 10
-1.843
 20
15.5592
 30
0.0
 10
-1.9388
 20
15.4516
 30
0.0
 10
-1.9388
 20
15.4516
 30
0.0
 10
-2.0346
 20
15.3434
 30
0.0
 10
-2.194
 20
15.1952
 30
0.0
 10
-2.4168
 20
15.0071
 30
0.0
 10
-2.4168
 20
15.0071
 30
0.0
 10
-2.6026
 20
14.8507
 30
0.0
 10
-2.722
 20
14.7448
 30
0.0
 10
-2.7749
 20
14.689
 30
0.0
 10
-2.7749
 20
14.689
 30
0.0
 10
-2.8278
 20
14.6337
 30
0.0
 10
-2.8713
 20
14.5778
 30
0.0
 10
-2.906
 20
14.5214
 30
0.0
 10
-2.906
 20
14.5214
 30
0.0
 10
-2.906
 20
14.5214
 30
0.0
 10
-1.6672
 20
14.5214
 30
0.0
 10
-1.6672
 20
14.5214
 30
0.0
  0
SPLINE
  5
43
330
1F
100
AcDbEntity
  8
VRSTVA_1
 62
   250
100
AcDbSpline
210
0.0
220
0.0
230
1.0
 70
    11
 71
     3
 72
    52
 73
    48
 74
     0
 42
0.0000000001
 43
0.0000000001
 40
0.0
 40
0.0
 40
0.0
 40
0.0
 40
0.0769230769230769
 40
0.0769230769230769
 40
0.0769230769230769
 40
0.0769230769230769
 40
0.1538461538461539
 40
0.1538461538461539
 40
0.1538461538461539
 40
0.1538461538461539
 40
0.2307692307692308
 40
0.2307692307692308
 40
0.2307692307692308
 40
0.2307692307692308
 40
0.3076923076923077
 40
0.3076923076923077
 40
0.3076923076923077
 40
0.3076923076923077
 40
0.3846153846153846
 40
0.3846153846153846
 40
0.3846153846153846
 40
0.3846153846153846
 40
0.4615384615384616
 40
0.4615384615384616
 40
0.4615384615384616
 40
0.4615384615384616
 40
0.5384615384615384
 40
0.5384615384615384
 40
0.5384615384615384
 40
0.5384615384615384
 40
0.6153846153846154
 40
0.6153846153846154
 40
0.6153846153846154
 40
0.6153846153846154
 40
0.6923076923076923
 40
0.6923076923076923
 40
0.6923076923076923
 40
0.6923076923076923
 40
0.7692307692307693
 40
0.7692307692307693
 40
0.7692307692307693
 40
0.7692307692307693
 40
0.8461538461538461
 40
0.8461538461538461
 40
0.8461538461538461
 40
0.8461538461538461
 40
1.0
 40
1.0
 40
1.0
 40
1.0
 10
-1.335
 20
15.4686
 30
0.0
 10
-1.335
 20
15.7673
 30
0.0
 10
-1.3044
 20
16.0078
 30
0.0
 10
-1.2427
 20
16.1895
 30
0.0
 10
-1.2427
 20
16.1895
 30
0.0
 10
-1.1815
 20
16.3717
 30
0.0
 10
-1.0898
 20
16.5123
 30
0.0
 10
-0.9687
 20
16.611
 30
0.0
 10
-0.9687
 20
16.611
 30
0.0
 10
-0.8476
 20
16.7098
 30
0.0
 10
-0.6953
 20
16.7592
 30
0.0
 10
-0.5118
 20
16.7592
 30
0.0
 10
-0.5118
 20
16.7592
 30
0.0
 10
-0.376
 20
16.7592
 30
0.0
 10
-0.2573
 20
16.7316
 30
0.0
 10
-0.1549
 20
16.6769
 30
0.0
 10
-0.1549
 20
16.6769
 30
0.0
 10
-0.0526
 20
16.6228
 30
0.0
 10
0.0314
 20
16.544
 30
0.0
 10
0.0985
 20
16.4411
 30
0.0
 10
0.0985
 20
16.4411
 30
0.0
 10
0.1649
 20
16.3382
 30
0.0
 10
0.2172
 20
16.213
 30
0.0
 10
0.2549
 20
16.0654
 30
0.0
 10
0.2549
 20
16.0654
 30
0.0
 10
0.2931
 20
15.9178
 30
0.0
 10
0.3119
 20
15.7191
 30
0.0
 10
0.3119
 20
15.4686
 30
0.0
 10
0.3119
 20
15.4686
 30
0.0
 10
0.3119
 20
15.1723
 30
0.0
 10
0.2813
 20
14.9336
 30
0.0
 10
0.2208
 20
14.7513
 30
0.0
 10
0.2208
 20
14.7513
 30
0.0
 10
0.1596
 20
14.569
 30
0.0
 10
0.0685
 20
14.4285
 30
0.0
 10
-0.0526
 20
14.3291
 30
0.0
 10
-0.0526
 20
14.3291
 30
0.0
 10
-0.1738
 20
14.2298
 30
0.0
 10
-0.3266
 20
14.1804
 30
0.0
 10
-0.5118
 20
14.1804
 30
0.0
 10
-0.5118
 20
14.1804
 30
0.0
 10
-0.7553
 20
14.1804
 30
0.0
 10
-0.9464
 20
14.2674
 30
0.0
 10
-1.0851
 20
14.442
 30
0.0
 10
-1.0851
 20
14.442
 30
0.0
 10
-1.2515
 20
14.6519
 30
0.0
 10
-1.335
 20
14.9947
 30
0.0
 10
-1.335
 20
15.4686
 30
0.0
  0
SPLINE
  5
44
330
1F
100
AcDbEntity
  8
VRSTVA_1
 62
   250
100
AcDbSpline
210
0.0
220
0.0
230
1.0
 70
    11
 71
     3
 72
    36
 73
    32
 74
     0
 42
0.0000000001
 43
0.0000000001
 40
0.0
 40
0.0
 40
0.0
 40
0.0
 40
0.1111111111111111
 40
0.1111111111111111
 40
0.1111111111111111
 40
0.1111111111111111
 40
0.2222222222222222
 40
0.2222222222222222
 40
0.2222222222222222
 40
0.2222222222222222
 40
0.3333333333333333
 40
0.3333333333333333
 40
0.3333333333333333
 40
0.3333333333333333
 40
0.4444444444444444
 40
0.4444444444444444
 40
0.4444444444444444
 40
0.4444444444444444
 40
0.5555555555555556
 40
0.5555555555555556
 40
0.5555555555555556
 40
0.5555555555555556
 40
0.6666666666666666
 40
0.6666666666666666
 40
0.6666666666666666
 40
0.6666666666666666
 40
0.7777777777777778
 40
0.7777777777777778
 40
0.7777777777777778
 40
0.7777777777777778
 40
1.0
 40
1.0
 40
1.0
 40
1.0
 10
-1.0163
 20
15.4686
 30
0.0
 10
-1.0163
 20
15.0541
 30
0.0
 10
-0.9675
 20
14.7783
 30
0.0
 10
-0.8705
 20
14.6408
 30
0.0
 10
-0.8705
 20
14.6408
 30
0.0
 10
-0.7735
 20
14.5038
 30
0.0
 10
-0.6541
 20
14.435
 30
0.0
 10
-0.5118
 20
14.435
 30
0.0
 10
-0.5118
 20
14.435
 30
0.0
 10
-0.369
 20
14.435
 30
0.0
 10
-0.2496
 20
14.5043
 30
0.0
 10
-0.1526
 20
14.6419
 30
0.0
 10
-0.1526
 20
14.6419
 30
0.0
 10
-0.0556
 20
14.7795
 30
0.0
 10
-0.0068
 20
15.0553
 30
0.0
 10
-0.0068
 20
15.4686
 30
0.0
 10
-0.0068
 20
15.4686
 30
0.0
 10
-0.0068
 20
15.8843
 30
0.0
 10
-0.0556
 20
16.1607
 30
0.0
 10
-0.1526
 20
16.2971
 30
0.0
 10
-0.1526
 20
16.2971
 30
0.0
 10
-0.2496
 20
16.4341
 30
0.0
 10
-0.3701
 20
16.5023
 30
0.0
 10
-0.5148
 20
16.5023
 30
0.0
 10
-0.5148
 20
16.5023
 30
0.0
 10
-0.6577
 20
16.5023
 30
0.0
 10
-0.7711
 20
16.4417
 30
0.0
 10
-0.8564
 20
16.3212
 30
0.0
 10
-0.8564
 20
16.3212
 30
0.0
 10
-0.9628
 20
16.1677
 30
0.0
 10
-1.0163
 20
15.8831
 30
0.0
 10
-1.0163
 20
15.4686
 30
0.0
  0
SPLINE
  5
45
330
1F
100
AcDbEntity
  8
VRSTVA_1
 62
   250
100
AcDbSpline
210
0.0
220
0.0
230
1.0
 70
    11
 71
     3
 72
    84
 73
    80
 74
     0
 42
0.0000000001
 43
0.0000000001
 40
0.0
 40
0.0
 40
0.0
 40
0.0
 40
0.0476190476190476
 40
0.0476190476190476
 40
0.0476190476190476
 40
0.0476190476190476
 40
0.0952380952380952
 40
0.0952380952380952
 40
0.0952380952380952
 40
0.0952380952380952
 40
0.1428571428571428
 40
0.1428571428571428
 40
0.1428571428571428
 40
0.1428571428571428
 40
0.1904761904761905
 40
0.1904761904761905
 40
0.1904761904761905
 40
0.1904761904761905
 40
0.2380952380952381
 40
0.2380952380952381
 40
0.2380952380952381
 40
0.2380952380952381
 40
0.2857142857142857
 40
0.2857142857142857
 40
0.2857142857142857
 40
0.2857142857142857
 40
0.3333333333333333
 40
0.3333333333333333
 40
0.3333333333333333
 40
0.3333333333333333
 40
0.3809523809523809
 40
0.3809523809523809
 40
0.3809523809523809
 40
0.3809523809523809
 40
0.4285714285714285
 40
0.4285714285714285
 40
0.4285714285714285
 40
0.4285714285714285
 40
0.4761904761904762
 40
0.4761904761904762
 40
0.4761904761904762
 40
0.4761904761904762
 40
0.5238095238095238
 40
0.5238095238095238
 40
0.5238095238095238
 40
0.5238095238095238
 40
0.5714285714285714
 40
0.5714285714285714
 40
0.5714285714285714
 40
0.5714285714285714
 40
0.6190476190476191
 40
0.6190476190476191
 40
0.6190476190476191
 40
0.6190476190476191
 40
0.6666666666666666
 40
0.6666666666666666
 40
0.6666666666666666
 40
0.6666666666666666
 40
0.7142857142857143
 40
0.7142857142857143
 40
0.7142857142857143
 40
0.7142857142857143
 40
0.7619047619047619
 40
0.7619047619047619
 40
0.7619047619047619
 40
0.7619047619047619
 40
0.8095238095238095
 40
0.8095238095238095
 40
0.8095238095238095
 40
0.8095238095238095
 40
0.8571428571428571
 40
0.8571428571428571
 40
0.8571428571428571
 40
0.8571428571428571
 40
0.9047619047619048
 40
0.9047619047619048
 40
0.9047619047619048
 40
0.9047619047619048
 40
1.0
 40
1.0
 40
1.0
 40
1.0
 10
-4.804
 20
-14.2098
 30
0.0
 10
-4.804
 20
-14.2098
 30
0.0
 10
-5.1277
 20
-13.9202
 30
0.0
 10
-5.1277
 20
-13.9202
 30
0.0
 10
-5.1277
 20
-13.9202
 30
0.0
 10
-5.1277
 20
-13.9202
 30
0.0
 10
-4.9829
 20
-13.7499
 30
0.0
 10
-4.9829
 20
-13.7499
 30
0.0
 10
-4.9829
 20
-13.7499
 30
0.0
 10
-4.9829
 20
-13.7499
 30
0.0
 10
-4.6422
 20
-14.053
 30
0.0
 10
-4.6422
 20
-14.053
 30
0.0
 10
-4.6422
 20
-14.053
 30
0.0
 10
-4.4951
 20
-13.9544
 30
0.0
 10
-4.3662
 20
-13.8881
 30
0.0
 10
-4.2562
 20
-13.8535
 30
0.0
 10
-4.2562
 20
-13.8535
 30
0.0
 10
-4.1116
 20
-13.8077
 30
0.0
 10
-3.9492
 20
-13.785
 30
0.0
 10
-3.7705
 20
-13.7852
 30
0.0
 10
-3.7705
 20
-13.7852
 30
0.0
 10
-3.5118
 20
-13.7855
 30
0.0
 10
-3.2814
 20
-13.838
 30
0.0
 10
-3.0798
 20
-13.9429
 30
0.0
 10
-3.0798
 20
-13.9429
 30
0.0
 10
-2.8777
 20
-14.0477
 30
0.0
 10
-2.725
 20
-14.1943
 30
0.0
 10
-2.6217
 20
-14.3832
 30
0.0
 10
-2.6217
 20
-14.3832
 30
0.0
 10
-2.519
 20
-14.5726
 30
0.0
 10
-2.4675
 20
-14.7731
 30
0.0
 10
-2.4677
 20
-14.9853
 30
0.0
 10
-2.4677
 20
-14.9853
 30
0.0
 10
-2.4678
 20
-15.1441
 30
0.0
 10
-2.4903
 20
-15.2876
 30
0.0
 10
-2.5351
 20
-15.4163
 30
0.0
 10
-2.5351
 20
-15.4163
 30
0.0
 10
-2.5699
 20
-15.515
 30
0.0
 10
-2.6358
 20
-15.6302
 30
0.0
 10
-2.7337
 20
-15.7624
 30
0.0
 10
-2.7337
 20
-15.7624
 30
0.0
 10
-2.7337
 20
-15.7624
 30
0.0
 10
-2.41
 20
-16.052
 30
0.0
 10
-2.41
 20
-16.052
 30
0.0
 10
-2.41
 20
-16.052
 30
0.0
 10
-2.41
 20
-16.052
 30
0.0
 10
-2.5548
 20
-16.2224
 30
0.0
 10
-2.5548
 20
-16.2224
 30
0.0
 10
-2.5548
 20
-16.2224
 30
0.0
 10
-2.5548
 20
-16.2224
 30
0.0
 10
-2.8937
 20
-15.9186
 30
0.0
 10
-2.8937
 20
-15.9186
 30
0.0
 10
-2.8937
 20
-15.9186
 30
0.0
 10
-3.065
 20
-16.0313
 30
0.0
 10
-3.2114
 20
-16.1065
 30
0.0
 10
-3.3326
 20
-16.144
 30
0.0
 10
-3.3326
 20
-16.144
 30
0.0
 10
-3.4537
 20
-16.1814
 30
0.0
 10
-3.5995
 20
-16.2007
 30
0.0
 10
-3.7695
 20
-16.2005
 30
0.0
 10
-3.7695
 20
-16.2005
 30
0.0
 10
-4.0288
 20
-16.2002
 30
0.0
 10
-4.2598
 20
-16.1483
 30
0.0
 10
-4.4626
 20
-16.0446
 30
0.0
 10
-4.4626
 20
-16.0446
 30
0.0
 10
-4.6653
 20
-15.9409
 30
0.0
 10
-4.8186
 20
-15.7961
 30
0.0
 10
-4.923
 20
-15.609
 30
0.0
 10
-4.923
 20
-15.609
 30
0.0
 10
-5.0269
 20
-15.4225
 30
0.0
 10
-5.079
 20
-15.215
 30
0.0
 10
-5.0788
 20
-14.9863
 30
0.0
 10
-5.0788
 20
-14.9863
 30
0.0
 10
-5.0786
 20
-14.8322
 30
0.0
 10
-5.0585
 20
-14.6976
 30
0.0
 10
-5.0173
 20
-14.5823
 30
0.0
 10
-5.0173
 20
-14.5823
 30
0.0
 10
-4.9765
 20
-14.4672
 30
0.0
 10
-4.9053
 20
-14.3425
 30
0.0
 10
-4.804
 20
-14.2098
 30
0.0
  0
SPLINE
  5
46
330
1F
100
AcDbEntity
  8
VRSTVA_1
 62
   250
100
AcDbSpline
210
0.0
220
0.0
230
1.0
 70
    11
 71
     3
 72
    32
 73
    28
 74
     0
 42
0.0000000001
 43
0.0000000001
 40
0.0
 40
0.0
 40
0.0
 40
0.0
 40
0.125
 40
0.125
 40
0.125
 40
0.125
 40
0.25
 40
0.25
 40
0.25
 40
0.25
 40
0.375
 40
0.375
 40
0.375
 40
0.375
 40
0.5
 40
0.5
 40
0.5
 40
0.5
 40
0.625
 40
0.625
 40
0.625
 40
0.625
 40
0.75
 40
0.75
 40
0.75
 40
0.75
 40
1.0
 40
1.0
 40
1.0
 40
1.0
 10
-4.572
 20
-14.4164
 30
0.0
 10
-4.6568
 20
-14.5245
 30
0.0
 10
-4.7151
 20
-14.6191
 30
0.0
 10
-4.7463
 20
-14.6996
 30
0.0
 10
-4.7463
 20
-14.6996
 30
0.0
 10
-4.777
 20
-14.7808
 30
0.0
 10
-4.793
 20
-14.8759
 30
0.0
 10
-4.7931
 20
-14.9847
 30
0.0
 10
-4.7931
 20
-14.9847
 30
0.0
 10
-4.7933
 20
-15.2364
 30
0.0
 10
-4.7083
 20
-15.444
 30
0.0
 10
-4.5379
 20
-15.6088
 30
0.0
 10
-4.5379
 20
-15.6088
 30
0.0
 10
-4.3676
 20
-15.7731
 30
0.0
 10
-4.1131
 20
-15.8556
 30
0.0
 10
-3.7739
 20
-15.856
 30
0.0
 10
-3.7739
 20
-15.856
 30
0.0
 10
-3.641
 20
-15.8561
 30
0.0
 10
-3.5228
 20
-15.8434
 30
0.0
 10
-3.4192
 20
-15.8182
 30
0.0
 10
-3.4192
 20
-15.8182
 30
0.0
 10
-3.3422
 20
-15.8
 30
0.0
 10
-3.2475
 20
-15.7618
 30
0.0
 10
-3.1351
 20
-15.7032
 30
0.0
 10
-3.1351
 20
-15.7032
 30
0.0
 10
-3.1351
 20
-15.7032
 30
0.0
 10
-4.572
 20
-14.4164
 30
0.0
 10
-4.572
 20
-14.4164
 30
0.0
  0
SPLINE
  5
47
330
1F
100
AcDbEntity
  8
VRSTVA_1
 62
   250
100
AcDbSpline
210
0.0
220
0.0
230
1.0
 70
    11
 71
     3
 72
    28
 73
    24
 74
     0
 42
0.0000000001
 43
0.0000000001
 40
0.0
 40
0.0
 40
0.0
 40
0.0
 40
0.1428571428571428
 40
0.1428571428571428
 40
0.1428571428571428
 40
0.1428571428571428
 40
0.2857142857142857
 40
0.2857142857142857
 40
0.2857142857142857
 40
0.2857142857142857
 40
0.4285714285714285
 40
0.4285714285714285
 40
0.4285714285714285
 40
0.4285714285714285
 40
0.5714285714285714
 40
0.5714285714285714
 40
0.5714285714285714
 40
0.5714285714285714
 40
0.7142857142857143
 40
0.7142857142857143
 40
0.7142857142857143
 40
0.7142857142857143
 40
1.0
 40
1.0
 40
1.0
 40
1.0
 10
-4.3942
 20
-14.2755
 30
0.0
 10
-4.3942
 20
-14.2755
 30
0.0
 10
-2.9628
 20
-15.5569
 30
0.0
 10
-2.9628
 20
-15.5569
 30
0.0
 10
-2.9628
 20
-15.5569
 30
0.0
 10
-2.8903
 20
-15.4688
 30
0.0
 10
-2.8397
 20
-15.3872
 30
0.0
 10
-2.8108
 20
-15.3125
 30
0.0
 10
-2.8108
 20
-15.3125
 30
0.0
 10
-2.7724
 20
-15.2149
 30
0.0
 10
-2.7535
 20
-15.1092
 30
0.0
 10
-2.7534
 20
-14.9957
 30
0.0
 10
-2.7534
 20
-14.9957
 30
0.0
 10
-2.7531
 20
-14.7453
 30
0.0
 10
-2.8411
 20
-14.5388
 30
0.0
 10
-3.0179
 20
-14.3751
 30
0.0
 10
-3.0179
 20
-14.3751
 30
0.0
 10
-3.1948
 20
-14.2121
 30
0.0
 10
-3.4428
 20
-14.13
 30
0.0
 10
-3.7621
 20
-14.1297
 30
0.0
 10
-3.7621
 20
-14.1297
 30
0.0
 10
-4.0008
 20
-14.1295
 30
0.0
 10
-4.2119
 20
-14.178
 30
0.0
 10
-4.3942
 20
-14.2755
 30
0.0
  0
SPLINE
  5
48
330
1F
100
AcDbEntity
  8
VRSTVA_1
 62
   250
100
AcDbSpline
210
0.0
220
0.0
230
1.0
 70
    11
 71
     3
 72
    92
 73
    88
 74
     0
 42
0.0000000001
 43
0.0000000001
 40
0.0
 40
0.0
 40
0.0
 40
0.0
 40
0.0434782608695652
 40
0.0434782608695652
 40
0.0434782608695652
 40
0.0434782608695652
 40
0.0869565217391304
 40
0.0869565217391304
 40
0.0869565217391304
 40
0.0869565217391304
 40
0.1304347826086956
 40
0.1304347826086956
 40
0.1304347826086956
 40
0.1304347826086956
 40
0.1739130434782609
 40
0.1739130434782609
 40
0.1739130434782609
 40
0.1739130434782609
 40
0.2173913043478261
 40
0.2173913043478261
 40
0.2173913043478261
 40
0.2173913043478261
 40
0.2608695652173913
 40
0.2608695652173913
 40
0.2608695652173913
 40
0.2608695652173913
 40
0.3043478260869565
 40
0.3043478260869565
 40
0.3043478260869565
 40
0.3043478260869565
 40
0.3478260869565217
 40
0.3478260869565217
 40
0.3478260869565217
 40
0.3478260869565217
 40
0.391304347826087
 40
0.391304347826087
 40
0.391304347826087
 40
0.391304347826087
 40
0.4347826086956522
 40
0.4347826086956522
 40
0.4347826086956522
 40
0.4347826086956522
 40
0.4782608695652174
 40
0.4782608695652174
 40
0.4782608695652174
 40
0.4782608695652174
 40
0.5217391304347826
 40
0.5217391304347826
 40
0.5217391304347826
 40
0.5217391304347826
 40
0.5652173913043478
 40
0.5652173913043478
 40
0.5652173913043478
 40
0.5652173913043478
 40
0.6086956521739131
 40
0.6086956521739131
 40
0.6086956521739131
 40
0.6086956521739131
 40
0.6521739130434783
 40
0.6521739130434783
 40
0.6521739130434783
 40
0.6521739130434783
 40
0.6956521739130435
 40
0.6956521739130435
 40
0.6956521739130435
 40
0.6956521739130435
 40
0.7391304347826086
 40
0.7391304347826086
 40
0.7391304347826086
 40
0.7391304347826086
 40
0.782608695652174
 40
0.782608695652174
 40
0.782608695652174
 40
0.782608695652174
 40
0.8260869565217391
 40
0.8260869565217391
 40
0.8260869565217391
 40
0.8260869565217391
 40
0.8695652173913043
 40
0.8695652173913043
 40
0.8695652173913043
 40
0.8695652173913043
 40
0.9130434782608695
 40
0.9130434782608695
 40
0.9130434782608695
 40
0.9130434782608695
 40
1.0
 40
1.0
 40
1.0
 40
1.0
 10
-3.1705
 20
-13.4742
 30
0.0
 10
-3.1705
 20
-13.4742
 30
0.0
 10
-3.1978
 20
-13.1485
 30
0.0
 10
-3.1978
 20
-13.1485
 30
0.0
 10
-3.1978
 20
-13.1485
 30
0.0
 10
-3.039
 20
-13.1246
 30
0.0
 10
-2.9202
 20
-13.0688
 30
0.0
 10
-2.8401
 20
-12.9813
 30
0.0
 10
-2.8401
 20
-12.9813
 30
0.0
 10
-2.76
 20
-12.8931
 30
0.0
 10
-2.72
 20
-12.7874
 30
0.0
 10
-2.7199
 20
-12.6633
 30
0.0
 10
-2.7199
 20
-12.6633
 30
0.0
 10
-2.7197
 20
-12.514
 30
0.0
 10
-2.776
 20
-12.3874
 30
0.0
 10
-2.8882
 20
-12.2845
 30
0.0
 10
-2.8882
 20
-12.2845
 30
0.0
 10
-3.001
 20
-12.1809
 30
0.0
 10
-3.1502
 20
-12.1289
 30
0.0
 10
-3.336
 20
-12.1287
 30
0.0
 10
-3.336
 20
-12.1287
 30
0.0
 10
-3.513
 20
-12.1286
 30
0.0
 10
-3.6525
 20
-12.1778
 30
0.0
 10
-3.7549
 20
-12.2771
 30
0.0
 10
-3.7549
 20
-12.2771
 30
0.0
 10
-3.8573
 20
-12.3764
 30
0.0
 10
-3.9085
 20
-12.5063
 30
0.0
 10
-3.9087
 20
-12.6674
 30
0.0
 10
-3.9087
 20
-12.6674
 30
0.0
 10
-3.9088
 20
-12.7673
 30
0.0
 10
-3.886
 20
-12.8573
 30
0.0
 10
-3.8408
 20
-12.9379
 30
0.0
 10
-3.8408
 20
-12.9379
 30
0.0
 10
-3.7956
 20
-13.0185
 30
0.0
 10
-3.7369
 20
-13.0814
 30
0.0
 10
-3.6646
 20
-13.1274
 30
0.0
 10
-3.6646
 20
-13.1274
 30
0.0
 10
-3.6646
 20
-13.1274
 30
0.0
 10
-3.7026
 20
-13.4184
 30
0.0
 10
-3.7026
 20
-13.4184
 30
0.0
 10
-3.7026
 20
-13.4184
 30
0.0
 10
-3.7026
 20
-13.4184
 30
0.0
 10
-4.9993
 20
-13.1724
 30
0.0
 10
-4.9993
 20
-13.1724
 30
0.0
 10
-4.9993
 20
-13.1724
 30
0.0
 10
-4.9993
 20
-13.1724
 30
0.0
 10
-4.998
 20
-11.9165
 30
0.0
 10
-4.998
 20
-11.9165
 30
0.0
 10
-4.998
 20
-11.9165
 30
0.0
 10
-4.998
 20
-11.9165
 30
0.0
 10
-4.7017
 20
-11.9168
 30
0.0
 10
-4.7017
 20
-11.9168
 30
0.0
 10
-4.7017
 20
-11.9168
 30
0.0
 10
-4.7017
 20
-11.9168
 30
0.0
 10
-4.7028
 20
-12.9246
 30
0.0
 10
-4.7028
 20
-12.9246
 30
0.0
 10
-4.7028
 20
-12.9246
 30
0.0
 10
-4.7028
 20
-12.9246
 30
0.0
 10
-4.0244
 20
-13.0617
 30
0.0
 10
-4.0244
 20
-13.0617
 30
0.0
 10
-4.0244
 20
-13.0617
 30
0.0
 10
-4.13
 20
-12.9099
 30
0.0
 10
-4.1828
 20
-12.7506
 30
0.0
 10
-4.1826
 20
-12.5842
 30
0.0
 10
-4.1826
 20
-12.5842
 30
0.0
 10
-4.1824
 20
-12.3637
 30
0.0
 10
-4.1058
 20
-12.178
 30
0.0
 10
-3.9527
 20
-12.0264
 30
0.0
 10
-3.9527
 20
-12.0264
 30
0.0
 10
-3.7998
 20
-11.8749
 30
0.0
 10
-3.6033
 20
-11.7993
 30
0.0
 10
-3.3634
 20
-11.7995
 30
0.0
 10
-3.3634
 20
-11.7995
 30
0.0
 10
-3.1347
 20
-11.7998
 30
0.0
 10
-2.9372
 20
-11.867
 30
0.0
 10
-2.7709
 20
-12.0
 30
0.0
 10
-2.7709
 20
-12.0
 30
0.0
 10
-2.5671
 20
-12.1625
 30
0.0
 10
-2.465
 20
-12.3836
 30
0.0
 10
-2.4653
 20
-12.6635
 30
0.0
 10
-2.4653
 20
-12.6635
 30
0.0
 10
-2.4655
 20
-12.8934
 30
0.0
 10
-2.5298
 20
-13.081
 30
0.0
 10
-2.6587
 20
-13.226
 30
0.0
 10
-2.6587
 20
-13.226
 30
0.0
 10
-2.7876
 20
-13.3711
 30
0.0
 10
-2.9582
 20
-13.4538
 30
0.0
 10
-3.1705
 20
-13.4742
 30
0.0
  0
SPLINE
  5
49
330
1F
100
AcDbEntity
  8
VRSTVA_1
 62
   250
100
AcDbSpline
210
0.0
220
0.0
230
1.0
 70
    11
 71
     3
 72
    52
 73
    48
 74
     0
 42
0.0000000001
 43
0.0000000001
 40
0.0
 40
0.0
 40
0.0
 40
0.0
 40
0.0769230769230769
 40
0.0769230769230769
 40
0.0769230769230769
 40
0.0769230769230769
 40
0.1538461538461539
 40
0.1538461538461539
 40
0.1538461538461539
 40
0.1538461538461539
 40
0.2307692307692308
 40
0.2307692307692308
 40
0.2307692307692308
 40
0.2307692307692308
 40
0.3076923076923077
 40
0.3076923076923077
 40
0.3076923076923077
 40
0.3076923076923077
 40
0.3846153846153846
 40
0.3846153846153846
 40
0.3846153846153846
 40
0.3846153846153846
 40
0.4615384615384616
 40
0.4615384615384616
 40
0.4615384615384616
 40
0.4615384615384616
 40
0.5384615384615384
 40
0.5384615384615384
 40
0.5384615384615384
 40
0.5384615384615384
 40
0.6153846153846154
 40
0.6153846153846154
 40
0.6153846153846154
 40
0.6153846153846154
 40
0.6923076923076923
 40
0.6923076923076923
 40
0.6923076923076923
 40
0.6923076923076923
 40
0.7692307692307693
 40
0.7692307692307693
 40
0.7692307692307693
 40
0.7692307692307693
 40
0.8461538461538461
 40
0.8461538461538461
 40
0.8461538461538461
 40
0.8461538461538461
 40
1.0
 40
1.0
 40
1.0
 40
1.0
 10
-3.7523
 20
-11.5116
 30
0.0
 10
-4.051
 20
-11.5113
 30
0.0
 10
-4.2915
 20
-11.4805
 30
0.0
 10
-4.4731
 20
-11.4186
 30
0.0
 10
-4.4731
 20
-11.4186
 30
0.0
 10
-4.6552
 20
-11.3572
 30
0.0
 10
-4.7957
 20
-11.2653
 30
0.0
 10
-4.8943
 20
-11.1441
 30
0.0
 10
-4.8943
 20
-11.1441
 30
0.0
 10
-4.993
 20
-11.0229
 30
0.0
 10
-5.0422
 20
-10.8706
 30
0.0
 10
-5.042
 20
-10.6871
 30
0.0
 10
-5.042
 20
-10.6871
 30
0.0
 10
-5.0419
 20
-10.5513
 30
0.0
 10
-5.0142
 20
-10.4326
 30
0.0
 10
-4.9594
 20
-10.3303
 30
0.0
 10
-4.9594
 20
-10.3303
 30
0.0
 10
-4.9052
 20
-10.228
 30
0.0
 10
-4.8263
 20
-10.1441
 30
0.0
 10
-4.7233
 20
-10.0771
 30
0.0
 10
-4.7233
 20
-10.0771
 30
0.0
 10
-4.6203
 20
-10.0108
 30
0.0
 10
-4.4951
 20
-9.9587
 30
0.0
 10
-4.3475
 20
-9.9211
 30
0.0
 10
-4.3475
 20
-9.9211
 30
0.0
 10
-4.1998
 20
-9.8831
 30
0.0
 10
-4.0011
 20
-9.8645
 30
0.0
 10
-3.7506
 20
-9.8647
 30
0.0
 10
-3.7506
 20
-9.8647
 30
0.0
 10
-3.4543
 20
-9.865
 30
0.0
 10
-3.2156
 20
-9.8959
 30
0.0
 10
-3.0334
 20
-9.9566
 30
0.0
 10
-3.0334
 20
-9.9566
 30
0.0
 10
-2.8512
 20
-10.0179
 30
0.0
 10
-2.7107
 20
-10.1092
 30
0.0
 10
-2.6115
 20
-10.2304
 30
0.0
 10
-2.6115
 20
-10.2304
 30
0.0
 10
-2.5123
 20
-10.3517
 30
0.0
 10
-2.4631
 20
-10.5045
 30
0.0
 10
-2.4632
 20
-10.6897
 30
0.0
 10
-2.4632
 20
-10.6897
 30
0.0
 10
-2.4635
 20
-10.9332
 30
0.0
 10
-2.5507
 20
-11.1243
 30
0.0
 10
-2.7254
 20
-11.2628
 30
0.0
 10
-2.7254
 20
-11.2628
 30
0.0
 10
-2.9355
 20
-11.429
 30
0.0
 10
-3.2784
 20
-11.5121
 30
0.0
 10
-3.7523
 20
-11.5116
 30
0.0
  0
SPLINE
  5
4A
330
1F
100
AcDbEntity
  8
VRSTVA_1
 62
   250
100
AcDbSpline
210
0.0
220
0.0
230
1.0
 70
    11
 71
     3
 72
    36
 73
    32
 74
     0
 42
0.0000000001
 43
0.0000000001
 40
0.0
 40
0.0
 40
0.0
 40
0.0
 40
0.1111111111111111
 40
0.1111111111111111
 40
0.1111111111111111
 40
0.1111111111111111
 40
0.2222222222222222
 40
0.2222222222222222
 40
0.2222222222222222
 40
0.2222222222222222
 40
0.3333333333333333
 40
0.3333333333333333
 40
0.3333333333333333
 40
0.3333333333333333
 40
0.4444444444444444
 40
0.4444444444444444
 40
0.4444444444444444
 40
0.4444444444444444
 40
0.5555555555555556
 40
0.5555555555555556
 40
0.5555555555555556
 40
0.5555555555555556
 40
0.6666666666666666
 40
0.6666666666666666
 40
0.6666666666666666
 40
0.6666666666666666
 40
0.7777777777777778
 40
0.7777777777777778
 40
0.7777777777777778
 40
0.7777777777777778
 40
1.0
 40
1.0
 40
1.0
 40
1.0
 10
-3.752
 20
-11.1929
 30
0.0
 10
-3.3375
 20
-11.1933
 30
0.0
 10
-3.0616
 20
-11.1448
 30
0.0
 10
-2.924
 20
-11.048
 30
0.0
 10
-2.924
 20
-11.048
 30
0.0
 10
-2.7869
 20
-10.9511
 30
0.0
 10
-2.718
 20
-10.8318
 30
0.0
 10
-2.7178
 20
-10.6895
 30
0.0
 10
-2.7178
 20
-10.6895
 30
0.0
 10
-2.7177
 20
-10.5467
 30
0.0
 10
-2.7869
 20
-10.4272
 30
0.0
 10
-2.9244
 20
-10.3301
 30
0.0
 10
-2.9244
 20
-10.3301
 30
0.0
 10
-3.0619
 20
-10.2329
 30
0.0
 10
-3.3376
 20
-10.1838
 30
0.0
 10
-3.7509
 20
-10.1834
 30
0.0
 10
-3.7509
 20
-10.1834
 30
0.0
 10
-4.1666
 20
-10.183
 30
0.0
 10
-4.4431
 20
-10.2315
 30
0.0
 10
-4.5796
 20
-10.3284
 30
0.0
 10
-4.5796
 20
-10.3284
 30
0.0
 10
-4.7167
 20
-10.4252
 30
0.0
 10
-4.785
 20
-10.5457
 30
0.0
 10
-4.7851
 20
-10.6904
 30
0.0
 10
-4.7851
 20
-10.6904
 30
0.0
 10
-4.7853
 20
-10.8333
 30
0.0
 10
-4.7248
 20
-10.9467
 30
0.0
 10
-4.6044
 20
-11.0321
 30
0.0
 10
-4.6044
 20
-11.0321
 30
0.0
 10
-4.451
 20
-11.1387
 30
0.0
 10
-4.1665
 20
-11.1925
 30
0.0
 10
-3.752
 20
-11.1929
 30
0.0
  0
SPLINE
  5
4B
330
1F
100
AcDbEntity
  8
VRSTVA_1
 62
   250
100
AcDbSpline
210
0.0
220
0.0
230
1.0
 70
    24
 71
     3
 72
     8
 73
     4
 74
     0
 42
0.0000000001
 43
0.0000000001
 40
0.0
 40
0.0
 40
0.0
 40
0.0
 40
1.0
 40
1.0
 40
1.0
 40
1.0
 10
24.6926
 20
4.8447
 30
0.0
 10
24.6926
 20
4.8447
 30
0.0
 10
24.6926
 20
14.0967
 30
0.0
 10
24.6926
 20
14.0967
 30
0.0
  0
SPLINE
  5
4C
330
1F
100
AcDbEntity
  8
VRSTVA_1
 62
   250
100
AcDbSpline
210
0.0
220
0.0
230
1.0
 70
    24
 71
     3
 72
     8
 73
     4
 74
     0
 42
0.0000000001
 43
0.0000000001
 40
0.0
 40
0.0
 40
0.0
 40
0.0
 40
1.0
 40
1.0
 40
1.0
 40
1.0
 10
-29.5126
 20
13.1191
 30
0.0
 10
-29.5126
 20
13.1191
 30
0.0
 10
24.0674
 20
13.1191
 30
0.0
 10
24.0674
 20
13.1191
 30
0.0
  0
SPLINE
  5
4D
330
1F
100
AcDbEntity
  8
VRSTVA_1
 62
   250
100
AcDbSpline
210
0.0
220
0.0
230
1.0
 70
    24
 71
     3
 72
     8
 73
     4
 74
     0
 42
0.0000000001
 43
0.0000000001
 40
0.0
 40
0.0
 40
0.0
 40
0.0
 40
1.0
 40
1.0
 40
1.0
 40
1.0
 10
-1.9109
 20
-6.098
 30
0.0
 10
-1.9109
 20
-6.098
 30
0.0
 10
-1.1873
 20
-6.098
 30
0.0
 10
-1.1873
 20
-6.098
 30
0.0
  0
SPLINE
  5
4E
330
1F
100
AcDbEntity
  8
VRSTVA_1
 62
   250
100
AcDbSpline
210
0.0
220
0.0
230
1.0
 70
    24
 71
     3
 72
     8
 73
     4
 74
     0
 42
0.0000000001
 43
0.0000000001
 40
0.0
 40
0.0
 40
0.0
 40
0.0
 40
1.0
 40
1.0
 40
1.0
 40
1.0
 10
-2.4271
 20
3.8203
 30
0.0
 10
-2.4271
 20
3.8203
 30
0.0
 10
-1.7035
 20
3.8203
 30
0.0
 10
-1.7035
 20
3.8203
 30
0.0
  0
SPLINE
  5
4F
330
1F
100
AcDbEntity
  8
VRSTVA_1
 62
   250
100
AcDbSpline
210
0.0
220
0.0
230
1.0
 70
    24
 71
     3
 72
     8
 73
     4
 74
     0
 42
0.0000000001
 43
0.0000000001
 40
0.0
 40
0.0
 40
0.0
 40
0.0
 40
1.0
 40
1.0
 40
1.0
 40
1.0
 10
-1.8068
 20
10.1428
 30
0.0
 10
-1.8068
 20
10.1428
 30
0.0
 10
-1.8068
 20
-16.7592
 30
0.0
 10
-1.8068
 20
-16.7592
 30
0.0
  0
SPLINE
  5
50
330
1F
100
AcDbEntity
  8
VRSTVA_1
 62
   250
100
AcDbSpline
210
0.0
220
0.0
230
1.0
 70
    24
 71
     3
 72
     8
 73
     4
 74
     0
 42
0.0000000001
 43
0.0000000001
 40
0.0
 40
0.0
 40
0.0
 40
0.0
 40
1.0
 40
1.0
 40
1.0
 40
1.0
 10
18.363
 20
-10.6852
 30
0.0
 10
18.363
 20
-10.6852
 30
0.0
 10
18.4869
 20
-10.6852
 30
0.0
 10
18.4869
 20
-10.6852
 30
0.0
  0
SPLINE
  5
51
330
1F
100
AcDbEntity
  8
VRSTVA_1
 62
   250
100
AcDbSpline
210
0.0
220
0.0
230
1.0
 70
    24
 71
     3
 72
     8
 73
     4
 74
     0
 42
0.0000000001
 43
0.0000000001
 40
0.0
 40
0.0
 40
0.0
 40
0.0
 40
1.0
 40
1.0
 40
1.0
 40
1.0
 10
15.5115
 20
-10.0653
 30
0.0
 10
15.5115
 20
-10.0653
 30
0.0
 10
17.7431
 20
-10.0653
 30
0.0
 10
17.7431
 20
-10.0653
 30
0.0
  0
SPLINE
  5
52
330
1F
100
AcDbEntity
  8
VRSTVA_1
 62
   250
100
AcDbSpline
210
0.0
220
0.0
230
1.0
 70
    24
 71
     3
 72
     8
 73
     4
 74
     0
 42
0.0000000001
 43
0.0000000001
 40
0.0
 40
0.0
 40
0.0
 40
0.0
 40
1.0
 40
1.0
 40
1.0
 40
1.0
 10
15.5115
 20
7.7876
 30
0.0
 10
15.5115
 20
7.7876
 30
0.0
 10
17.7431
 20
7.7876
 30
0.0
 10
17.7431
 20
7.7876
 30
0.0
  0
SPLINE
  5
53
330
1F
100
AcDbEntity
  8
VRSTVA_1
 62
   250
100
AcDbSpline
210
0.0
220
0.0
230
1.0
 70
    24
 71
     3
 72
     8
 73
     4
 74
     0
 42
0.0000000001
 43
0.0000000001
 40
0.0
 40
0.0
 40
0.0
 40
0.0
 40
1.0
 40
1.0
 40
1.0
 40
1.0
 10
18.363
 20
8.4075
 30
0.0
 10
18.363
 20
8.4075
 30
0.0
 10
18.4869
 20
8.4075
 30
0.0
 10
18.4869
 20
8.4075
 30
0.0
  0
SPLINE
  5
54
330
1F
100
AcDbEntity
  8
VRSTVA_1
 62
   250
100
AcDbSpline
210
0.0
220
0.0
230
1.0
 70
    24
 71
     3
 72
     8
 73
     4
 74
     0
 42
0.0000000001
 43
0.0000000001
 40
0.0
 40
0.0
 40
0.0
 40
0.0
 40
1.0
 40
1.0
 40
1.0
 40
1.0
 10
17.7431
 20
-10.0653
 30
0.0
 10
17.7431
 20
-10.0653
 30
0.0
 10
18.363
 20
-10.6852
 30
0.0
 10
18.363
 20
-10.6852
 30
0.0
  0
SPLINE
  5
55
330
1F
100
AcDbEntity
  8
VRSTVA_1
 62
   250
100
AcDbSpline
210
0.0
220
0.0
230
1.0
 70
    24
 71
     3
 72
     8
 73
     4
 74
     0
 42
0.0000000001
 43
0.0000000001
 40
0.0
 40
0.0
 40
0.0
 40
0.0
 40
1.0
 40
1.0
 40
1.0
 40
1.0
 10
12.0401
 20
4.3162
 30
0.0
 10
12.0401
 20
4.3162
 30
0.0
 10
12.0401
 20
-6.5939
 30
0.0
 10
12.0401
 20
-6.5939
 30
0.0
  0
SPLINE
  5
56
330
1F
100
AcDbEntity
  8
VRSTVA_1
 62
   250
100
AcDbSpline
210
0.0
220
0.0
230
1.0
 70
    24
 71
     3
 72
     8
 73
     4
 74
     0
 42
0.0000000001
 43
0.0000000001
 40
0.0
 40
0.0
 40
0.0
 40
0.0
 40
1.0
 40
1.0
 40
1.0
 40
1.0
 10
17.7431
 20
7.7876
 30
0.0
 10
17.7431
 20
7.7876
 30
0.0
 10
17.7431
 20
-10.0653
 30
0.0
 10
17.7431
 20
-10.0653
 30
0.0
  0
SPLINE
  5
57
330
1F
100
AcDbEntity
  8
VRSTVA_1
 62
   250
100
AcDbSpline
210
0.0
220
0.0
230
1.0
 70
    24
 71
     3
 72
     8
 73
     4
 74
     0
 42
0.0000000001
 43
0.0000000001
 40
0.0
 40
0.0
 40
0.0
 40
0.0
 40
1.0
 40
1.0
 40
1.0
 40
1.0
 10
18.4869
 20
8.4075
 30
0.0
 10
18.4869
 20
8.4075
 30
0.0
 10
18.4869
 20
-10.6852
 30
0.0
 10
18.4869
 20
-10.6852
 30
0.0
  0
SPLINE
  5
58
330
1F
100
AcDbEntity
  8
VRSTVA_1
 62
   250
100
AcDbSpline
210
0.0
220
0.0
230
1.0
 70
    24
 71
     3
 72
     8
 73
     4
 74
     0
 42
0.0000000001
 43
0.0000000001
 40
0.0
 40
0.0
 40
0.0
 40
0.0
 40
1.0
 40
1.0
 40
1.0
 40
1.0
 10
17.7431
 20
7.7876
 30
0.0
 10
17.7431
 20
7.7876
 30
0.0
 10
18.363
 20
8.4075
 30
0.0
 10
18.363
 20
8.4075
 30
0.0
  0
SPLINE
  5
59
330
1F
100
AcDbEntity
  8
VRSTVA_1
 62
   250
100
AcDbSpline
210
0.0
220
0.0
230
1.0
 70
     8
 71
     3
 72
     8
 73
     4
 74
     0
 42
0.0000000001
 43
0.0000000001
 40
0.0
 40
0.0
 40
0.0
 40
0.0
 40
1.0
 40
1.0
 40
1.0
 40
1.0
 10
15.5115
 20
7.7876
 30
0.0
 10
13.5943
 20
7.7876
 30
0.0
 10
12.0401
 20
6.2334
 30
0.0
 10
12.0401
 20
4.3162
 30
0.0
  0
SPLINE
  5
5A
330
1F
100
AcDbEntity
  8
VRSTVA_1
 62
   250
100
AcDbSpline
210
0.0
220
0.0
230
1.0
 70
     8
 71
     3
 72
     8
 73
     4
 74
     0
 42
0.0000000001
 43
0.0000000001
 40
0.0
 40
0.0
 40
0.0
 40
0.0
 40
1.0
 40
1.0
 40
1.0
 40
1.0
 10
12.0401
 20
-6.5939
 30
0.0
 10
12.0401
 20
-8.5111
 30
0.0
 10
13.5943
 20
-10.0653
 30
0.0
 10
15.5115
 20
-10.0653
 30
0.0
  0
SPLINE
  5
5B
330
1F
100
AcDbEntity
  8
VRSTVA_1
  6
NEW_LINE1
 62
   250
100
AcDbSpline
210
0.0
220
0.0
230
1.0
 70
    24
 71
     3
 72
     8
 73
     4
 74
     0
 42
0.0000000001
 43
0.0000000001
 40
0.0
 40
0.0
 40
0.0
 40
0.0
 40
1.0
 40
1.0
 40
1.0
 40
1.0
 10
-32.0059
 20
-1.1388
 30
0.0
 10
-32.0059
 20
-1.1388
 30
0.0
 10
25.9257
 20
-1.1388
 30
0.0
 10
25.9257
 20
-1.1388
 30
0.0
  0
SPLINE
  5
5D
330
1F
100
AcDbEntity
  8
VRSTVA_1
 62
   250
100
AcDbSpline
210
0.0
220
0.0
230
1.0
 70
    11
 71
     3
 72
    20
 73
    16
 74
     0
 42
0.0000000001
 43
0.0000000001
 40
0.0
 40
0.0
 40
0.0
 40
0.0
 40
0.2
 40
0.2
 40
0.2
 40
0.2
 40
0.4
 40
0.4
 40
0.4
 40
0.4
 40
0.6
 40
0.6
 40
0.6
 40
0.6
 40
1.0
 40
1.0
 40
1.0
 40
1.0
 10
-27.2811
 20
13.5794
 30
0.0
 10
-27.2811
 20
13.5794
 30
0.0
 10
-30.271
 20
13.1867
 30
0.0
 10
-30.271
 20
13.1867
 30
0.0
 10
-30.271
 20
13.1867
 30
0.0
 10
-30.271
 20
13.1867
 30
0.0
 10
-30.2703
 20
13.0289
 30
0.0
 10
-30.2703
 20
13.0289
 30
0.0
 10
-30.2703
 20
13.0289
 30
0.0
 10
-30.2703
 20
13.0289
 30
0.0
 10
-27.2711
 20
12.5757
 30
0.0
 10
-27.2711
 20
12.5757
 30
0.0
 10
-27.2711
 20
12.5757
 30
0.0
 10
-27.2711
 20
12.5757
 30
0.0
 10
-27.2811
 20
13.5794
 30
0.0
 10
-27.2811
 20
13.5794
 30
0.0
  0
SPLINE
  5
5E
330
1F
100
AcDbEntity
  8
VRSTVA_1
 62
   250
100
AcDbSpline
210
0.0
220
0.0
230
1.0
 70
    11
 71
     3
 72
    20
 73
    16
 74
     0
 42
0.0000000001
 43
0.0000000001
 40
0.0
 40
0.0
 40
0.0
 40
0.0
 40
0.2
 40
0.2
 40
0.2
 40
0.2
 40
0.4
 40
0.4
 40
0.4
 40
0.4
 40
0.6
 40
0.6
 40
0.6
 40
0.6
 40
1.0
 40
1.0
 40
1.0
 40
1.0
 10
21.6036
 20
12.6868
 30
0.0
 10
21.6036
 20
12.6868
 30
0.0
 10
24.5936
 20
13.0795
 30
0.0
 10
24.5936
 20
13.0795
 30
0.0
 10
24.5936
 20
13.0795
 30
0.0
 10
24.5936
 20
13.0795
 30
0.0
 10
24.5929
 20
13.2373
 30
0.0
 10
24.5929
 20
13.2373
 30
0.0
 10
24.5929
 20
13.2373
 30
0.0
 10
24.5929
 20
13.2373
 30
0.0
 10
21.5936
 20
13.6905
 30
0.0
 10
21.5936
 20
13.6905
 30
0.0
 10
21.5936
 20
13.6905
 30
0.0
 10
21.5936
 20
13.6905
 30
0.0
 10
21.6036
 20
12.6868
 30
0.0
 10
21.6036
 20
12.6868
 30
0.0
  0
SPLINE
  5
5F
330
1F
100
AcDbEntity
  8
VRSTVA_1
 62
   250
100
AcDbSpline
210
0.0
220
0.0
230
1.0
 70
    11
 71
     3
 72
    20
 73
    16
 74
     0
 42
0.0000000001
 43
0.0000000001
 40
0.0
 40
0.0
 40
0.0
 40
0.0
 40
0.2
 40
0.2
 40
0.2
 40
0.2
 40
0.4
 40
0.4
 40
0.4
 40
0.4
 40
0.6
 40
0.6
 40
0.6
 40
0.6
 40
1.0
 40
1.0
 40
1.0
 40
1.0
 10
-2.2925
 20
7.033
 30
0.0
 10
-2.2925
 20
7.033
 30
0.0
 10
-1.8999
 20
4.0431
 30
0.0
 10
-1.8999
 20
4.0431
 30
0.0
 10
-1.8999
 20
4.0431
 30
0.0
 10
-1.8999
 20
4.0431
 30
0.0
 10
-1.7421
 20
4.0438
 30
0.0
 10
-1.7421
 20
4.0438
 30
0.0
 10
-1.7421
 20
4.0438
 30
0.0
 10
-1.7421
 20
4.0438
 30
0.0
 10
-1.2889
 20
7.0431
 30
0.0
 10
-1.2889
 20
7.0431
 30
0.0
 10
-1.2889
 20
7.0431
 30
0.0
 10
-1.2889
 20
7.0431
 30
0.0
 10
-2.2925
 20
7.033
 30
0.0
 10
-2.2925
 20
7.033
 30
0.0
  0
SPLINE
  5
60
330
1F
100
AcDbEntity
  8
VRSTVA_1
 62
   250
100
AcDbSpline
210
0.0
220
0.0
230
1.0
 70
    11
 71
     3
 72
    20
 73
    16
 74
     0
 42
0.0000000001
 43
0.0000000001
 40
0.0
 40
0.0
 40
0.0
 40
0.0
 40
0.2
 40
0.2
 40
0.2
 40
0.2
 40
0.4
 40
0.4
 40
0.4
 40
0.4
 40
0.6
 40
0.6
 40
0.6
 40
0.6
 40
1.0
 40
1.0
 40
1.0
 40
1.0
 10
-1.3505
 20
-9.2905
 30
0.0
 10
-1.3505
 20
-9.2905
 30
0.0
 10
-1.7432
 20
-6.3004
 30
0.0
 10
-1.7432
 20
-6.3004
 30
0.0
 10
-1.7432
 20
-6.3004
 30
0.0
 10
-1.7432
 20
-6.3004
 30
0.0
 10
-1.901
 20
-6.3011
 30
0.0
 10
-1.901
 20
-6.3011
 30
0.0
 10
-1.901
 20
-6.3011
 30
0.0
 10
-1.901
 20
-6.3011
 30
0.0
 10
-2.3543
 20
-9.3005
 30
0.0
 10
-2.3543
 20
-9.3005
 30
0.0
 10
-2.3543
 20
-9.3005
 30
0.0
 10
-2.3543
 20
-9.3005
 30
0.0
 10
-1.3505
 20
-9.2905
 30
0.0
 10
-1.3505
 20
-9.2905
 30
0.0
  0
SPLINE
  5
61
330
1F
100
AcDbEntity
  8
VRSTVA_1
 62
   250
100
AcDbSpline
210
0.0
220
0.0
230
1.0
 70
    27
 71
     3
 72
    12
 73
     8
 74
     0
 42
0.0000000001
 43
0.0000000001
 40
0.0
 40
0.0
 40
0.0
 40
0.0
 40
0.3333333333333333
 40
0.3333333333333333
 40
0.3333333333333333
 40
0.3333333333333333
 40
1.0
 40
1.0
 40
1.0
 40
1.0
 10
12.0394
 20
3.8203
 30
0.0
 10
12.0394
 20
3.8203
 30
0.0
 10
-30.4059
 20
3.8203
 30
0.0
 10
-30.4059
 20
3.8203
 30
0.0
 10
-30.4059
 20
3.8203
 30
0.0
 10
-30.4059
 20
3.8203
 30
0.0
 10
12.0394
 20
3.8203
 30
0.0
 10
12.0394
 20
3.8203
 30
0.0
  0
SPLINE
  5
62
330
1F
100
AcDbEntity
  8
VRSTVA_1
 62
   250
100
AcDbSpline
210
0.0
220
0.0
230
1.0
 70
    27
 71
     3
 72
    12
 73
     8
 74
     0
 42
0.0000000001
 43
0.0000000001
 40
0.0
 40
0.0
 40
0.0
 40
0.0
 40
0.3333333333333333
 40
0.3333333333333333
 40
0.3333333333333333
 40
0.3333333333333333
 40
1.0
 40
1.0
 40
1.0
 40
1.0
 10
12.0394
 20
-6.0989
 30
0.0
 10
12.0394
 20
-6.0989
 30
0.0
 10
-30.2535
 20
-6.0989
 30
0.0
 10
-30.2535
 20
-6.0989
 30
0.0
 10
-30.2535
 20
-6.0989
 30
0.0
 10
-30.2535
 20
-6.0989
 30
0.0
 10
12.0394
 20
-6.0989
 30
0.0
 10
12.0394
 20
-6.0989
 30
0.0
  0
SPLINE
  5
63
330
1F
100
AcDbEntity
  8
VRSTVA_1
 62
   250
100
AcDbSpline
210
0.0
220
0.0
230
1.0
 70
     8
 71
     3
 72
    16
 73
    12
 74
     0
 42
0.0000000001
 43
0.0000000001
 40
0.0
 40
0.0
 40
0.0
 40
0.0
 40
0.25
 40
0.25
 40
0.25
 40
0.25
 40
0.5
 40
0.5
 40
0.5
 40
0.5
 40
1.0
 40
1.0
 40
1.0
 40
1.0
 10
18.4868
 20
3.8203
 30
0.0
 10
18.4868
 20
3.8203
 30
0.0
 10
24.6859
 20
3.8203
 30
0.0
 10
24.6859
 20
3.8203
 30
0.0
 10
24.6859
 20
3.8203
 30
0.0
 10
24.6859
 20
3.8203
 30
0.0
 10
24.6499
 20
-6.1493
 30
0.0
 10
24.6499
 20
-6.1493
 30
0.0
 10
24.6499
 20
-6.1493
 30
0.0
 10
24.6499
 20
-6.1493
 30
0.0
 10
18.5321
 20
-6.1493
 30
0.0
 10
18.5321
 20
-6.1493
 30
0.0
  0
SPLINE
  5
64
330
1F
100
AcDbEntity
  8
VRSTVA_1
 62
   250
100
AcDbSpline
210
0.0
220
0.0
230
1.0
 70
    24
 71
     3
 72
     8
 73
     4
 74
     0
 42
0.0000000001
 43
0.0000000001
 40
0.0
 40
0.0
 40
0.0
 40
0.0
 40
1.0
 40
1.0
 40
1.0
 40
1.0
 10
-30.4024
 20
3.7147
 30
0.0
 10
-30.4024
 20
3.7147
 30
0.0
 10
-30.3547
 20
-6.1739
 30
0.0
 10
-30.3547
 20
-6.1739
 30
0.0
  0
SPLINE
  5
65
330
1F
100
AcDbEntity
  8
VRSTVA_1
 62
   250
100
AcDbSpline
210
0.0
220
0.0
230
1.0
 70
    24
 71
     3
 72
     8
 73
     4
 74
     0
 42
0.0000000001
 43
0.0000000001
 40
0.0
 40
0.0
 40
0.0
 40
0.0
 40
1.0
 40
1.0
 40
1.0
 40
1.0
 10
-30.3906
 20
4.8447
 30
0.0
 10
-30.3906
 20
4.8447
 30
0.0
 10
-30.3906
 20
13.98
 30
0.0
 10
-30.3906
 20
13.98
 30
0.0
  0
SPLINE
  5
66
330
1F
100
AcDbEntity
  8
VRSTVA_1
 62
   250
100
AcDbSpline
210
0.0
220
0.0
230
1.0
 70
    11
 71
     3
 72
    84
 73
    80
 74
     0
 42
0.0000000001
 43
0.0000000001
 40
0.0
 40
0.0
 40
0.0
 40
0.0
 40
0.0476190476190476
 40
0.0476190476190476
 40
0.0476190476190476
 40
0.0476190476190476
 40
0.0952380952380952
 40
0.0952380952380952
 40
0.0952380952380952
 40
0.0952380952380952
 40
0.1428571428571428
 40
0.1428571428571428
 40
0.1428571428571428
 40
0.1428571428571428
 40
0.1904761904761905
 40
0.1904761904761905
 40
0.1904761904761905
 40
0.1904761904761905
 40
0.2380952380952381
 40
0.2380952380952381
 40
0.2380952380952381
 40
0.2380952380952381
 40
0.2857142857142857
 40
0.2857142857142857
 40
0.2857142857142857
 40
0.2857142857142857
 40
0.3333333333333333
 40
0.3333333333333333
 40
0.3333333333333333
 40
0.3333333333333333
 40
0.3809523809523809
 40
0.3809523809523809
 40
0.3809523809523809
 40
0.3809523809523809
 40
0.4285714285714285
 40
0.4285714285714285
 40
0.4285714285714285
 40
0.4285714285714285
 40
0.4761904761904762
 40
0.4761904761904762
 40
0.4761904761904762
 40
0.4761904761904762
 40
0.5238095238095238
 40
0.5238095238095238
 40
0.5238095238095238
 40
0.5238095238095238
 40
0.5714285714285714
 40
0.5714285714285714
 40
0.5714285714285714
 40
0.5714285714285714
 40
0.6190476190476191
 40
0.6190476190476191
 40
0.6190476190476191
 40
0.6190476190476191
 40
0.6666666666666666
 40
0.6666666666666666
 40
0.6666666666666666
 40
0.6666666666666666
 40
0.7142857142857143
 40
0.7142857142857143
 40
0.7142857142857143
 40
0.7142857142857143
 40
0.7619047619047619
 40
0.7619047619047619
 40
0.7619047619047619
 40
0.7619047619047619
 40
0.8095238095238095
 40
0.8095238095238095
 40
0.8095238095238095
 40
0.8095238095238095
 40
0.8571428571428571
 40
0.8571428571428571
 40
0.8571428571428571
 40
0.8571428571428571
 40
0.9047619047619048
 40
0.9047619047619048
 40
0.9047619047619048
 40
0.9047619047619048
 40
1.0
 40
1.0
 40
1.0
 40
1.0
 10
28.4089
 20
-2.4429
 30
0.0
 10
28.4089
 20
-2.4429
 30
0.0
 10
28.0852
 20
-2.1533
 30
0.0
 10
28.0852
 20
-2.1533
 30
0.0
 10
28.0852
 20
-2.1533
 30
0.0
 10
28.0852
 20
-2.1533
 30
0.0
 10
28.23
 20
-1.983
 30
0.0
 10
28.23
 20
-1.983
 30
0.0
 10
28.23
 20
-1.983
 30
0.0
 10
28.23
 20
-1.983
 30
0.0
 10
28.5707
 20
-2.2861
 30
0.0
 10
28.5707
 20
-2.2861
 30
0.0
 10
28.5707
 20
-2.2861
 30
0.0
 10
28.7178
 20
-2.1875
 30
0.0
 10
28.8467
 20
-2.1212
 30
0.0
 10
28.9567
 20
-2.0866
 30
0.0
 10
28.9567
 20
-2.0866
 30
0.0
 10
29.1013
 20
-2.0408
 30
0.0
 10
29.2637
 20
-2.0181
 30
0.0
 10
29.4424
 20
-2.0183
 30
0.0
 10
29.4424
 20
-2.0183
 30
0.0
 10
29.7011
 20
-2.0186
 30
0.0
 10
29.9315
 20
-2.0711
 30
0.0
 10
30.1331
 20
-2.176
 30
0.0
 10
30.1331
 20
-2.176
 30
0.0
 10
30.3352
 20
-2.2808
 30
0.0
 10
30.4879
 20
-2.4274
 30
0.0
 10
30.5912
 20
-2.6163
 30
0.0
 10
30.5912
 20
-2.6163
 30
0.0
 10
30.6939
 20
-2.8057
 30
0.0
 10
30.7454
 20
-3.0062
 30
0.0
 10
30.7452
 20
-3.2184
 30
0.0
 10
30.7452
 20
-3.2184
 30
0.0
 10
30.7451
 20
-3.3772
 30
0.0
 10
30.7226
 20
-3.5207
 30
0.0
 10
30.6778
 20
-3.6494
 30
0.0
 10
30.6778
 20
-3.6494
 30
0.0
 10
30.643
 20
-3.7481
 30
0.0
 10
30.5771
 20
-3.8633
 30
0.0
 10
30.4792
 20
-3.9955
 30
0.0
 10
30.4792
 20
-3.9955
 30
0.0
 10
30.4792
 20
-3.9955
 30
0.0
 10
30.8029
 20
-4.2851
 30
0.0
 10
30.8029
 20
-4.2851
 30
0.0
 10
30.8029
 20
-4.2851
 30
0.0
 10
30.8029
 20
-4.2851
 30
0.0
 10
30.6581
 20
-4.4555
 30
0.0
 10
30.6581
 20
-4.4555
 30
0.0
 10
30.6581
 20
-4.4555
 30
0.0
 10
30.6581
 20
-4.4555
 30
0.0
 10
30.3192
 20
-4.1517
 30
0.0
 10
30.3192
 20
-4.1517
 30
0.0
 10
30.3192
 20
-4.1517
 30
0.0
 10
30.1479
 20
-4.2644
 30
0.0
 10
30.0015
 20
-4.3396
 30
0.0
 10
29.8803
 20
-4.3771
 30
0.0
 10
29.8803
 20
-4.3771
 30
0.0
 10
29.7592
 20
-4.4145
 30
0.0
 10
29.6134
 20
-4.4338
 30
0.0
 10
29.4434
 20
-4.4336
 30
0.0
 10
29.4434
 20
-4.4336
 30
0.0
 10
29.1841
 20
-4.4333
 30
0.0
 10
28.9531
 20
-4.3814
 30
0.0
 10
28.7503
 20
-4.2777
 30
0.0
 10
28.7503
 20
-4.2777
 30
0.0
 10
28.5476
 20
-4.174
 30
0.0
 10
28.3943
 20
-4.0292
 30
0.0
 10
28.2899
 20
-3.8421
 30
0.0
 10
28.2899
 20
-3.8421
 30
0.0
 10
28.186
 20
-3.6556
 30
0.0
 10
28.1339
 20
-3.4481
 30
0.0
 10
28.1341
 20
-3.2194
 30
0.0
 10
28.1341
 20
-3.2194
 30
0.0
 10
28.1343
 20
-3.0653
 30
0.0
 10
28.1544
 20
-2.9307
 30
0.0
 10
28.1956
 20
-2.8154
 30
0.0
 10
28.1956
 20
-2.8154
 30
0.0
 10
28.2364
 20
-2.7003
 30
0.0
 10
28.3076
 20
-2.5756
 30
0.0
 10
28.4089
 20
-2.4429
 30
0.0
  0
SPLINE
  5
67
330
1F
100
AcDbEntity
  8
VRSTVA_1
 62
   250
100
AcDbSpline
210
0.0
220
0.0
230
1.0
 70
    11
 71
     3
 72
    32
 73
    28
 74
     0
 42
0.0000000001
 43
0.0000000001
 40
0.0
 40
0.0
 40
0.0
 40
0.0
 40
0.125
 40
0.125
 40
0.125
 40
0.125
 40
0.25
 40
0.25
 40
0.25
 40
0.25
 40
0.375
 40
0.375
 40
0.375
 40
0.375
 40
0.5
 40
0.5
 40
0.5
 40
0.5
 40
0.625
 40
0.625
 40
0.625
 40
0.625
 40
0.75
 40
0.75
 40
0.75
 40
0.75
 40
1.0
 40
1.0
 40
1.0
 40
1.0
 10
28.6409
 20
-2.6495
 30
0.0
 10
28.5561
 20
-2.7576
 30
0.0
 10
28.4978
 20
-2.8522
 30
0.0
 10
28.4666
 20
-2.9327
 30
0.0
 10
28.4666
 20
-2.9327
 30
0.0
 10
28.4359
 20
-3.0139
 30
0.0
 10
28.4199
 20
-3.109
 30
0.0
 10
28.4198
 20
-3.2178
 30
0.0
 10
28.4198
 20
-3.2178
 30
0.0
 10
28.4196
 20
-3.4695
 30
0.0
 10
28.5046
 20
-3.6771
 30
0.0
 10
28.675
 20
-3.8419
 30
0.0
 10
28.675
 20
-3.8419
 30
0.0
 10
28.8453
 20
-4.0062
 30
0.0
 10
29.0998
 20
-4.0887
 30
0.0
 10
29.439
 20
-4.0891
 30
0.0
 10
29.439
 20
-4.0891
 30
0.0
 10
29.5719
 20
-4.0892
 30
0.0
 10
29.6901
 20
-4.0765
 30
0.0
 10
29.7937
 20
-4.0513
 30
0.0
 10
29.7937
 20
-4.0513
 30
0.0
 10
29.8707
 20
-4.0331
 30
0.0
 10
29.9654
 20
-3.9949
 30
0.0
 10
30.0778
 20
-3.9363
 30
0.0
 10
30.0778
 20
-3.9363
 30
0.0
 10
30.0778
 20
-3.9363
 30
0.0
 10
28.6409
 20
-2.6495
 30
0.0
 10
28.6409
 20
-2.6495
 30
0.0
  0
SPLINE
  5
68
330
1F
100
AcDbEntity
  8
VRSTVA_1
 62
   250
100
AcDbSpline
210
0.0
220
0.0
230
1.0
 70
    11
 71
     3
 72
    28
 73
    24
 74
     0
 42
0.0000000001
 43
0.0000000001
 40
0.0
 40
0.0
 40
0.0
 40
0.0
 40
0.1428571428571428
 40
0.1428571428571428
 40
0.1428571428571428
 40
0.1428571428571428
 40
0.2857142857142857
 40
0.2857142857142857
 40
0.2857142857142857
 40
0.2857142857142857
 40
0.4285714285714285
 40
0.4285714285714285
 40
0.4285714285714285
 40
0.4285714285714285
 40
0.5714285714285714
 40
0.5714285714285714
 40
0.5714285714285714
 40
0.5714285714285714
 40
0.7142857142857143
 40
0.7142857142857143
 40
0.7142857142857143
 40
0.7142857142857143
 40
1.0
 40
1.0
 40
1.0
 40
1.0
 10
28.8187
 20
-2.5086
 30
0.0
 10
28.8187
 20
-2.5086
 30
0.0
 10
30.2501
 20
-3.79
 30
0.0
 10
30.2501
 20
-3.79
 30
0.0
 10
30.2501
 20
-3.79
 30
0.0
 10
30.3226
 20
-3.7019
 30
0.0
 10
30.3732
 20
-3.6203
 30
0.0
 10
30.4021
 20
-3.5456
 30
0.0
 10
30.4021
 20
-3.5456
 30
0.0
 10
30.4405
 20
-3.448
 30
0.0
 10
30.4594
 20
-3.3423
 30
0.0
 10
30.4595
 20
-3.2288
 30
0.0
 10
30.4595
 20
-3.2288
 30
0.0
 10
30.4598
 20
-2.9784
 30
0.0
 10
30.3718
 20
-2.7719
 30
0.0
 10
30.195
 20
-2.6082
 30
0.0
 10
30.195
 20
-2.6082
 30
0.0
 10
30.0181
 20
-2.4452
 30
0.0
 10
29.7701
 20
-2.3631
 30
0.0
 10
29.4508
 20
-2.3628
 30
0.0
 10
29.4508
 20
-2.3628
 30
0.0
 10
29.2121
 20
-2.3626
 30
0.0
 10
29.001
 20
-2.4111
 30
0.0
 10
28.8187
 20
-2.5086
 30
0.0
  0
SPLINE
  5
69
330
1F
100
AcDbEntity
  8
VRSTVA_1
 62
   250
100
AcDbSpline
210
0.0
220
0.0
230
1.0
 70
    11
 71
     3
 72
    48
 73
    44
 74
     0
 42
0.0000000001
 43
0.0000000001
 40
0.0
 40
0.0
 40
0.0
 40
0.0
 40
0.0833333333333333
 40
0.0833333333333333
 40
0.0833333333333333
 40
0.0833333333333333
 40
0.1666666666666667
 40
0.1666666666666667
 40
0.1666666666666667
 40
0.1666666666666667
 40
0.25
 40
0.25
 40
0.25
 40
0.25
 40
0.3333333333333333
 40
0.3333333333333333
 40
0.3333333333333333
 40
0.3333333333333333
 40
0.4166666666666667
 40
0.4166666666666667
 40
0.4166666666666667
 40
0.4166666666666667
 40
0.5
 40
0.5
 40
0.5
 40
0.5
 40
0.5833333333333334
 40
0.5833333333333334
 40
0.5833333333333334
 40
0.5833333333333334
 40
0.6666666666666666
 40
0.6666666666666666
 40
0.6666666666666666
 40
0.6666666666666666
 40
0.75
 40
0.75
 40
0.75
 40
0.75
 40
0.8333333333333334
 40
0.8333333333333334
 40
0.8333333333333334
 40
0.8333333333333334
 40
1.0
 40
1.0
 40
1.0
 40
1.0
 10
28.5096
 20
-1.6851
 30
0.0
 10
28.5096
 20
-1.6851
 30
0.0
 10
28.2115
 20
-1.6848
 30
0.0
 10
28.2115
 20
-1.6848
 30
0.0
 10
28.2115
 20
-1.6848
 30
0.0
 10
28.2115
 20
-1.6848
 30
0.0
 10
28.2132
 20
-0.0503
 30
0.0
 10
28.2132
 20
-0.0503
 30
0.0
 10
28.2132
 20
-0.0503
 30
0.0
 10
28.2132
 20
-0.0503
 30
0.0
 10
28.4543
 20
-0.0506
 30
0.0
 10
28.4543
 20
-0.0506
 30
0.0
 10
28.4543
 20
-0.0506
 30
0.0
 10
28.6252
 20
-0.2113
 30
0.0
 10
28.8526
 20
-0.3708
 30
0.0
 10
29.1358
 20
-0.5293
 30
0.0
 10
29.1358
 20
-0.5293
 30
0.0
 10
29.419
 20
-0.6872
 30
0.0
 10
29.7111
 20
-0.8098
 30
0.0
 10
30.0103
 20
-0.8959
 30
0.0
 10
30.0103
 20
-0.8959
 30
0.0
 10
30.222
 20
-0.9584
 30
0.0
 10
30.453
 20
-0.998
 30
0.0
 10
30.7046
 20
-1.0154
 30
0.0
 10
30.7046
 20
-1.0154
 30
0.0
 10
30.7046
 20
-1.0154
 30
0.0
 10
30.7043
 20
-1.334
 30
0.0
 10
30.7043
 20
-1.334
 30
0.0
 10
30.7043
 20
-1.334
 30
0.0
 10
30.5056
 20
-1.3303
 30
0.0
 10
30.2657
 20
-1.2912
 30
0.0
 10
29.9841
 20
-1.2163
 30
0.0
 10
29.9841
 20
-1.2163
 30
0.0
 10
29.7032
 20
-1.1414
 30
0.0
 10
29.4317
 20
-1.0341
 30
0.0
 10
29.1707
 20
-0.8944
 30
0.0
 10
29.1707
 20
-0.8944
 30
0.0
 10
28.9098
 20
-0.7543
 30
0.0
 10
28.6895
 20
-0.6058
 30
0.0
 10
28.5109
 20
-0.448
 30
0.0
 10
28.5109
 20
-0.448
 30
0.0
 10
28.5109
 20
-0.448
 30
0.0
 10
28.5096
 20
-1.6851
 30
0.0
 10
28.5096
 20
-1.6851
 30
0.0
  0
SPLINE
  5
6A
330
1F
100
AcDbEntity
  8
VRSTVA_1
 62
   250
100
AcDbSpline
210
0.0
220
0.0
230
1.0
 70
    11
 71
     3
 72
    48
 73
    44
 74
     0
 42
0.0000000001
 43
0.0000000001
 40
0.0
 40
0.0
 40
0.0
 40
0.0
 40
0.0833333333333333
 40
0.0833333333333333
 40
0.0833333333333333
 40
0.0833333333333333
 40
0.1666666666666667
 40
0.1666666666666667
 40
0.1666666666666667
 40
0.1666666666666667
 40
0.25
 40
0.25
 40
0.25
 40
0.25
 40
0.3333333333333333
 40
0.3333333333333333
 40
0.3333333333333333
 40
0.3333333333333333
 40
0.4166666666666667
 40
0.4166666666666667
 40
0.4166666666666667
 40
0.4166666666666667
 40
0.5
 40
0.5
 40
0.5
 40
0.5
 40
0.5833333333333334
 40
0.5833333333333334
 40
0.5833333333333334
 40
0.5833333333333334
 40
0.6666666666666666
 40
0.6666666666666666
 40
0.6666666666666666
 40
0.6666666666666666
 40
0.75
 40
0.75
 40
0.75
 40
0.75
 40
0.8333333333333334
 40
0.8333333333333334
 40
0.8333333333333334
 40
0.8333333333333334
 40
1.0
 40
1.0
 40
1.0
 40
1.0
 10
28.5116
 20
0.2769
 30
0.0
 10
28.5116
 20
0.2769
 30
0.0
 10
28.2135
 20
0.2772
 30
0.0
 10
28.2135
 20
0.2772
 30
0.0
 10
28.2135
 20
0.2772
 30
0.0
 10
28.2135
 20
0.2772
 30
0.0
 10
28.2152
 20
1.9117
 30
0.0
 10
28.2152
 20
1.9117
 30
0.0
 10
28.2152
 20
1.9117
 30
0.0
 10
28.2152
 20
1.9117
 30
0.0
 10
28.4563
 20
1.9114
 30
0.0
 10
28.4563
 20
1.9114
 30
0.0
 10
28.4563
 20
1.9114
 30
0.0
 10
28.6272
 20
1.7507
 30
0.0
 10
28.8546
 20
1.5912
 30
0.0
 10
29.1378
 20
1.4327
 30
0.0
 10
29.1378
 20
1.4327
 30
0.0
 10
29.4211
 20
1.2748
 30
0.0
 10
29.7131
 20
1.1522
 30
0.0
 10
30.0123
 20
1.0661
 30
0.0
 10
30.0123
 20
1.0661
 30
0.0
 10
30.224
 20
1.0036
 30
0.0
 10
30.455
 20
0.964
 30
0.0
 10
30.7066
 20
0.9466
 30
0.0
 10
30.7066
 20
0.9466
 30
0.0
 10
30.7066
 20
0.9466
 30
0.0
 10
30.7063
 20
0.628
 30
0.0
 10
30.7063
 20
0.628
 30
0.0
 10
30.7063
 20
0.628
 30
0.0
 10
30.5076
 20
0.6317
 30
0.0
 10
30.2677
 20
0.6707
 30
0.0
 10
29.9861
 20
0.7457
 30
0.0
 10
29.9861
 20
0.7457
 30
0.0
 10
29.7052
 20
0.8206
 30
0.0
 10
29.4337
 20
0.9279
 30
0.0
 10
29.1727
 20
1.0676
 30
0.0
 10
29.1727
 20
1.0676
 30
0.0
 10
28.9118
 20
1.2077
 30
0.0
 10
28.6915
 20
1.3562
 30
0.0
 10
28.5129
 20
1.514
 30
0.0
 10
28.5129
 20
1.514
 30
0.0
 10
28.5129
 20
1.514
 30
0.0
 10
28.5116
 20
0.2769
 30
0.0
 10
28.5116
 20
0.2769
 30
0.0
  0
SPLINE
  5
6B
330
1F
100
AcDbEntity
  8
VRSTVA_1
 62
   250
100
AcDbSpline
210
0.0
220
0.0
230
1.0
 70
    24
 71
     3
 72
     8
 73
     4
 74
     0
 42
0.0000000001
 43
0.0000000001
 40
0.0
 40
0.0
 40
0.0
 40
0.0
 40
1.0
 40
1.0
 40
1.0
 40
1.0
 10
31.2132
 20
7.8051
 30
0.0
 10
31.2132
 20
7.8051
 30
0.0
 10
31.2132
 20
-9.8328
 30
0.0
 10
31.2132
 20
-9.8328
 30
0.0
  0
SPLINE
  5
6C
330
1F
100
AcDbEntity
  8
VRSTVA_1
 62
   250
100
AcDbSpline
210
0.0
220
0.0
230
1.0
 70
    11
 71
     3
 72
    20
 73
    16
 74
     0
 42
0.0000000001
 43
0.0000000001
 40
0.0
 40
0.0
 40
0.0
 40
0.0
 40
0.2
 40
0.2
 40
0.2
 40
0.2
 40
0.4
 40
0.4
 40
0.4
 40
0.4
 40
0.6
 40
0.6
 40
0.6
 40
0.6
 40
1.0
 40
1.0
 40
1.0
 40
1.0
 10
31.6669
 20
5.4014
 30
0.0
 10
31.6669
 20
5.4014
 30
0.0
 10
31.2743
 20
8.3913
 30
0.0
 10
31.2743
 20
8.3913
 30
0.0
 10
31.2743
 20
8.3913
 30
0.0
 10
31.2743
 20
8.3913
 30
0.0
 10
31.1165
 20
8.3906
 30
0.0
 10
31.1165
 20
8.3906
 30
0.0
 10
31.1165
 20
8.3906
 30
0.0
 10
31.1165
 20
8.3906
 30
0.0
 10
30.6633
 20
5.3913
 30
0.0
 10
30.6633
 20
5.3913
 30
0.0
 10
30.6633
 20
5.3913
 30
0.0
 10
30.6633
 20
5.3913
 30
0.0
 10
31.6669
 20
5.4014
 30
0.0
 10
31.6669
 20
5.4014
 30
0.0
  0
SPLINE
  5
6D
330
1F
100
AcDbEntity
  8
VRSTVA_1
 62
   250
100
AcDbSpline
210
0.0
220
0.0
230
1.0
 70
    11
 71
     3
 72
    20
 73
    16
 74
     0
 42
0.0000000001
 43
0.0000000001
 40
0.0
 40
0.0
 40
0.0
 40
0.0
 40
0.2
 40
0.2
 40
0.2
 40
0.2
 40
0.4
 40
0.4
 40
0.4
 40
0.4
 40
0.6
 40
0.6
 40
0.6
 40
0.6
 40
1.0
 40
1.0
 40
1.0
 40
1.0
 10
30.7185
 20
-7.7095
 30
0.0
 10
30.7185
 20
-7.7095
 30
0.0
 10
31.1112
 20
-10.6996
 30
0.0
 10
31.1112
 20
-10.6996
 30
0.0
 10
31.1112
 20
-10.6996
 30
0.0
 10
31.1112
 20
-10.6996
 30
0.0
 10
31.269
 20
-10.6989
 30
0.0
 10
31.269
 20
-10.6989
 30
0.0
 10
31.269
 20
-10.6989
 30
0.0
 10
31.269
 20
-10.6989
 30
0.0
 10
31.7223
 20
-7.6995
 30
0.0
 10
31.7223
 20
-7.6995
 30
0.0
 10
31.7223
 20
-7.6995
 30
0.0
 10
31.7223
 20
-7.6995
 30
0.0
 10
30.7185
 20
-7.7095
 30
0.0
 10
30.7185
 20
-7.7095
 30
0.0
  0
SPLINE
  5
6E
330
1F
100
AcDbEntity
  8
VRSTVA_1
 62
   250
100
AcDbSpline
210
0.0
220
0.0
230
1.0
 70
    24
 71
     3
 72
     8
 73
     4
 74
     0
 42
0.0000000001
 43
0.0000000001
 40
0.0
 40
0.0
 40
0.0
 40
0.0
 40
1.0
 40
1.0
 40
1.0
 40
1.0
 10
32.0057
 20
8.4931
 30
0.0
 10
32.0057
 20
8.4931
 30
0.0
 10
19.1432
 20
8.4931
 30
0.0
 10
19.1432
 20
8.4931
 30
0.0
  0
SPLINE
  5
6F
330
1F
100
AcDbEntity
  8
VRSTVA_1
 62
   250
100
AcDbSpline
210
0.0
220
0.0
230
1.0
 70
    24
 71
     3
 72
     8
 73
     4
 74
     0
 42
0.0000000001
 43
0.0000000001
 40
0.0
 40
0.0
 40
0.0
 40
0.0
 40
1.0
 40
1.0
 40
1.0
 40
1.0
 10
32.0057
 20
-10.8237
 30
0.0
 10
32.0057
 20
-10.8237
 30
0.0
 10
18.9509
 20
-10.8237
 30
0.0
 10
18.9509
 20
-10.8237
 30
0.0
  0
ENDSEC
  0
SECTION
  2
OBJECTS
  0
DICTIONARY
  5
C
330
0
100
AcDbDictionary
  3
ACAD_GROUP
350
D
  3
ACAD_LAYOUT
350
1A
  3
ACAD_MATERIAL
350
3B
  3
ACAD_MLEADERSTYLE
350
92
  3
ACAD_MLINESTYLE
350
17
  3
ACAD_PLOTSETTINGS
350
19
  3
ACAD_VISUALSTYLE
350
2A
  3
ACDBHEADERROUNDTRIPXREC
350
70
  3
ACDBVARIABLEDICTIONARY
350
90
  0
DICTIONARY
  5
D
102
{ACAD_REACTORS
330
C
102
}
330
C
100
AcDbDictionary
  0
DICTIONARY
  5
1A
102
{ACAD_REACTORS
330
C
102
}
330
C
100
AcDbDictionary
  0
DICTIONARY
  5
3B
102
{ACAD_REACTORS
330
C
102
}
330
C
100
AcDbDictionary
  3
BYBLOCK
350
3D
  3
BYLAYER
350
3C
  3
GLOBAL
350
3E
  0
DICTIONARY
  5
92
102
{ACAD_REACTORS
330
C
102
}
330
C
100
AcDbDictionary
  0
DICTIONARY
  5
17
102
{ACAD_REACTORS
330
C
102
}
330
C
100
AcDbDictionary
  3
STANDARD
350
18
  0
DICTIONARY
  5
19
102
{ACAD_REACTORS
330
C
102
}
330
C
100
AcDbDictionary
  0
DICTIONARY
  5
2A
102
{ACAD_REACTORS
330
C
102
}
330
C
100
AcDbDictionary
  3
2DWIREFRAME
350
2F
  3
3D_HIDDEN
350
31
  3
3DWIREFRAME
350
30
  3
BASIC
350
32
  3
BRIGHTEN
350
36
  3
COLORCHANGE
350
3A
  3
CONCEPTUAL
350
34
  3
DIM
350
35
  3
FACEPATTERN
350
39
  3
FLAT
350
2B
  3
FLATWITHEDGES
350
2C
  3
GOURAUD
350
2D
  3
GOURAUDWITHEDGES
350
2E
  3
LINEPATTERN
350
38
  3
REALISTIC
350
33
  3
THICKEN
350
37
  0
DICTIONARY
  5
70
102
{ACAD_REACTORS
330
C
102
}
330
C
100
AcDbDictionary
  3
CEPSNTYPE
350
79
  3
DIMSTYLEDATA
350
8F
  3
FINGERPRINTGUID
350
7A
  3
HYPERLINKBASE
350
73
  3
INSUNITS
350
78
  3
LAYOUTDICT
350
75
  3
LWETCUNION
350
77
  3
PLOTSETDICT
350
76
  3
PSVPSCALE
350
7C
  3
PUCSBASE
350
7F
  3
PUCSORGBACK
350
85
  3
PUCSORGBOTTOM
350
81
  3
PUCSORGFRONT
350
84
  3
PUCSORGLEFT
350
82
  3
PUCSORGRIGHT
350
83
  3
PUCSORGTOP
350
80
  3
PUCSORTHOREF
350
7D
  3
PUCSORTHOVIEW
350
7E
  3
STYLESHEET
350
74
  3
TSTACKALIGN
350
71
  3
TSTACKSIZE
350
72
  3
UCSBASE
350
88
  3
UCSORGBACK
350
8E
  3
UCSORGBOTTOM
350
8A
  3
UCSORGFRONT
350
8D
  3
UCSORGLEFT
350
8B
  3
UCSORGRIGHT
350
8C
  3
UCSORGTOP
350
89
  3
UCSORTHOREF
350
86
  3
UCSORTHOVIEW
350
87
  3
VERSIONGUID
350
7B
  0
DICTIONARY
  5
90
102
{ACAD_REACTORS
330
C
102
}
330
C
100
AcDbDictionary
  3
DIMASSOC
350
93
  3
HIDETEXT
350
94
  0
MATERIAL
  5
3D
102
{ACAD_REACTORS
330
3B
102
}
102
{ACAD_XDICTIONARY
360
97
102
}
330
3B
100
AcDbMaterial
  1
ByBlock
  0
MATERIAL
  5
3C
102
{ACAD_REACTORS
330
3B
102
}
102
{ACAD_XDICTIONARY
360
95
102
}
330
3B
100
AcDbMaterial
  1
ByLayer
  0
MATERIAL
  5
3E
102
{ACAD_REACTORS
330
3B
102
}
102
{ACAD_XDICTIONARY
360
99
102
}
330
3B
100
AcDbMaterial
  1
Global
  0
MLINESTYLE
  5
18
102
{ACAD_REACTORS
330
17
102
}
330
17
100
AcDbMlineStyle
  2
Standard
 70
     0
  3

 62
   256
 51
90.0
 52
90.0
 71
     2
 49
0.5
 62
   256
  6
BYLAYER
 49
-0.5
 62
   256
  6
BYLAYER
  0
ACAD_PROXY_OBJECT
  5
2F
102
{ACAD_REACTORS
330
2A
102
}
330
2A
100
AcDbProxyObject
 90
      499
 91
      501
 93
      436
310
42CC9915DA5C99599C985B595049028333333333333E3BF0000000000000FB0107901411070040501600405405064090741402480A0340
1001
ACAD
1000
AcDbSavedByObjectVersion
1070
     0
  0
ACAD_PROXY_OBJECT
  5
31
102
{ACAD_REACTORS
330
2A
102
}
330
2A
100
AcDbProxyObject
 90
      499
 91
      501
 93
      500
310
424CD108121A5919195B90640502408333333333333E3BF0000000000000FB01079024090700405020000000000001110200405405064090740C02480A0340
1001
ACAD
1000
AcDbSavedByObjectVersion
1070
     0
  0
ACAD_PROXY_OBJECT
  5
30
102
{ACAD_REACTORS
330
2A
102
}
330
2A
100
AcDbProxyObject
 90
      499
 91
      501
 93
      436
310
42CCD915DA5C99599C985B595059028333333333333E3BF0000000000000FB0107901411070040501600405405064090741402480A0340
1001
ACAD
1000
AcDbSavedByObjectVersion
1070
     0
  0
ACAD_PROXY_OBJECT
  5
32
102
{ACAD_REACTORS
330
2A
102
}
330
2A
100
AcDbProxyObject
 90
      499
 91
      501
 93
      388
310
4150985CDA58D07406404333333333333E3BF0000000000000FB0107A41107004050150841D405064090741402480A0350
1001
ACAD
1000
AcDbSavedByObjectVersion
1070
     0
  0
ACAD_PROXY_OBJECT
  5
36
102
{ACAD_REACTORS
330
2A
102
}
330
2A
100
AcDbProxyObject
 90
      499
 91
      501
 93
      428
310
42109C9A59DA1D195B90C409028333333333333E3BF0000000000000FB010790141107004050150841D405064090741402480A029950
1001
ACAD
1000
AcDbSavedByObjectVersion
1070
     0
  0
ACAD_PROXY_OBJECT
  5
3A
102
{ACAD_REACTORS
330
2A
102
}
330
2A
100
AcDbProxyObject
 90
      499
 91
      501
 93
      452
310
42D0DBDB1BDC90DA185B99D95104090240C333333333333E3BF0000000000000FB0108901411070040501508421405064090741402480A0350
1001
ACAD
1000
AcDbSavedByObjectVersion
1070
     0
  0
ACAD_PROXY_OBJECT
  5
34
102
{ACAD_REACTORS
330
2A
102
}
330
2A
100
AcDbProxyObject
 90
      499
 91
      501
 93
      500
310
4290DBDB98D95C1D1D585B10940D028333333333333E3BF0000000000000FB0107902409070040501000000000000111010841D405064090740C02480A0340
1001
ACAD
1000
AcDbSavedByObjectVersion
1070
     0
  0
ACAD_PROXY_OBJECT
  5
35
102
{ACAD_REACTORS
330
2A
102
}
330
2A
100
AcDbProxyObject
 90
      499
 91
      501
 93
      412
310
40D11A5B50B409028333333333333E3BF0000000000000FB010790141107004050150841D405064090741402480A02677FFFFFD0
1001
ACAD
1000
AcDbSavedByObjectVersion
1070
     0
  0
ACAD_PROXY_OBJECT
  5
39
102
{ACAD_REACTORS
330
2A
102
}
330
2A
100
AcDbProxyObject
 90
      499
 91
      501
 93
      444
310
42D19858D95C185D1D195C9B90F409028333333333333E3BF0000000000000FB010790141107004050150841D405064090741402480A0350
1001
ACAD
1000
AcDbSavedByObjectVersion
1070
     0
  0
ACAD_PROXY_OBJECT
  5
2B
102
{ACAD_REACTORS
330
2A
102
}
330
2A
100
AcDbProxyObject
 90
      499
 91
      501
 93
      388
310
41119B185D240901404333333333333E3BF0000000000000F9010740A41107004050150841D405064090741402480A1B50
1001
ACAD
1000
AcDbSavedByObjectVersion
1070
     0
  0
ACAD_PROXY_OBJECT
  5
2C
102
{ACAD_REACTORS
330
2A
102
}
330
2A
100
AcDbProxyObject
 90
      499
 91
      501
 93
      476
310
43519B185D15DA5D1A115919D95CD0140901404333333333333E3BF0000000000000F9010740901411070040501600405405064090741402480A1B50
1001
ACAD
1000
AcDbSavedByObjectVersion
1070
     0
  0
ACAD_PROXY_OBJECT
  5
2D
102
{ACAD_REACTORS
330
2A
102
}
330
2A
100
AcDbProxyObject
 90
      499
 91
      501
 93
      412
310
41D1DBDD5C985D5910240902404333333333333E3BF0000000000000F9010740A411070040501641D405064090741402480A1B50
1001
ACAD
1000
AcDbSavedByObjectVersion
1070
     0
  0
ACAD_PROXY_OBJECT
  5
2E
102
{ACAD_REACTORS
330
2A
102
}
330
2A
100
AcDbProxyObject
 90
      499
 91
      501
 93
      500
310
4411DBDD5C985D5915DA5D1A115919D95CD0340902404333333333333E3BF0000000000000F9010740901411070040501600405405064090741402480A1B50
1001
ACAD
1000
AcDbSavedByObjectVersion
1070
     0
  0
ACAD_PROXY_OBJECT
  5
38
102
{ACAD_REACTORS
330
2A
102
}
330
2A
100
AcDbProxyObject
 90
      499
 91
      501
 93
      444
310
42D31A5B995C185D1D195C9B90E409028333333333333E3BF0000000000000FB010790141107004050750841D405064090741402483A0350
1001
ACAD
1000
AcDbSavedByObjectVersion
1070
     0
  0
ACAD_PROXY_OBJECT
  5
33
102
{ACAD_REACTORS
330
2A
102
}
330
2A
100
AcDbProxyObject
 90
      499
 91
      501
 93
      420
310
425499585B1A5CDD1A58D08409028333333333333E3BF0000000000000FB01079019070040501508421405064090741402480A1B40
1001
ACAD
1000
AcDbSavedByObjectVersion
1070
     0
  0
ACAD_PROXY_OBJECT
  5
37
102
{ACAD_REACTORS
330
2A
102
}
330
2A
100
AcDbProxyObject
 90
      499
 91
      501
 93
      412
310
41D51A1A58DAD95B90D409028333333333333E3BF0000000000000FB010790141107004050150C41D405064090741402480A0350
1001
ACAD
1000
AcDbSavedByObjectVersion
1070
     0
  0
XRECORD
  5
79
102
{ACAD_REACTORS
330
70
102
}
330
70
100
AcDbXrecord
 90
        0
  0
XRECORD
  5
8F
102
{ACAD_REACTORS
330
70
102
}
330
70
100
AcDbXrecord
1000
DSTYLE
1002
{
1070
   340
340
11
1002
}
  0
XRECORD
  5
7A
102
{ACAD_REACTORS
330
70
102
}
330
70
100
AcDbXrecord
  1
{9E92D63E-3247-4987-94AF-7F91731C2FC0}
  0
XRECORD
  5
73
102
{ACAD_REACTORS
330
70
102
}
330
70
100
AcDbXrecord
  1

  0
XRECORD
  5
78
102
{ACAD_REACTORS
330
70
102
}
330
70
100
AcDbXrecord
 90
        4
  0
XRECORD
  5
75
102
{ACAD_REACTORS
330
70
102
}
330
70
100
AcDbXrecord
340
1A
  0
XRECORD
  5
77
102
{ACAD_REACTORS
330
70
102
}
330
70
100
AcDbXrecord
 90
    10781
  0
XRECORD
  5
76
102
{ACAD_REACTORS
330
70
102
}
330
70
100
AcDbXrecord
340
19
  0
XRECORD
  5
7C
102
{ACAD_REACTORS
330
70
102
}
330
70
100
AcDbXrecord
 40
0.0
  0
XRECORD
  5
7F
102
{ACAD_REACTORS
330
70
102
}
330
70
100
AcDbXrecord
340
0
  0
XRECORD
  5
85
102
{ACAD_REACTORS
330
70
102
}
330
70
100
AcDbXrecord
 10
0.0
 20
0.0
 30
0.0
  0
XRECORD
  5
81
102
{ACAD_REACTORS
330
70
102
}
330
70
100
AcDbXrecord
 10
0.0
 20
0.0
 30
0.0
  0
XRECORD
  5
84
102
{ACAD_REACTORS
330
70
102
}
330
70
100
AcDbXrecord
 10
0.0
 20
0.0
 30
0.0
  0
XRECORD
  5
82
102
{ACAD_REACTORS
330
70
102
}
330
70
100
AcDbXrecord
 10
0.0
 20
0.0
 30
0.0
  0
XRECORD
  5
83
102
{ACAD_REACTORS
330
70
102
}
330
70
100
AcDbXrecord
 10
0.0
 20
0.0
 30
0.0
  0
XRECORD
  5
80
102
{ACAD_REACTORS
330
70
102
}
330
70
100
AcDbXrecord
 10
0.0
 20
0.0
 30
0.0
  0
XRECORD
  5
7D
102
{ACAD_REACTORS
330
70
102
}
330
70
100
AcDbXrecord
340
0
  0
XRECORD
  5
7E
102
{ACAD_REACTORS
330
70
102
}
330
70
100
AcDbXrecord
 70
     0
  0
XRECORD
  5
74
102
{ACAD_REACTORS
330
70
102
}
330
70
100
AcDbXrecord
  1

  0
XRECORD
  5
71
102
{ACAD_REACTORS
330
70
102
}
330
70
100
AcDbXrecord
 90
        1
  0
XRECORD
  5
72
102
{ACAD_REACTORS
330
70
102
}
330
70
100
AcDbXrecord
 90
       70
  0
XRECORD
  5
88
102
{ACAD_REACTORS
330
70
102
}
330
70
100
AcDbXrecord
340
0
  0
XRECORD
  5
8E
102
{ACAD_REACTORS
330
70
102
}
330
70
100
AcDbXrecord
 10
0.0
 20
0.0
 30
0.0
  0
XRECORD
  5
8A
102
{ACAD_REACTORS
330
70
102
}
330
70
100
AcDbXrecord
 10
0.0
 20
0.0
 30
0.0
  0
XRECORD
  5
8D
102
{ACAD_REACTORS
330
70
102
}
330
70
100
AcDbXrecord
 10
0.0
 20
0.0
 30
0.0
  0
XRECORD
  5
8B
102
{ACAD_REACTORS
330
70
102
}
330
70
100
AcDbXrecord
 10
0.0
 20
0.0
 30
0.0
  0
XRECORD
  5
8C
102
{ACAD_REACTORS
330
70
102
}
330
70
100
AcDbXrecord
 10
0.0
 20
0.0
 30
0.0
  0
XRECORD
  5
89
102
{ACAD_REACTORS
330
70
102
}
330
70
100
AcDbXrecord
 10
0.0
 20
0.0
 30
0.0
  0
XRECORD
  5
86
102
{ACAD_REACTORS
330
70
102
}
330
70
100
AcDbXrecord
340
0
  0
XRECORD
  5
87
102
{ACAD_REACTORS
330
70
102
}
330
70
100
AcDbXrecord
 70
     0
  0
XRECORD
  5
7B
102
{ACAD_REACTORS
330
70
102
}
330
70
100
AcDbXrecord
  1
{FAEB1C32-E019-11D5-929B-00C0DF256EC4}
  0
DICTIONARYVAR
  5
93
102
{ACAD_REACTORS
330
90
102
}
330
90
100
DictionaryVariables
280
     0
  1
2
  0
DICTIONARYVAR
  5
94
102
{ACAD_REACTORS
330
90
102
}
330
90
100
DictionaryVariables
280
     0
  1
1
  0
DICTIONARY
  5
97
330
3D
100
AcDbDictionary
280
     1
  3
ACAD_XREC_ROUNDTRIP
360
98
  0
DICTIONARY
  5
95
330
3C
100
AcDbDictionary
280
     1
  3
ACAD_XREC_ROUNDTRIP
360
96
  0
DICTIONARY
  5
99
330
3E
100
AcDbDictionary
280
     1
  3
ACAD_XREC_ROUNDTRIP
360
9A
  0
XRECORD
  5
98
102
{ACAD_REACTORS
330
97
102
}
330
97
100
AcDbXrecord
102
MATERIAL
148
0.0
149
0.0
149
0.0
 93
        0
 94
      127
282
     0
 72
     1
 77
     1
171
     1
175
     1
179
     1
273
     0
  0
XRECORD
  5
96
102
{ACAD_REACTORS
330
95
102
}
330
95
100
AcDbXrecord
102
MATERIAL
148
0.0
149
0.0
149
0.0
 93
        0
 94
      127
282
     0
 72
     1
 77
     1
171
     1
175
     1
179
     1
273
     0
  0
XRECORD
  5
9A
102
{ACAD_REACTORS
330
99
102
}
330
99
100
AcDbXrecord
102
MATERIAL
148
0.0
149
0.0
149
0.0
 93
        0
 94
      127
282
     0
 72
     1
 77
     1
171
     1
175
     1
179
     1
273
     0
  0
ENDSEC
  0
EOF
