  0
SECTION
  2
HEADER
  9
$ACADVER
  1
AC1014
  9
$ACADMAINTVER
 70
     9
  9
$DWGCODEPAGE
  3
ANSI_1250
  9
$INSBASE
 10
0.0
 20
0.0
 30
0.0
  9
$EXTMIN
 10
-31.9715
 20
-17.8219
 30
0.0
  9
$EXTMAX
 10
31.9716
 20
17.7398
 30
0.0
  9
$LIMMIN
 10
0.0
 20
0.0
  9
$LIMMAX
 10
12.0
 20
9.0
  9
$ORTHOMODE
 70
     0
  9
$REGENMODE
 70
     1
  9
$FILLMODE
 70
     1
  9
$QTEXTMODE
 70
     0
  9
$MIRRTEXT
 70
     1
  9
$DRAGMODE
 70
     2
  9
$LTSCALE
 40
1.0
  9
$OSMODE
 70
    37
  9
$ATTMODE
 70
     1
  9
$TEXTSIZE
 40
0.2
  9
$TRACEWID
 40
0.05
  9
$TEXTSTYLE
  7
STANDARD
  9
$CLAYER
  8
0
  9
$CELTYPE
  6
BYLAYER
  9
$CECOLOR
 62
   256
  9
$CELTSCALE
 40
1.0
  9
$DELOBJ
 70
     1
  9
$DISPSILH
 70
     0
  9
$DIMSCALE
 40
1.0
  9
$DIMASZ
 40
0.18
  9
$DIMEXO
 40
0.0625
  9
$DIMDLI
 40
0.38
  9
$DIMRND
 40
0.0
  9
$DIMDLE
 40
0.0
  9
$DIMEXE
 40
0.18
  9
$DIMTP
 40
0.0
  9
$DIMTM
 40
0.0
  9
$DIMTXT
 40
0.18
  9
$DIMCEN
 40
0.09
  9
$DIMTSZ
 40
0.0
  9
$DIMTOL
 70
     0
  9
$DIMLIM
 70
     0
  9
$DIMTIH
 70
     1
  9
$DIMTOH
 70
     1
  9
$DIMSE1
 70
     0
  9
$DIMSE2
 70
     0
  9
$DIMTAD
 70
     0
  9
$DIMZIN
 70
     0
  9
$DIMBLK
  1

  9
$DIMASO
 70
     1
  9
$DIMSHO
 70
     1
  9
$DIMPOST
  1

  9
$DIMAPOST
  1

  9
$DIMALT
 70
     0
  9
$DIMALTD
 70
     2
  9
$DIMALTF
 40
25.4
  9
$DIMLFAC
 40
1.0
  9
$DIMTOFL
 70
     0
  9
$DIMTVP
 40
0.0
  9
$DIMTIX
 70
     0
  9
$DIMSOXD
 70
     0
  9
$DIMSAH
 70
     0
  9
$DIMBLK1
  1

  9
$DIMBLK2
  1

  9
$DIMSTYLE
  2
STANDARD
  9
$DIMCLRD
 70
     0
  9
$DIMCLRE
 70
     0
  9
$DIMCLRT
 70
     0
  9
$DIMTFAC
 40
1.0
  9
$DIMGAP
 40
0.09
  9
$DIMJUST
 70
     0
  9
$DIMSD1
 70
     0
  9
$DIMSD2
 70
     0
  9
$DIMTOLJ
 70
     1
  9
$DIMTZIN
 70
     0
  9
$DIMALTZ
 70
     0
  9
$DIMALTTZ
 70
     0
  9
$DIMFIT
 70
     3
  9
$DIMUPT
 70
     0
  9
$DIMUNIT
 70
     2
  9
$DIMDEC
 70
     4
  9
$DIMTDEC
 70
     4
  9
$DIMALTU
 70
     2
  9
$DIMALTTD
 70
     2
  9
$DIMTXSTY
  7
STANDARD
  9
$DIMAUNIT
 70
     0
  9
$LUNITS
 70
     2
  9
$LUPREC
 70
     4
  9
$SKETCHINC
 40
0.1
  9
$FILLETRAD
 40
0.5
  9
$AUNITS
 70
     0
  9
$AUPREC
 70
     0
  9
$MENU
  1
.
  9
$ELEVATION
 40
0.0
  9
$PELEVATION
 40
0.0
  9
$THICKNESS
 40
0.0
  9
$LIMCHECK
 70
     0
  9
$CHAMFERA
 40
0.5
  9
$CHAMFERB
 40
0.5
  9
$CHAMFERC
 40
1.0
  9
$CHAMFERD
 40
0.0
  9
$SKPOLY
 70
     0
  9
$TDCREATE
 40
2456303.459259248
  9
$TDUPDATE
 40
2456303.459259259
  9
$TDINDWG
 40
0.0000000116
  9
$TDUSRTIMER
 40
0.0000000116
  9
$USRTIMER
 70
     1
  9
$ANGBASE
 50
0.0
  9
$ANGDIR
 70
     0
  9
$PDMODE
 70
     0
  9
$PDSIZE
 40
0.0
  9
$PLINEWID
 40
0.0
  9
$COORDS
 70
     1
  9
$SPLFRAME
 70
     0
  9
$SPLINETYPE
 70
     6
  9
$SPLINESEGS
 70
     8
  9
$ATTDIA
 70
     0
  9
$ATTREQ
 70
     1
  9
$HANDLING
 70
     1
  9
$HANDSEED
  5
E2
  9
$SURFTAB1
 70
     6
  9
$SURFTAB2
 70
     6
  9
$SURFTYPE
 70
     6
  9
$SURFU
 70
     6
  9
$SURFV
 70
     6
  9
$UCSNAME
  2

  9
$UCSORG
 10
0.0
 20
0.0
 30
0.0
  9
$UCSXDIR
 10
1.0
 20
0.0
 30
0.0
  9
$UCSYDIR
 10
0.0
 20
1.0
 30
0.0
  9
$PUCSNAME
  2

  9
$PUCSORG
 10
0.0
 20
0.0
 30
0.0
  9
$PUCSXDIR
 10
1.0
 20
0.0
 30
0.0
  9
$PUCSYDIR
 10
0.0
 20
1.0
 30
0.0
  9
$USERI1
 70
     0
  9
$USERI2
 70
     0
  9
$USERI3
 70
     0
  9
$USERI4
 70
     0
  9
$USERI5
 70
     0
  9
$USERR1
 40
0.0
  9
$USERR2
 40
0.0
  9
$USERR3
 40
0.0
  9
$USERR4
 40
0.0
  9
$USERR5
 40
0.0
  9
$WORLDVIEW
 70
     1
  9
$SHADEDGE
 70
     3
  9
$SHADEDIF
 70
    70
  9
$TILEMODE
 70
     1
  9
$MAXACTVP
 70
    64
  9
$PINSBASE
 10
0.0
 20
0.0
 30
0.0
  9
$PLIMCHECK
 70
     0
  9
$PEXTMIN
 10
1.000000000000000E+20
 20
1.000000000000000E+20
 30
1.000000000000000E+20
  9
$PEXTMAX
 10
-1.000000000000000E+20
 20
-1.000000000000000E+20
 30
-1.000000000000000E+20
  9
$PLIMMIN
 10
0.0
 20
0.0
  9
$PLIMMAX
 10
12.0
 20
9.0
  9
$UNITMODE
 70
     0
  9
$VISRETAIN
 70
     1
  9
$PLINEGEN
 70
     0
  9
$PSLTSCALE
 70
     1
  9
$TREEDEPTH
 70
  3020
  9
$PICKSTYLE
 70
     1
  9
$CMLSTYLE
  2
STANDARD
  9
$CMLJUST
 70
     0
  9
$CMLSCALE
 40
1.0
  9
$PROXYGRAPHICS
 70
     1
  9
$MEASUREMENT
 70
     0
  0
ENDSEC
  0
SECTION
  2
CLASSES
  0
CLASS
  1
ACDBDICTIONARYWDFLT
  2
AcDbDictionaryWithDefault
  3
ObjectDBX Classes
 90
        0
280
     0
281
     0
  0
CLASS
  1
VISUALSTYLE
  2
AcDbVisualStyle
  3
ObjectDBX Classes
 90
     4095
280
     0
281
     0
  0
CLASS
  1
MATERIAL
  2
AcDbMaterial
  3
ObjectDBX Classes
 90
     1153
280
     0
281
     0
  0
CLASS
  1
DICTIONARYVAR
  2
AcDbDictionaryVar
  3
ObjectDBX Classes
 90
        0
280
     0
281
     0
  0
CLASS
  1
XRECORD
  2
AcDbXrecord
  3
AutoCAD 2000
 90
        0
280
     0
281
     0
  0
CLASS
  1
LWPOLYLINE
  2
AcDbPolyline
  3
AutoCAD 2000
 90
        0
280
     0
281
     1
  0
CLASS
  1
HATCH
  2
AcDbHatch
  3
AutoCAD 2000
 90
        0
280
     0
281
     1
  0
CLASS
  1
ACDBPLACEHOLDER
  2
AcDbPlaceHolder
  3
ObjectDBX Classes
 90
        0
280
     0
281
     0
  0
CLASS
  1
LAYOUT
  2
AcDbLayout
  3
ObjectDBX Classes
 90
        0
280
     0
281
     0
  0
ENDSEC
  0
SECTION
  2
TABLES
  0
TABLE
  2
VPORT
  5
8
330
0
100
AcDbSymbolTable
 70
     1
  0
VPORT
  5
29
330
8
100
AcDbSymbolTableRecord
100
AcDbViewportTableRecord
  2
*ACTIVE
 70
     0
 10
0.0
 20
0.0
 11
1.0
 21
1.0
 12
10.42990654205607
 22
4.5
 13
0.0
 23
0.0
 14
0.5
 24
0.5
 15
0.5
 25
0.5
 16
0.0
 26
0.0
 36
1.0
 17
0.0
 27
0.0
 37
0.0
 40
9.0
 41
1.972972972850329
 42
50.0
 43
0.0
 44
0.0
 50
0.0
 51
0.0
 71
     0
 72
   100
 73
     1
 74
     3
 75
     0
 76
     0
 77
     0
 78
     0
  0
ENDTAB
  0
TABLE
  2
LTYPE
  5
5
330
0
100
AcDbSymbolTable
 70
     1
  0
LTYPE
  5
14
330
5
100
AcDbSymbolTableRecord
100
AcDbLinetypeTableRecord
  2
BYBLOCK
 70
     0
  3

 72
    65
 73
     0
 40
0.0
  0
LTYPE
  5
15
330
5
100
AcDbSymbolTableRecord
100
AcDbLinetypeTableRecord
  2
BYLAYER
 70
     0
  3

 72
    65
 73
     0
 40
0.0
  0
LTYPE
  5
16
330
5
100
AcDbSymbolTableRecord
100
AcDbLinetypeTableRecord
  2
CONTINUOUS
 70
     0
  3
Solid line
 72
    65
 73
     0
 40
0.0
  0
ENDTAB
  0
TABLE
  2
LAYER
  5
2
330
0
100
AcDbSymbolTable
 70
     2
  0
LAYER
  5
10
330
2
100
AcDbSymbolTableRecord
100
AcDbLayerTableRecord
  2
0
 70
     0
 62
     7
  6
CONTINUOUS
  0
LAYER
  5
40
330
2
100
AcDbSymbolTableRecord
100
AcDbLayerTableRecord
  2
AXIS
 70
     0
 62
     7
  6
CONTINUOUS
  0
ENDTAB
  0
TABLE
  2
STYLE
  5
3
330
0
100
AcDbSymbolTable
 70
     1
  0
STYLE
  5
11
330
3
100
AcDbSymbolTableRecord
100
AcDbTextStyleTableRecord
  2
STANDARD
 70
     0
 40
0.0
 41
1.0
 50
0.0
 71
     0
 42
0.2
  3
txt
  4

  0
ENDTAB
  0
TABLE
  2
VIEW
  5
6
330
0
100
AcDbSymbolTable
 70
     0
  0
ENDTAB
  0
TABLE
  2
UCS
  5
7
330
0
100
AcDbSymbolTable
 70
     0
  0
ENDTAB
  0
TABLE
  2
APPID
  5
9
330
0
100
AcDbSymbolTable
 70
     2
  0
APPID
  5
12
330
9
100
AcDbSymbolTableRecord
100
AcDbRegAppTableRecord
  2
ACAD
 70
     0
  0
APPID
  5
3F
330
9
100
AcDbSymbolTableRecord
100
AcDbRegAppTableRecord
  2
ODA
 70
     0
  0
ENDTAB
  0
TABLE
  2
DIMSTYLE
  5
A
330
0
100
AcDbSymbolTable
 70
     1
  0
DIMSTYLE
105
27
330
A
100
AcDbSymbolTableRecord
100
AcDbDimStyleTableRecord
  2
STANDARD
 70
     0
  3

  4

  5

  6

  7

 40
1.0
 41
0.18
 42
0.0625
 43
0.38
 44
0.18
 45
0.0
 46
0.0
 47
0.0
 48
0.0
140
0.18
141
0.09
142
0.0
143
25.4
144
1.0
145
0.0
146
1.0
147
0.09
 71
     0
 72
     0
 73
     1
 74
     1
 75
     0
 76
     0
 77
     0
 78
     0
170
     0
171
     2
172
     0
173
     0
174
     0
175
     0
176
     0
177
     0
178
     0
270
     2
271
     4
272
     4
273
     2
274
     2
340
11
275
     0
280
     0
281
     0
282
     0
283
     1
284
     0
285
     0
286
     0
287
     3
288
     0
  0
ENDTAB
  0
TABLE
  2
BLOCK_RECORD
  5
1
330
0
100
AcDbSymbolTable
 70
     1
  0
BLOCK_RECORD
  5
1F
330
1
100
AcDbSymbolTableRecord
100
AcDbBlockTableRecord
  2
*MODEL_SPACE
  0
BLOCK_RECORD
  5
1B
330
1
100
AcDbSymbolTableRecord
100
AcDbBlockTableRecord
  2
*PAPER_SPACE
  0
ENDTAB
  0
ENDSEC
  0
SECTION
  2
BLOCKS
  0
BLOCK
  5
20
330
1F
100
AcDbEntity
  8
0
100
AcDbBlockBegin
  2
*MODEL_SPACE
 70
     0
 10
0.0
 20
0.0
 30
0.0
  3
*MODEL_SPACE
  1

  0
ENDBLK
  5
21
330
1F
100
AcDbEntity
  8
0
100
AcDbBlockEnd
  0
BLOCK
  5
1C
330
1B
100
AcDbEntity
 67
     1
  8
0
100
AcDbBlockBegin
  2
*PAPER_SPACE
 70
     0
 10
0.0
 20
0.0
 30
0.0
  3
*PAPER_SPACE
  1

  0
ENDBLK
  5
1D
330
1B
100
AcDbEntity
 67
     1
  8
0
100
AcDbBlockEnd
  0
ENDSEC
  0
SECTION
  2
ENTITIES
  0
SPLINE
  5
41
330
1F
100
AcDbEntity
  8
AXIS
 62
   250
100
AcDbSpline
210
0.0
220
0.0
230
1.0
 70
    11
 71
     3
 72
    20
 73
    16
 74
     0
 42
0.0000000001
 43
0.0000000001
 40
0.0
 40
0.0
 40
0.0
 40
0.0
 40
0.2
 40
0.2
 40
0.2
 40
0.2
 40
0.4
 40
0.4
 40
0.4
 40
0.4
 40
0.6
 40
0.6
 40
0.6
 40
0.6
 40
1.0
 40
1.0
 40
1.0
 40
1.0
 10
-29.2248
 20
-12.4631
 30
0.0
 10
-29.2248
 20
-12.4631
 30
0.0
 10
-29.6482
 20
-15.4633
 30
0.0
 10
-29.6482
 20
-15.4633
 30
0.0
 10
-29.6482
 20
-15.4633
 30
0.0
 10
-29.6482
 20
-15.4633
 30
0.0
 10
-29.7422
 20
-15.4633
 30
0.0
 10
-29.7422
 20
-15.4633
 30
0.0
 10
-29.7422
 20
-15.4633
 30
0.0
 10
-29.7422
 20
-15.4633
 30
0.0
 10
-30.1938
 20
-12.4631
 30
0.0
 10
-30.1938
 20
-12.4631
 30
0.0
 10
-30.1938
 20
-12.4631
 30
0.0
 10
-30.1938
 20
-12.4631
 30
0.0
 10
-29.2248
 20
-12.4631
 30
0.0
 10
-29.2248
 20
-12.4631
 30
0.0
  0
SPLINE
  5
42
330
1F
100
AcDbEntity
  8
AXIS
 62
   250
100
AcDbSpline
210
0.0
220
0.0
230
1.0
 70
    11
 71
     3
 72
    20
 73
    16
 74
     0
 42
0.0000000001
 43
0.0000000001
 40
0.0
 40
0.0
 40
0.0
 40
0.0
 40
0.2
 40
0.2
 40
0.2
 40
0.2
 40
0.4
 40
0.4
 40
0.4
 40
0.4
 40
0.6
 40
0.6
 40
0.6
 40
0.6
 40
1.0
 40
1.0
 40
1.0
 40
1.0
 10
-30.149
 20
8.8557
 30
0.0
 10
-30.149
 20
8.8557
 30
0.0
 10
-29.7256
 20
11.856
 30
0.0
 10
-29.7256
 20
11.856
 30
0.0
 10
-29.7256
 20
11.856
 30
0.0
 10
-29.7256
 20
11.856
 30
0.0
 10
-29.6315
 20
11.856
 30
0.0
 10
-29.6315
 20
11.856
 30
0.0
 10
-29.6315
 20
11.856
 30
0.0
 10
-29.6315
 20
11.856
 30
0.0
 10
-29.18
 20
8.8557
 30
0.0
 10
-29.18
 20
8.8557
 30
0.0
 10
-29.18
 20
8.8557
 30
0.0
 10
-29.18
 20
8.8557
 30
0.0
 10
-30.149
 20
8.8557
 30
0.0
 10
-30.149
 20
8.8557
 30
0.0
  0
SPLINE
  5
43
330
1F
100
AcDbEntity
  8
AXIS
 62
   250
100
AcDbSpline
210
0.0
220
0.0
230
1.0
 70
    11
 71
     3
 72
    20
 73
    16
 74
     0
 42
0.0000000001
 43
0.0000000001
 40
0.0
 40
0.0
 40
0.0
 40
0.0
 40
0.2
 40
0.2
 40
0.2
 40
0.2
 40
0.4
 40
0.4
 40
0.4
 40
0.4
 40
0.6
 40
0.6
 40
0.6
 40
0.6
 40
1.0
 40
1.0
 40
1.0
 40
1.0
 10
9.6702
 20
-2.2859
 30
0.0
 10
9.6702
 20
-2.2859
 30
0.0
 10
7.2487
 20
-4.1085
 30
0.0
 10
7.2487
 20
-4.1085
 30
0.0
 10
7.2487
 20
-4.1085
 30
0.0
 10
7.2487
 20
-4.1085
 30
0.0
 10
7.1822
 20
-4.0419
 30
0.0
 10
7.1822
 20
-4.0419
 30
0.0
 10
7.1822
 20
-4.0419
 30
0.0
 10
7.1822
 20
-4.0419
 30
0.0
 10
8.9848
 20
-1.6006
 30
0.0
 10
8.9848
 20
-1.6006
 30
0.0
 10
8.9848
 20
-1.6006
 30
0.0
 10
8.9848
 20
-1.6006
 30
0.0
 10
9.6702
 20
-2.2859
 30
0.0
 10
9.6702
 20
-2.2859
 30
0.0
  0
SPLINE
  5
44
330
1F
100
AcDbEntity
  8
AXIS
 62
   250
100
AcDbSpline
210
0.0
220
0.0
230
1.0
 70
    11
 71
     3
 72
    20
 73
    16
 74
     0
 42
0.0000000001
 43
0.0000000001
 40
0.0
 40
0.0
 40
0.0
 40
0.0
 40
0.2
 40
0.2
 40
0.2
 40
0.2
 40
0.4
 40
0.4
 40
0.4
 40
0.4
 40
0.6
 40
0.6
 40
0.6
 40
0.6
 40
1.0
 40
1.0
 40
1.0
 40
1.0
 10
2.6524
 20
-7.9296
 30
0.0
 10
2.6524
 20
-7.9296
 30
0.0
 10
5.0734
 20
-6.1074
 30
0.0
 10
5.0734
 20
-6.1074
 30
0.0
 10
5.0734
 20
-6.1074
 30
0.0
 10
5.0734
 20
-6.1074
 30
0.0
 10
5.1399
 20
-6.1739
 30
0.0
 10
5.1399
 20
-6.1739
 30
0.0
 10
5.1399
 20
-6.1739
 30
0.0
 10
5.1399
 20
-6.1739
 30
0.0
 10
3.3376
 20
-8.6148
 30
0.0
 10
3.3376
 20
-8.6148
 30
0.0
 10
3.3376
 20
-8.6148
 30
0.0
 10
3.3376
 20
-8.6148
 30
0.0
 10
2.6524
 20
-7.9296
 30
0.0
 10
2.6524
 20
-7.9296
 30
0.0
  0
SPLINE
  5
45
330
1F
100
AcDbEntity
  8
AXIS
 62
   250
100
AcDbSpline
210
0.0
220
0.0
230
1.0
 70
    11
 71
     3
 72
    20
 73
    16
 74
     0
 42
0.0000000001
 43
0.0000000001
 40
0.0
 40
0.0
 40
0.0
 40
0.0
 40
0.2
 40
0.2
 40
0.2
 40
0.2
 40
0.4
 40
0.4
 40
0.4
 40
0.4
 40
0.6
 40
0.6
 40
0.6
 40
0.6
 40
1.0
 40
1.0
 40
1.0
 40
1.0
 10
13.4547
 20
15.7815
 30
0.0
 10
13.4547
 20
15.7815
 30
0.0
 10
16.4577
 20
15.3577
 30
0.0
 10
16.4577
 20
15.3577
 30
0.0
 10
16.4577
 20
15.3577
 30
0.0
 10
16.4577
 20
15.3577
 30
0.0
 10
16.4577
 20
15.2636
 30
0.0
 10
16.4577
 20
15.2636
 30
0.0
 10
16.4577
 20
15.2636
 30
0.0
 10
16.4577
 20
15.2636
 30
0.0
 10
13.4547
 20
14.8116
 30
0.0
 10
13.4547
 20
14.8116
 30
0.0
 10
13.4547
 20
14.8116
 30
0.0
 10
13.4547
 20
14.8116
 30
0.0
 10
13.4547
 20
15.7815
 30
0.0
 10
13.4547
 20
15.7815
 30
0.0
  0
SPLINE
  5
46
330
1F
100
AcDbEntity
  8
AXIS
 62
   250
100
AcDbSpline
210
0.0
220
0.0
230
1.0
 70
    11
 71
     3
 72
    20
 73
    16
 74
     0
 42
0.0000000001
 43
0.0000000001
 40
0.0
 40
0.0
 40
0.0
 40
0.0
 40
0.2
 40
0.2
 40
0.2
 40
0.2
 40
0.4
 40
0.4
 40
0.4
 40
0.4
 40
0.6
 40
0.6
 40
0.6
 40
0.6
 40
1.0
 40
1.0
 40
1.0
 40
1.0
 10
-21.5132
 20
14.8336
 30
0.0
 10
-21.5132
 20
14.8336
 30
0.0
 10
-24.5132
 20
15.2569
 30
0.0
 10
-24.5132
 20
15.2569
 30
0.0
 10
-24.5132
 20
15.2569
 30
0.0
 10
-24.5132
 20
15.2569
 30
0.0
 10
-24.5132
 20
15.351
 30
0.0
 10
-24.5132
 20
15.351
 30
0.0
 10
-24.5132
 20
15.351
 30
0.0
 10
-24.5132
 20
15.351
 30
0.0
 10
-21.5132
 20
15.8025
 30
0.0
 10
-21.5132
 20
15.8025
 30
0.0
 10
-21.5132
 20
15.8025
 30
0.0
 10
-21.5132
 20
15.8025
 30
0.0
 10
-21.5132
 20
14.8336
 30
0.0
 10
-21.5132
 20
14.8336
 30
0.0
  0
SPLINE
  5
47
330
1F
100
AcDbEntity
  8
AXIS
 62
   250
100
AcDbSpline
210
0.0
220
0.0
230
1.0
 70
    11
 71
     3
 72
    20
 73
    16
 74
     0
 42
0.0000000001
 43
0.0000000001
 40
0.0
 40
0.0
 40
0.0
 40
0.0
 40
0.2
 40
0.2
 40
0.2
 40
0.2
 40
0.4
 40
0.4
 40
0.4
 40
0.4
 40
0.6
 40
0.6
 40
0.6
 40
0.6
 40
1.0
 40
1.0
 40
1.0
 40
1.0
 10
21.2603
 20
14.913
 30
0.0
 10
21.2603
 20
14.913
 30
0.0
 10
24.262
 20
14.4894
 30
0.0
 10
24.262
 20
14.4894
 30
0.0
 10
24.262
 20
14.4894
 30
0.0
 10
24.262
 20
14.4894
 30
0.0
 10
24.262
 20
14.3953
 30
0.0
 10
24.262
 20
14.3953
 30
0.0
 10
24.262
 20
14.3953
 30
0.0
 10
24.262
 20
14.3953
 30
0.0
 10
21.2603
 20
13.9435
 30
0.0
 10
21.2603
 20
13.9435
 30
0.0
 10
21.2603
 20
13.9435
 30
0.0
 10
21.2603
 20
13.9435
 30
0.0
 10
21.2603
 20
14.913
 30
0.0
 10
21.2603
 20
14.913
 30
0.0
  0
SPLINE
  5
48
330
1F
100
AcDbEntity
  8
AXIS
 62
   250
100
AcDbSpline
210
0.0
220
0.0
230
1.0
 70
    11
 71
     3
 72
    20
 73
    16
 74
     0
 42
0.0000000001
 43
0.0000000001
 40
0.0
 40
0.0
 40
0.0
 40
0.0
 40
0.2
 40
0.2
 40
0.2
 40
0.2
 40
0.4
 40
0.4
 40
0.4
 40
0.4
 40
0.6
 40
0.6
 40
0.6
 40
0.6
 40
1.0
 40
1.0
 40
1.0
 40
1.0
 10
21.9305
 20
-16.7704
 30
0.0
 10
21.9305
 20
-16.7704
 30
0.0
 10
24.9322
 20
-17.194
 30
0.0
 10
24.9322
 20
-17.194
 30
0.0
 10
24.9322
 20
-17.194
 30
0.0
 10
24.9322
 20
-17.194
 30
0.0
 10
24.9322
 20
-17.2881
 30
0.0
 10
24.9322
 20
-17.2881
 30
0.0
 10
24.9322
 20
-17.2881
 30
0.0
 10
24.9322
 20
-17.2881
 30
0.0
 10
21.9305
 20
-17.7399
 30
0.0
 10
21.9305
 20
-17.7399
 30
0.0
 10
21.9305
 20
-17.7399
 30
0.0
 10
21.9305
 20
-17.7399
 30
0.0
 10
21.9305
 20
-16.7704
 30
0.0
 10
21.9305
 20
-16.7704
 30
0.0
  0
SPLINE
  5
49
330
1F
100
AcDbEntity
  8
AXIS
 62
   250
100
AcDbSpline
210
0.0
220
0.0
230
1.0
 70
    11
 71
     3
 72
    20
 73
    16
 74
     0
 42
0.0000000001
 43
0.0000000001
 40
0.0
 40
0.0
 40
0.0
 40
0.0
 40
0.2
 40
0.2
 40
0.2
 40
0.2
 40
0.4
 40
0.4
 40
0.4
 40
0.4
 40
0.6
 40
0.6
 40
0.6
 40
0.6
 40
1.0
 40
1.0
 40
1.0
 40
1.0
 10
22.0687
 20
-1.5344
 30
0.0
 10
22.0687
 20
-1.5344
 30
0.0
 10
25.0704
 20
-1.958
 30
0.0
 10
25.0704
 20
-1.958
 30
0.0
 10
25.0704
 20
-1.958
 30
0.0
 10
25.0704
 20
-1.958
 30
0.0
 10
25.0704
 20
-2.0521
 30
0.0
 10
25.0704
 20
-2.0521
 30
0.0
 10
25.0704
 20
-2.0521
 30
0.0
 10
25.0704
 20
-2.0521
 30
0.0
 10
22.0687
 20
-2.5039
 30
0.0
 10
22.0687
 20
-2.5039
 30
0.0
 10
22.0687
 20
-2.5039
 30
0.0
 10
22.0687
 20
-2.5039
 30
0.0
 10
22.0687
 20
-1.5344
 30
0.0
 10
22.0687
 20
-1.5344
 30
0.0
  0
SPLINE
  5
4A
330
1F
100
AcDbEntity
  8
AXIS
 62
   250
100
AcDbSpline
210
0.0
220
0.0
230
1.0
 70
    11
 71
     3
 72
    20
 73
    16
 74
     0
 42
0.0000000001
 43
0.0000000001
 40
0.0
 40
0.0
 40
0.0
 40
0.0
 40
0.2
 40
0.2
 40
0.2
 40
0.2
 40
0.4
 40
0.4
 40
0.4
 40
0.4
 40
0.6
 40
0.6
 40
0.6
 40
0.6
 40
1.0
 40
1.0
 40
1.0
 40
1.0
 10
28.4193
 20
13.9551
 30
0.0
 10
28.4193
 20
13.9551
 30
0.0
 10
25.4171
 20
14.3787
 30
0.0
 10
25.4171
 20
14.3787
 30
0.0
 10
25.4171
 20
14.3787
 30
0.0
 10
25.4171
 20
14.3787
 30
0.0
 10
25.4171
 20
14.4728
 30
0.0
 10
25.4171
 20
14.4728
 30
0.0
 10
25.4171
 20
14.4728
 30
0.0
 10
25.4171
 20
14.4728
 30
0.0
 10
28.4193
 20
14.9247
 30
0.0
 10
28.4193
 20
14.9247
 30
0.0
 10
28.4193
 20
14.9247
 30
0.0
 10
28.4193
 20
14.9247
 30
0.0
 10
28.4193
 20
13.9551
 30
0.0
 10
28.4193
 20
13.9551
 30
0.0
  0
SPLINE
  5
4B
330
1F
100
AcDbEntity
  8
AXIS
 62
   250
100
AcDbSpline
210
0.0
220
0.0
230
1.0
 70
    11
 71
     3
 72
    20
 73
    16
 74
     0
 42
0.0000000001
 43
0.0000000001
 40
0.0
 40
0.0
 40
0.0
 40
0.0
 40
0.2
 40
0.2
 40
0.2
 40
0.2
 40
0.4
 40
0.4
 40
0.4
 40
0.4
 40
0.6
 40
0.6
 40
0.6
 40
0.6
 40
1.0
 40
1.0
 40
1.0
 40
1.0
 10
28.3289
 20
-17.7036
 30
0.0
 10
28.3289
 20
-17.7036
 30
0.0
 10
25.3267
 20
-17.28
 30
0.0
 10
25.3267
 20
-17.28
 30
0.0
 10
25.3267
 20
-17.28
 30
0.0
 10
25.3267
 20
-17.28
 30
0.0
 10
25.3267
 20
-17.1859
 30
0.0
 10
25.3267
 20
-17.1859
 30
0.0
 10
25.3267
 20
-17.1859
 30
0.0
 10
25.3267
 20
-17.1859
 30
0.0
 10
28.3289
 20
-16.734
 30
0.0
 10
28.3289
 20
-16.734
 30
0.0
 10
28.3289
 20
-16.734
 30
0.0
 10
28.3289
 20
-16.734
 30
0.0
 10
28.3289
 20
-17.7036
 30
0.0
 10
28.3289
 20
-17.7036
 30
0.0
  0
SPLINE
  5
4C
330
1F
100
AcDbEntity
  8
AXIS
 62
   250
100
AcDbSpline
210
0.0
220
0.0
230
1.0
 70
    11
 71
     3
 72
    20
 73
    16
 74
     0
 42
0.0000000001
 43
0.0000000001
 40
0.0
 40
0.0
 40
0.0
 40
0.0
 40
0.2
 40
0.2
 40
0.2
 40
0.2
 40
0.4
 40
0.4
 40
0.4
 40
0.4
 40
0.6
 40
0.6
 40
0.6
 40
0.6
 40
1.0
 40
1.0
 40
1.0
 40
1.0
 10
30.9917
 20
-2.4731
 30
0.0
 10
30.9917
 20
-2.4731
 30
0.0
 10
27.9895
 20
-2.0495
 30
0.0
 10
27.9895
 20
-2.0495
 30
0.0
 10
27.9895
 20
-2.0495
 30
0.0
 10
27.9895
 20
-2.0495
 30
0.0
 10
27.9895
 20
-1.9554
 30
0.0
 10
27.9895
 20
-1.9554
 30
0.0
 10
27.9895
 20
-1.9554
 30
0.0
 10
27.9895
 20
-1.9554
 30
0.0
 10
30.9917
 20
-1.5035
 30
0.0
 10
30.9917
 20
-1.5035
 30
0.0
 10
30.9917
 20
-1.5035
 30
0.0
 10
30.9917
 20
-1.5035
 30
0.0
 10
30.9917
 20
-2.4731
 30
0.0
 10
30.9917
 20
-2.4731
 30
0.0
  0
SPLINE
  5
4D
330
1F
100
AcDbEntity
  8
AXIS
 62
   250
100
AcDbSpline
210
0.0
220
0.0
230
1.0
 70
    24
 71
     3
 72
     8
 73
     4
 74
     0
 42
0.0000000001
 43
0.0000000001
 40
0.0
 40
0.0
 40
0.0
 40
0.0
 40
1.0
 40
1.0
 40
1.0
 40
1.0
 10
-24.7845
 20
-15.516
 30
0.0
 10
-24.7845
 20
-15.516
 30
0.0
 10
-29.9346
 20
-15.516
 30
0.0
 10
-29.9346
 20
-15.516
 30
0.0
  0
SPLINE
  5
4E
330
1F
100
AcDbEntity
  8
AXIS
 62
   250
100
AcDbSpline
210
0.0
220
0.0
230
1.0
 70
    24
 71
     3
 72
     8
 73
     4
 74
     0
 42
0.0000000001
 43
0.0000000001
 40
0.0
 40
0.0
 40
0.0
 40
0.0
 40
1.0
 40
1.0
 40
1.0
 40
1.0
 10
-24.851
 20
11.9552
 30
0.0
 10
-24.851
 20
11.9552
 30
0.0
 10
-29.9346
 20
11.9552
 30
0.0
 10
-29.9346
 20
11.9552
 30
0.0
  0
SPLINE
  5
4F
330
1F
100
AcDbEntity
  8
AXIS
 62
   250
100
AcDbSpline
210
0.0
220
0.0
230
1.0
 70
    24
 71
     3
 72
     8
 73
     4
 74
     0
 42
0.0000000001
 43
0.0000000001
 40
0.0
 40
0.0
 40
0.0
 40
0.0
 40
1.0
 40
1.0
 40
1.0
 40
1.0
 10
-29.6968
 20
11.9552
 30
0.0
 10
-29.6968
 20
11.9552
 30
0.0
 10
-29.6968
 20
-15.0893
 30
0.0
 10
-29.6968
 20
-15.0893
 30
0.0
  0
SPLINE
  5
50
330
1F
100
AcDbEntity
  8
AXIS
 62
   250
100
AcDbSpline
210
0.0
220
0.0
230
1.0
 70
    24
 71
     3
 72
     8
 73
     4
 74
     0
 42
0.0000000001
 43
0.0000000001
 40
0.0
 40
0.0
 40
0.0
 40
0.0
 40
1.0
 40
1.0
 40
1.0
 40
1.0
 10
16.5287
 20
12.7421
 30
0.0
 10
16.5287
 20
12.7421
 30
0.0
 10
16.5287
 20
15.5542
 30
0.0
 10
16.5287
 20
15.5542
 30
0.0
  0
SPLINE
  5
51
330
1F
100
AcDbEntity
  8
AXIS
 62
   250
100
AcDbSpline
210
0.0
220
0.0
230
1.0
 70
    24
 71
     3
 72
     8
 73
     4
 74
     0
 42
0.0000000001
 43
0.0000000001
 40
0.0
 40
0.0
 40
0.0
 40
0.0
 40
1.0
 40
1.0
 40
1.0
 40
1.0
 10
-24.5947
 20
12.7372
 30
0.0
 10
-24.5947
 20
12.7372
 30
0.0
 10
-24.5947
 20
15.5542
 30
0.0
 10
-24.5947
 20
15.5542
 30
0.0
  0
SPLINE
  5
52
330
1F
100
AcDbEntity
  8
AXIS
 62
   250
100
AcDbSpline
210
0.0
220
0.0
230
1.0
 70
    24
 71
     3
 72
     8
 73
     4
 74
     0
 42
0.0000000001
 43
0.0000000001
 40
0.0
 40
0.0
 40
0.0
 40
0.0
 40
1.0
 40
1.0
 40
1.0
 40
1.0
 10
16.5287
 20
15.3163
 30
0.0
 10
16.5287
 20
15.3163
 30
0.0
 10
-24.2014
 20
15.3163
 30
0.0
 10
-24.2014
 20
15.3163
 30
0.0
  0
SPLINE
  5
53
330
1F
100
AcDbEntity
  8
AXIS
 62
   250
100
AcDbSpline
210
0.0
220
0.0
230
1.0
 70
    24
 71
     3
 72
     8
 73
     4
 74
     0
 42
0.0000000001
 43
0.0000000001
 40
0.0
 40
0.0
 40
0.0
 40
0.0
 40
1.0
 40
1.0
 40
1.0
 40
1.0
 10
13.4603
 20
2.2086
 30
0.0
 10
13.4603
 20
2.2086
 30
0.0
 10
0.4998
 20
-10.7519
 30
0.0
 10
0.4998
 20
-10.7519
 30
0.0
  0
SPLINE
  5
54
330
1F
100
AcDbEntity
  8
AXIS
 62
   250
100
AcDbSpline
210
0.0
220
0.0
230
1.0
 70
    24
 71
     3
 72
     8
 73
     4
 74
     0
 42
0.0000000001
 43
0.0000000001
 40
0.0
 40
0.0
 40
0.0
 40
0.0
 40
1.0
 40
1.0
 40
1.0
 40
1.0
 10
24.318
 20
14.7832
 30
0.0
 10
24.318
 20
14.7832
 30
0.0
 10
24.318
 20
12.2115
 30
0.0
 10
24.318
 20
12.2115
 30
0.0
  0
SPLINE
  5
55
330
1F
100
AcDbEntity
  8
AXIS
 62
   250
100
AcDbSpline
210
0.0
220
0.0
230
1.0
 70
    24
 71
     3
 72
     8
 73
     4
 74
     0
 42
0.0000000001
 43
0.0000000001
 40
0.0
 40
0.0
 40
0.0
 40
0.0
 40
1.0
 40
1.0
 40
1.0
 40
1.0
 10
24.9717
 20
-15.7056
 30
0.0
 10
24.9717
 20
-15.7056
 30
0.0
 10
24.9717
 20
-17.6403
 30
0.0
 10
24.9717
 20
-17.6403
 30
0.0
  0
SPLINE
  5
56
330
1F
100
AcDbEntity
  8
AXIS
 62
   250
100
AcDbSpline
210
0.0
220
0.0
230
1.0
 70
    24
 71
     3
 72
     8
 73
     4
 74
     0
 42
0.0000000001
 43
0.0000000001
 40
0.0
 40
0.0
 40
0.0
 40
0.0
 40
1.0
 40
1.0
 40
1.0
 40
1.0
 10
25.3215
 20
14.7169
 30
0.0
 10
25.3215
 20
14.7169
 30
0.0
 10
25.3215
 20
12.0626
 30
0.0
 10
25.3215
 20
12.0626
 30
0.0
  0
SPLINE
  5
57
330
1F
100
AcDbEntity
  8
AXIS
 62
   250
100
AcDbSpline
210
0.0
220
0.0
230
1.0
 70
    24
 71
     3
 72
     8
 73
     4
 74
     0
 42
0.0000000001
 43
0.0000000001
 40
0.0
 40
0.0
 40
0.0
 40
0.0
 40
1.0
 40
1.0
 40
1.0
 40
1.0
 10
25.2475
 20
-15.6561
 30
0.0
 10
25.2475
 20
-15.6561
 30
0.0
 10
25.2475
 20
-17.6403
 30
0.0
 10
25.2475
 20
-17.6403
 30
0.0
  0
SPLINE
  5
58
330
1F
100
AcDbEntity
  8
AXIS
 62
   250
100
AcDbSpline
210
0.0
220
0.0
230
1.0
 70
    24
 71
     3
 72
     8
 73
     4
 74
     0
 42
0.0000000001
 43
0.0000000001
 40
0.0
 40
0.0
 40
0.0
 40
0.0
 40
1.0
 40
1.0
 40
1.0
 40
1.0
 10
27.9105
 20
-1.756
 30
0.0
 10
27.9105
 20
-1.756
 30
0.0
 10
27.9105
 20
-3.8726
 30
0.0
 10
27.9105
 20
-3.8726
 30
0.0
  0
SPLINE
  5
59
330
1F
100
AcDbEntity
  8
AXIS
 62
   250
100
AcDbSpline
210
0.0
220
0.0
230
1.0
 70
    24
 71
     3
 72
     8
 73
     4
 74
     0
 42
0.0000000001
 43
0.0000000001
 40
0.0
 40
0.0
 40
0.0
 40
0.0
 40
1.0
 40
1.0
 40
1.0
 40
1.0
 10
29.3496
 20
14.4173
 30
0.0
 10
29.3496
 20
14.4173
 30
0.0
 10
19.9899
 20
14.4173
 30
0.0
 10
19.9899
 20
14.4173
 30
0.0
  0
SPLINE
  5
5A
330
1F
100
AcDbEntity
  8
AXIS
 62
   250
100
AcDbSpline
210
0.0
220
0.0
230
1.0
 70
    24
 71
     3
 72
     8
 73
     4
 74
     0
 42
0.0000000001
 43
0.0000000001
 40
0.0
 40
0.0
 40
0.0
 40
0.0
 40
1.0
 40
1.0
 40
1.0
 40
1.0
 10
29.3088
 20
-17.2331
 30
0.0
 10
29.3088
 20
-17.2331
 30
0.0
 10
19.1388
 20
-17.2331
 30
0.0
 10
19.1388
 20
-17.2331
 30
0.0
  0
SPLINE
  5
5B
330
1F
100
AcDbEntity
  8
AXIS
 62
   250
100
AcDbSpline
210
0.0
220
0.0
230
1.0
 70
    24
 71
     3
 72
     8
 73
     4
 74
     0
 42
0.0000000001
 43
0.0000000001
 40
0.0
 40
0.0
 40
0.0
 40
0.0
 40
1.0
 40
1.0
 40
1.0
 40
1.0
 10
31.9716
 20
-2.0026
 30
0.0
 10
31.9716
 20
-2.0026
 30
0.0
 10
21.156
 20
-2.0026
 30
0.0
 10
21.156
 20
-2.0026
 30
0.0
  0
SPLINE
  5
5C
330
1F
100
AcDbEntity
  8
AXIS
 62
   250
100
AcDbSpline
210
0.0
220
0.0
230
1.0
 70
    11
 71
     3
 72
    92
 73
    88
 74
     0
 42
0.0000000001
 43
0.0000000001
 40
0.0
 40
0.0
 40
0.0
 40
0.0
 40
0.0434782608695652
 40
0.0434782608695652
 40
0.0434782608695652
 40
0.0434782608695652
 40
0.0869565217391304
 40
0.0869565217391304
 40
0.0869565217391304
 40
0.0869565217391304
 40
0.1304347826086956
 40
0.1304347826086956
 40
0.1304347826086956
 40
0.1304347826086956
 40
0.1739130434782609
 40
0.1739130434782609
 40
0.1739130434782609
 40
0.1739130434782609
 40
0.2173913043478261
 40
0.2173913043478261
 40
0.2173913043478261
 40
0.2173913043478261
 40
0.2608695652173913
 40
0.2608695652173913
 40
0.2608695652173913
 40
0.2608695652173913
 40
0.3043478260869565
 40
0.3043478260869565
 40
0.3043478260869565
 40
0.3043478260869565
 40
0.3478260869565217
 40
0.3478260869565217
 40
0.3478260869565217
 40
0.3478260869565217
 40
0.391304347826087
 40
0.391304347826087
 40
0.391304347826087
 40
0.391304347826087
 40
0.4347826086956522
 40
0.4347826086956522
 40
0.4347826086956522
 40
0.4347826086956522
 40
0.4782608695652174
 40
0.4782608695652174
 40
0.4782608695652174
 40
0.4782608695652174
 40
0.5217391304347826
 40
0.5217391304347826
 40
0.5217391304347826
 40
0.5217391304347826
 40
0.5652173913043478
 40
0.5652173913043478
 40
0.5652173913043478
 40
0.5652173913043478
 40
0.6086956521739131
 40
0.6086956521739131
 40
0.6086956521739131
 40
0.6086956521739131
 40
0.6521739130434783
 40
0.6521739130434783
 40
0.6521739130434783
 40
0.6521739130434783
 40
0.6956521739130435
 40
0.6956521739130435
 40
0.6956521739130435
 40
0.6956521739130435
 40
0.7391304347826086
 40
0.7391304347826086
 40
0.7391304347826086
 40
0.7391304347826086
 40
0.782608695652174
 40
0.782608695652174
 40
0.782608695652174
 40
0.782608695652174
 40
0.8260869565217391
 40
0.8260869565217391
 40
0.8260869565217391
 40
0.8260869565217391
 40
0.8695652173913043
 40
0.8695652173913043
 40
0.8695652173913043
 40
0.8695652173913043
 40
0.9130434782608695
 40
0.9130434782608695
 40
0.9130434782608695
 40
0.9130434782608695
 40
1.0
 40
1.0
 40
1.0
 40
1.0
 10
24.2493
 20
15.7116
 30
0.0
 10
24.2493
 20
15.7116
 30
0.0
 10
24.5099
 20
15.7337
 30
0.0
 10
24.5099
 20
15.7337
 30
0.0
 10
24.5099
 20
15.7337
 30
0.0
 10
24.5292
 20
15.6067
 30
0.0
 10
24.5739
 20
15.5117
 30
0.0
 10
24.644
 20
15.4477
 30
0.0
 10
24.644
 20
15.4477
 30
0.0
 10
24.7145
 20
15.3837
 30
0.0
 10
24.7992
 20
15.3517
 30
0.0
 10
24.8984
 20
15.3517
 30
0.0
 10
24.8984
 20
15.3517
 30
0.0
 10
25.0179
 20
15.3517
 30
0.0
 10
25.119
 20
15.3969
 30
0.0
 10
25.2013
 20
15.4867
 30
0.0
 10
25.2013
 20
15.4867
 30
0.0
 10
25.2841
 20
15.577
 30
0.0
 10
25.3255
 20
15.6965
 30
0.0
 10
25.3255
 20
15.8451
 30
0.0
 10
25.3255
 20
15.8451
 30
0.0
 10
25.3255
 20
15.9867
 30
0.0
 10
25.286
 20
16.0982
 30
0.0
 10
25.2065
 20
16.18
 30
0.0
 10
25.2065
 20
16.18
 30
0.0
 10
25.127
 20
16.2619
 30
0.0
 10
25.0231
 20
16.3028
 30
0.0
 10
24.8942
 20
16.3028
 30
0.0
 10
24.8942
 20
16.3028
 30
0.0
 10
24.8142
 20
16.3028
 30
0.0
 10
24.7423
 20
16.2845
 30
0.0
 10
24.6778
 20
16.2483
 30
0.0
 10
24.6778
 20
16.2483
 30
0.0
 10
24.6134
 20
16.212
 30
0.0
 10
24.5631
 20
16.165
 30
0.0
 10
24.5264
 20
16.1071
 30
0.0
 10
24.5264
 20
16.1071
 30
0.0
 10
24.5264
 20
16.1071
 30
0.0
 10
24.2935
 20
16.1372
 30
0.0
 10
24.2935
 20
16.1372
 30
0.0
 10
24.2935
 20
16.1372
 30
0.0
 10
24.2935
 20
16.1372
 30
0.0
 10
24.4892
 20
17.1749
 30
0.0
 10
24.4892
 20
17.1749
 30
0.0
 10
24.4892
 20
17.1749
 30
0.0
 10
24.4892
 20
17.1749
 30
0.0
 10
25.4939
 20
17.1749
 30
0.0
 10
25.4939
 20
17.1749
 30
0.0
 10
25.4939
 20
17.1749
 30
0.0
 10
25.4939
 20
17.1749
 30
0.0
 10
25.4939
 20
16.9378
 30
0.0
 10
25.4939
 20
16.9378
 30
0.0
 10
25.4939
 20
16.9378
 30
0.0
 10
25.4939
 20
16.9378
 30
0.0
 10
24.6877
 20
16.9378
 30
0.0
 10
24.6877
 20
16.9378
 30
0.0
 10
24.6877
 20
16.9378
 30
0.0
 10
24.6877
 20
16.9378
 30
0.0
 10
24.5786
 20
16.395
 30
0.0
 10
24.5786
 20
16.395
 30
0.0
 10
24.5786
 20
16.395
 30
0.0
 10
24.6999
 20
16.4797
 30
0.0
 10
24.8274
 20
16.522
 30
0.0
 10
24.9605
 20
16.522
 30
0.0
 10
24.9605
 20
16.522
 30
0.0
 10
25.1369
 20
16.522
 30
0.0
 10
25.2855
 20
16.4609
 30
0.0
 10
25.4069
 20
16.3386
 30
0.0
 10
25.4069
 20
16.3386
 30
0.0
 10
25.5282
 20
16.2163
 30
0.0
 10
25.5889
 20
16.0592
 30
0.0
 10
25.5889
 20
15.8673
 30
0.0
 10
25.5889
 20
15.8673
 30
0.0
 10
25.5889
 20
15.6843
 30
0.0
 10
25.5353
 20
15.5262
 30
0.0
 10
25.429
 20
15.3931
 30
0.0
 10
25.429
 20
15.3931
 30
0.0
 10
25.2992
 20
15.2299
 30
0.0
 10
25.1223
 20
15.1481
 30
0.0
 10
24.8984
 20
15.1481
 30
0.0
 10
24.8984
 20
15.1481
 30
0.0
 10
24.7145
 20
15.1481
 30
0.0
 10
24.5645
 20
15.1993
 30
0.0
 10
24.4483
 20
15.3023
 30
0.0
 10
24.4483
 20
15.3023
 30
0.0
 10
24.3321
 20
15.4054
 30
0.0
 10
24.2658
 20
15.5418
 30
0.0
 10
24.2493
 20
15.7116
 30
0.0
  0
SPLINE
  5
5D
330
1F
100
AcDbEntity
  8
AXIS
 62
   250
100
AcDbSpline
210
0.0
220
0.0
230
1.0
 70
    11
 71
     3
 72
    92
 73
    88
 74
     0
 42
0.0000000001
 43
0.0000000001
 40
0.0
 40
0.0
 40
0.0
 40
0.0
 40
0.0434782608695652
 40
0.0434782608695652
 40
0.0434782608695652
 40
0.0434782608695652
 40
0.0869565217391304
 40
0.0869565217391304
 40
0.0869565217391304
 40
0.0869565217391304
 40
0.1304347826086956
 40
0.1304347826086956
 40
0.1304347826086956
 40
0.1304347826086956
 40
0.1739130434782609
 40
0.1739130434782609
 40
0.1739130434782609
 40
0.1739130434782609
 40
0.2173913043478261
 40
0.2173913043478261
 40
0.2173913043478261
 40
0.2173913043478261
 40
0.2608695652173913
 40
0.2608695652173913
 40
0.2608695652173913
 40
0.2608695652173913
 40
0.3043478260869565
 40
0.3043478260869565
 40
0.3043478260869565
 40
0.3043478260869565
 40
0.3478260869565217
 40
0.3478260869565217
 40
0.3478260869565217
 40
0.3478260869565217
 40
0.391304347826087
 40
0.391304347826087
 40
0.391304347826087
 40
0.391304347826087
 40
0.4347826086956522
 40
0.4347826086956522
 40
0.4347826086956522
 40
0.4347826086956522
 40
0.4782608695652174
 40
0.4782608695652174
 40
0.4782608695652174
 40
0.4782608695652174
 40
0.5217391304347826
 40
0.5217391304347826
 40
0.5217391304347826
 40
0.5217391304347826
 40
0.5652173913043478
 40
0.5652173913043478
 40
0.5652173913043478
 40
0.5652173913043478
 40
0.6086956521739131
 40
0.6086956521739131
 40
0.6086956521739131
 40
0.6086956521739131
 40
0.6521739130434783
 40
0.6521739130434783
 40
0.6521739130434783
 40
0.6521739130434783
 40
0.6956521739130435
 40
0.6956521739130435
 40
0.6956521739130435
 40
0.6956521739130435
 40
0.7391304347826086
 40
0.7391304347826086
 40
0.7391304347826086
 40
0.7391304347826086
 40
0.782608695652174
 40
0.782608695652174
 40
0.782608695652174
 40
0.782608695652174
 40
0.8260869565217391
 40
0.8260869565217391
 40
0.8260869565217391
 40
0.8260869565217391
 40
0.8695652173913043
 40
0.8695652173913043
 40
0.8695652173913043
 40
0.8695652173913043
 40
0.9130434782608695
 40
0.9130434782608695
 40
0.9130434782608695
 40
0.9130434782608695
 40
1.0
 40
1.0
 40
1.0
 40
1.0
 10
21.4029
 20
-16.4445
 30
0.0
 10
21.4029
 20
-16.4445
 30
0.0
 10
21.4029
 20
-16.683
 30
0.0
 10
21.4029
 20
-16.683
 30
0.0
 10
21.4029
 20
-16.683
 30
0.0
 10
21.4029
 20
-16.683
 30
0.0
 10
20.0675
 20
-16.683
 30
0.0
 10
20.0675
 20
-16.683
 30
0.0
 10
20.0675
 20
-16.683
 30
0.0
 10
20.0656
 20
-16.6233
 30
0.0
 10
20.075
 20
-16.5659
 30
0.0
 10
20.0962
 20
-16.5108
 30
0.0
 10
20.0962
 20
-16.5108
 30
0.0
 10
20.1301
 20
-16.4196
 30
0.0
 10
20.1846
 20
-16.3302
 30
0.0
 10
20.2594
 20
-16.2418
 30
0.0
 10
20.2594
 20
-16.2418
 30
0.0
 10
20.3347
 20
-16.1538
 30
0.0
 10
20.4429
 20
-16.0518
 30
0.0
 10
20.584
 20
-15.9361
 30
0.0
 10
20.584
 20
-15.9361
 30
0.0
 10
20.8036
 20
-15.7559
 30
0.0
 10
20.9523
 20
-15.6134
 30
0.0
 10
21.0294
 20
-15.508
 30
0.0
 10
21.0294
 20
-15.508
 30
0.0
 10
21.1065
 20
-15.4031
 30
0.0
 10
21.1451
 20
-15.3034
 30
0.0
 10
21.1451
 20
-15.2098
 30
0.0
 10
21.1451
 20
-15.2098
 30
0.0
 10
21.1451
 20
-15.1115
 30
0.0
 10
21.1098
 20
-15.0287
 30
0.0
 10
21.0398
 20
-14.961
 30
0.0
 10
21.0398
 20
-14.961
 30
0.0
 10
20.9692
 20
-14.8937
 30
0.0
 10
20.8775
 20
-14.8599
 30
0.0
 10
20.7646
 20
-14.8599
 30
0.0
 10
20.7646
 20
-14.8599
 30
0.0
 10
20.6451
 20
-14.8599
 30
0.0
 10
20.5496
 20
-14.8956
 30
0.0
 10
20.4781
 20
-14.9676
 30
0.0
 10
20.4781
 20
-14.9676
 30
0.0
 10
20.4062
 20
-15.0391
 30
0.0
 10
20.37
 20
-15.1383
 30
0.0
 10
20.369
 20
-15.2648
 30
0.0
 10
20.369
 20
-15.2648
 30
0.0
 10
20.369
 20
-15.2648
 30
0.0
 10
20.1141
 20
-15.239
 30
0.0
 10
20.1141
 20
-15.239
 30
0.0
 10
20.1141
 20
-15.239
 30
0.0
 10
20.1315
 20
-15.0485
 30
0.0
 10
20.1973
 20
-14.9036
 30
0.0
 10
20.3112
 20
-14.8039
 30
0.0
 10
20.3112
 20
-14.8039
 30
0.0
 10
20.425
 20
-14.7042
 30
0.0
 10
20.5783
 20
-14.6543
 30
0.0
 10
20.7702
 20
-14.6543
 30
0.0
 10
20.7702
 20
-14.6543
 30
0.0
 10
20.964
 20
-14.6543
 30
0.0
 10
21.1174
 20
-14.7084
 30
0.0
 10
21.2303
 20
-14.8156
 30
0.0
 10
21.2303
 20
-14.8156
 30
0.0
 10
21.3436
 20
-14.9234
 30
0.0
 10
21.4001
 20
-15.0565
 30
0.0
 10
21.4001
 20
-15.2155
 30
0.0
 10
21.4001
 20
-15.2155
 30
0.0
 10
21.4001
 20
-15.2964
 30
0.0
 10
21.3836
 20
-15.3759
 30
0.0
 10
21.3502
 20
-15.4539
 30
0.0
 10
21.3502
 20
-15.4539
 30
0.0
 10
21.3173
 20
-15.532
 30
0.0
 10
21.2622
 20
-15.6143
 30
0.0
 10
21.1856
 20
-15.7004
 30
0.0
 10
21.1856
 20
-15.7004
 30
0.0
 10
21.1089
 20
-15.787
 30
0.0
 10
20.9814
 20
-15.9055
 30
0.0
 10
20.8032
 20
-16.056
 30
0.0
 10
20.8032
 20
-16.056
 30
0.0
 10
20.6545
 20
-16.1811
 30
0.0
 10
20.559
 20
-16.2658
 30
0.0
 10
20.5167
 20
-16.3105
 30
0.0
 10
20.5167
 20
-16.3105
 30
0.0
 10
20.4744
 20
-16.3547
 30
0.0
 10
20.4396
 20
-16.3994
 30
0.0
 10
20.4118
 20
-16.4445
 30
0.0
 10
20.4118
 20
-16.4445
 30
0.0
 10
20.4118
 20
-16.4445
 30
0.0
 10
21.4029
 20
-16.4445
 30
0.0
 10
21.4029
 20
-16.4445
 30
0.0
  0
SPLINE
  5
5E
330
1F
100
AcDbEntity
  8
AXIS
 62
   250
100
AcDbSpline
210
0.0
220
0.0
230
1.0
 70
    11
 71
     3
 72
    92
 73
    88
 74
     0
 42
0.0000000001
 43
0.0000000001
 40
0.0
 40
0.0
 40
0.0
 40
0.0
 40
0.0434782608695652
 40
0.0434782608695652
 40
0.0434782608695652
 40
0.0434782608695652
 40
0.0869565217391304
 40
0.0869565217391304
 40
0.0869565217391304
 40
0.0869565217391304
 40
0.1304347826086956
 40
0.1304347826086956
 40
0.1304347826086956
 40
0.1304347826086956
 40
0.1739130434782609
 40
0.1739130434782609
 40
0.1739130434782609
 40
0.1739130434782609
 40
0.2173913043478261
 40
0.2173913043478261
 40
0.2173913043478261
 40
0.2173913043478261
 40
0.2608695652173913
 40
0.2608695652173913
 40
0.2608695652173913
 40
0.2608695652173913
 40
0.3043478260869565
 40
0.3043478260869565
 40
0.3043478260869565
 40
0.3043478260869565
 40
0.3478260869565217
 40
0.3478260869565217
 40
0.3478260869565217
 40
0.3478260869565217
 40
0.391304347826087
 40
0.391304347826087
 40
0.391304347826087
 40
0.391304347826087
 40
0.4347826086956522
 40
0.4347826086956522
 40
0.4347826086956522
 40
0.4347826086956522
 40
0.4782608695652174
 40
0.4782608695652174
 40
0.4782608695652174
 40
0.4782608695652174
 40
0.5217391304347826
 40
0.5217391304347826
 40
0.5217391304347826
 40
0.5217391304347826
 40
0.5652173913043478
 40
0.5652173913043478
 40
0.5652173913043478
 40
0.5652173913043478
 40
0.6086956521739131
 40
0.6086956521739131
 40
0.6086956521739131
 40
0.6086956521739131
 40
0.6521739130434783
 40
0.6521739130434783
 40
0.6521739130434783
 40
0.6521739130434783
 40
0.6956521739130435
 40
0.6956521739130435
 40
0.6956521739130435
 40
0.6956521739130435
 40
0.7391304347826086
 40
0.7391304347826086
 40
0.7391304347826086
 40
0.7391304347826086
 40
0.782608695652174
 40
0.782608695652174
 40
0.782608695652174
 40
0.782608695652174
 40
0.8260869565217391
 40
0.8260869565217391
 40
0.8260869565217391
 40
0.8260869565217391
 40
0.8695652173913043
 40
0.8695652173913043
 40
0.8695652173913043
 40
0.8695652173913043
 40
0.9130434782608695
 40
0.9130434782608695
 40
0.9130434782608695
 40
0.9130434782608695
 40
1.0
 40
1.0
 40
1.0
 40
1.0
 10
27.814
 20
-0.9714
 30
0.0
 10
27.814
 20
-0.9714
 30
0.0
 10
27.814
 20
-1.2099
 30
0.0
 10
27.814
 20
-1.2099
 30
0.0
 10
27.814
 20
-1.2099
 30
0.0
 10
27.814
 20
-1.2099
 30
0.0
 10
26.4786
 20
-1.2099
 30
0.0
 10
26.4786
 20
-1.2099
 30
0.0
 10
26.4786
 20
-1.2099
 30
0.0
 10
26.4767
 20
-1.1502
 30
0.0
 10
26.4861
 20
-1.0928
 30
0.0
 10
26.5073
 20
-1.0377
 30
0.0
 10
26.5073
 20
-1.0377
 30
0.0
 10
26.5412
 20
-0.9465
 30
0.0
 10
26.5957
 20
-0.8571
 30
0.0
 10
26.6705
 20
-0.7687
 30
0.0
 10
26.6705
 20
-0.7687
 30
0.0
 10
26.7458
 20
-0.6807
 30
0.0
 10
26.854
 20
-0.5787
 30
0.0
 10
26.9951
 20
-0.463
 30
0.0
 10
26.9951
 20
-0.463
 30
0.0
 10
27.2147
 20
-0.2828
 30
0.0
 10
27.3634
 20
-0.1403
 30
0.0
 10
27.4405
 20
-0.0349
 30
0.0
 10
27.4405
 20
-0.0349
 30
0.0
 10
27.5176
 20
0.07
 30
0.0
 10
27.5562
 20
0.1697
 30
0.0
 10
27.5562
 20
0.2633
 30
0.0
 10
27.5562
 20
0.2633
 30
0.0
 10
27.5562
 20
0.3616
 30
0.0
 10
27.5209
 20
0.4444
 30
0.0
 10
27.4509
 20
0.5121
 30
0.0
 10
27.4509
 20
0.5121
 30
0.0
 10
27.3803
 20
0.5794
 30
0.0
 10
27.2886
 20
0.6132
 30
0.0
 10
27.1757
 20
0.6132
 30
0.0
 10
27.1757
 20
0.6132
 30
0.0
 10
27.0562
 20
0.6132
 30
0.0
 10
26.9607
 20
0.5775
 30
0.0
 10
26.8892
 20
0.5055
 30
0.0
 10
26.8892
 20
0.5055
 30
0.0
 10
26.8173
 20
0.434
 30
0.0
 10
26.7811
 20
0.3348
 30
0.0
 10
26.7801
 20
0.2083
 30
0.0
 10
26.7801
 20
0.2083
 30
0.0
 10
26.7801
 20
0.2083
 30
0.0
 10
26.5252
 20
0.2341
 30
0.0
 10
26.5252
 20
0.2341
 30
0.0
 10
26.5252
 20
0.2341
 30
0.0
 10
26.5426
 20
0.4246
 30
0.0
 10
26.6084
 20
0.5695
 30
0.0
 10
26.7223
 20
0.6692
 30
0.0
 10
26.7223
 20
0.6692
 30
0.0
 10
26.8361
 20
0.7689
 30
0.0
 10
26.9894
 20
0.8188
 30
0.0
 10
27.1813
 20
0.8188
 30
0.0
 10
27.1813
 20
0.8188
 30
0.0
 10
27.3751
 20
0.8188
 30
0.0
 10
27.5285
 20
0.7647
 30
0.0
 10
27.6414
 20
0.6575
 30
0.0
 10
27.6414
 20
0.6575
 30
0.0
 10
27.7547
 20
0.5497
 30
0.0
 10
27.8112
 20
0.4166
 30
0.0
 10
27.8112
 20
0.2576
 30
0.0
 10
27.8112
 20
0.2576
 30
0.0
 10
27.8112
 20
0.1767
 30
0.0
 10
27.7947
 20
0.0972
 30
0.0
 10
27.7613
 20
0.0192
 30
0.0
 10
27.7613
 20
0.0192
 30
0.0
 10
27.7284
 20
-0.0589
 30
0.0
 10
27.6733
 20
-0.1412
 30
0.0
 10
27.5967
 20
-0.2273
 30
0.0
 10
27.5967
 20
-0.2273
 30
0.0
 10
27.52
 20
-0.3139
 30
0.0
 10
27.3925
 20
-0.4324
 30
0.0
 10
27.2143
 20
-0.5829
 30
0.0
 10
27.2143
 20
-0.5829
 30
0.0
 10
27.0656
 20
-0.708
 30
0.0
 10
26.9701
 20
-0.7927
 30
0.0
 10
26.9278
 20
-0.8374
 30
0.0
 10
26.9278
 20
-0.8374
 30
0.0
 10
26.8855
 20
-0.8816
 30
0.0
 10
26.8507
 20
-0.9263
 30
0.0
 10
26.8229
 20
-0.9714
 30
0.0
 10
26.8229
 20
-0.9714
 30
0.0
 10
26.8229
 20
-0.9714
 30
0.0
 10
27.814
 20
-0.9714
 30
0.0
 10
27.814
 20
-0.9714
 30
0.0
  0
SPLINE
  5
5F
330
1F
100
AcDbEntity
  8
AXIS
 62
   250
100
AcDbSpline
210
0.0
220
0.0
230
1.0
 70
    11
 71
     3
 72
    40
 73
    36
 74
     0
 42
0.0000000001
 43
0.0000000001
 40
0.0
 40
0.0
 40
0.0
 40
0.0
 40
0.1
 40
0.1
 40
0.1
 40
0.1
 40
0.2
 40
0.2
 40
0.2
 40
0.2
 40
0.3
 40
0.3
 40
0.3
 40
0.3
 40
0.4
 40
0.4
 40
0.4
 40
0.4
 40
0.5
 40
0.5
 40
0.5
 40
0.5
 40
0.6
 40
0.6
 40
0.6
 40
0.6
 40
0.7
 40
0.7
 40
0.7
 40
0.7
 40
0.8
 40
0.8
 40
0.8
 40
0.8
 40
1.0
 40
1.0
 40
1.0
 40
1.0
 10
29.0139
 20
-1.2099
 30
0.0
 10
29.0139
 20
-1.2099
 30
0.0
 10
28.766
 20
-1.2099
 30
0.0
 10
28.766
 20
-1.2099
 30
0.0
 10
28.766
 20
-1.2099
 30
0.0
 10
28.766
 20
-1.2099
 30
0.0
 10
28.766
 20
0.3705
 30
0.0
 10
28.766
 20
0.3705
 30
0.0
 10
28.766
 20
0.3705
 30
0.0
 10
28.7062
 20
0.3136
 30
0.0
 10
28.6282
 20
0.2567
 30
0.0
 10
28.5313
 20
0.1998
 30
0.0
 10
28.5313
 20
0.1998
 30
0.0
 10
28.4339
 20
0.1429
 30
0.0
 10
28.3469
 20
0.1001
 30
0.0
 10
28.2697
 20
0.0718
 30
0.0
 10
28.2697
 20
0.0718
 30
0.0
 10
28.2697
 20
0.0718
 30
0.0
 10
28.2697
 20
0.3113
 30
0.0
 10
28.2697
 20
0.3113
 30
0.0
 10
28.2697
 20
0.3113
 30
0.0
 10
28.4085
 20
0.3766
 30
0.0
 10
28.5299
 20
0.4557
 30
0.0
 10
28.6338
 20
0.5483
 30
0.0
 10
28.6338
 20
0.5483
 30
0.0
 10
28.7373
 20
0.6415
 30
0.0
 10
28.8111
 20
0.7313
 30
0.0
 10
28.8544
 20
0.8188
 30
0.0
 10
28.8544
 20
0.8188
 30
0.0
 10
28.8544
 20
0.8188
 30
0.0
 10
29.0139
 20
0.8188
 30
0.0
 10
29.0139
 20
0.8188
 30
0.0
 10
29.0139
 20
0.8188
 30
0.0
 10
29.0139
 20
0.8188
 30
0.0
 10
29.0139
 20
-1.2099
 30
0.0
 10
29.0139
 20
-1.2099
 30
0.0
  0
SPLINE
  5
60
330
1F
100
AcDbEntity
  8
AXIS
 62
   250
100
AcDbSpline
210
0.0
220
0.0
230
1.0
 70
    11
 71
     3
 72
    92
 73
    88
 74
     0
 42
0.0000000001
 43
0.0000000001
 40
0.0
 40
0.0
 40
0.0
 40
0.0
 40
0.0434782608695652
 40
0.0434782608695652
 40
0.0434782608695652
 40
0.0434782608695652
 40
0.0869565217391304
 40
0.0869565217391304
 40
0.0869565217391304
 40
0.0869565217391304
 40
0.1304347826086956
 40
0.1304347826086956
 40
0.1304347826086956
 40
0.1304347826086956
 40
0.1739130434782609
 40
0.1739130434782609
 40
0.1739130434782609
 40
0.1739130434782609
 40
0.2173913043478261
 40
0.2173913043478261
 40
0.2173913043478261
 40
0.2173913043478261
 40
0.2608695652173913
 40
0.2608695652173913
 40
0.2608695652173913
 40
0.2608695652173913
 40
0.3043478260869565
 40
0.3043478260869565
 40
0.3043478260869565
 40
0.3043478260869565
 40
0.3478260869565217
 40
0.3478260869565217
 40
0.3478260869565217
 40
0.3478260869565217
 40
0.391304347826087
 40
0.391304347826087
 40
0.391304347826087
 40
0.391304347826087
 40
0.4347826086956522
 40
0.4347826086956522
 40
0.4347826086956522
 40
0.4347826086956522
 40
0.4782608695652174
 40
0.4782608695652174
 40
0.4782608695652174
 40
0.4782608695652174
 40
0.5217391304347826
 40
0.5217391304347826
 40
0.5217391304347826
 40
0.5217391304347826
 40
0.5652173913043478
 40
0.5652173913043478
 40
0.5652173913043478
 40
0.5652173913043478
 40
0.6086956521739131
 40
0.6086956521739131
 40
0.6086956521739131
 40
0.6086956521739131
 40
0.6521739130434783
 40
0.6521739130434783
 40
0.6521739130434783
 40
0.6521739130434783
 40
0.6956521739130435
 40
0.6956521739130435
 40
0.6956521739130435
 40
0.6956521739130435
 40
0.7391304347826086
 40
0.7391304347826086
 40
0.7391304347826086
 40
0.7391304347826086
 40
0.782608695652174
 40
0.782608695652174
 40
0.782608695652174
 40
0.782608695652174
 40
0.8260869565217391
 40
0.8260869565217391
 40
0.8260869565217391
 40
0.8260869565217391
 40
0.8695652173913043
 40
0.8695652173913043
 40
0.8695652173913043
 40
0.8695652173913043
 40
0.9130434782608695
 40
0.9130434782608695
 40
0.9130434782608695
 40
0.9130434782608695
 40
1.0
 40
1.0
 40
1.0
 40
1.0
 10
-5.1649
 20
15.9496
 30
0.0
 10
-5.1649
 20
15.9496
 30
0.0
 10
-5.1649
 20
15.7111
 30
0.0
 10
-5.1649
 20
15.7111
 30
0.0
 10
-5.1649
 20
15.7111
 30
0.0
 10
-5.1649
 20
15.7111
 30
0.0
 10
-6.5003
 20
15.7111
 30
0.0
 10
-6.5003
 20
15.7111
 30
0.0
 10
-6.5003
 20
15.7111
 30
0.0
 10
-6.5022
 20
15.7708
 30
0.0
 10
-6.4928
 20
15.8282
 30
0.0
 10
-6.4716
 20
15.8833
 30
0.0
 10
-6.4716
 20
15.8833
 30
0.0
 10
-6.4377
 20
15.9745
 30
0.0
 10
-6.3832
 20
16.0639
 30
0.0
 10
-6.3084
 20
16.1523
 30
0.0
 10
-6.3084
 20
16.1523
 30
0.0
 10
-6.2331
 20
16.2403
 30
0.0
 10
-6.1249
 20
16.3423
 30
0.0
 10
-5.9838
 20
16.458
 30
0.0
 10
-5.9838
 20
16.458
 30
0.0
 10
-5.7642
 20
16.6382
 30
0.0
 10
-5.6155
 20
16.7807
 30
0.0
 10
-5.5384
 20
16.8861
 30
0.0
 10
-5.5384
 20
16.8861
 30
0.0
 10
-5.4613
 20
16.991
 30
0.0
 10
-5.4227
 20
17.0907
 30
0.0
 10
-5.4227
 20
17.1843
 30
0.0
 10
-5.4227
 20
17.1843
 30
0.0
 10
-5.4227
 20
17.2826
 30
0.0
 10
-5.458
 20
17.3654
 30
0.0
 10
-5.528
 20
17.4331
 30
0.0
 10
-5.528
 20
17.4331
 30
0.0
 10
-5.5986
 20
17.5004
 30
0.0
 10
-5.6903
 20
17.5342
 30
0.0
 10
-5.8032
 20
17.5342
 30
0.0
 10
-5.8032
 20
17.5342
 30
0.0
 10
-5.9227
 20
17.5342
 30
0.0
 10
-6.0182
 20
17.4985
 30
0.0
 10
-6.0897
 20
17.4265
 30
0.0
 10
-6.0897
 20
17.4265
 30
0.0
 10
-6.1616
 20
17.355
 30
0.0
 10
-6.1978
 20
17.2558
 30
0.0
 10
-6.1988
 20
17.1293
 30
0.0
 10
-6.1988
 20
17.1293
 30
0.0
 10
-6.1988
 20
17.1293
 30
0.0
 10
-6.4537
 20
17.1551
 30
0.0
 10
-6.4537
 20
17.1551
 30
0.0
 10
-6.4537
 20
17.1551
 30
0.0
 10
-6.4363
 20
17.3456
 30
0.0
 10
-6.3705
 20
17.4905
 30
0.0
 10
-6.2566
 20
17.5902
 30
0.0
 10
-6.2566
 20
17.5902
 30
0.0
 10
-6.1428
 20
17.6899
 30
0.0
 10
-5.9895
 20
17.7398
 30
0.0
 10
-5.7976
 20
17.7398
 30
0.0
 10
-5.7976
 20
17.7398
 30
0.0
 10
-5.6038
 20
17.7398
 30
0.0
 10
-5.4504
 20
17.6857
 30
0.0
 10
-5.3375
 20
17.5785
 30
0.0
 10
-5.3375
 20
17.5785
 30
0.0
 10
-5.2242
 20
17.4707
 30
0.0
 10
-5.1677
 20
17.3376
 30
0.0
 10
-5.1677
 20
17.1786
 30
0.0
 10
-5.1677
 20
17.1786
 30
0.0
 10
-5.1677
 20
17.0977
 30
0.0
 10
-5.1842
 20
17.0182
 30
0.0
 10
-5.2176
 20
16.9402
 30
0.0
 10
-5.2176
 20
16.9402
 30
0.0
 10
-5.2505
 20
16.8621
 30
0.0
 10
-5.3056
 20
16.7798
 30
0.0
 10
-5.3822
 20
16.6937
 30
0.0
 10
-5.3822
 20
16.6937
 30
0.0
 10
-5.4589
 20
16.6071
 30
0.0
 10
-5.5864
 20
16.4886
 30
0.0
 10
-5.7646
 20
16.3381
 30
0.0
 10
-5.7646
 20
16.3381
 30
0.0
 10
-5.9133
 20
16.213
 30
0.0
 10
-6.0088
 20
16.1283
 30
0.0
 10
-6.0511
 20
16.0836
 30
0.0
 10
-6.0511
 20
16.0836
 30
0.0
 10
-6.0934
 20
16.0394
 30
0.0
 10
-6.1282
 20
15.9947
 30
0.0
 10
-6.156
 20
15.9496
 30
0.0
 10
-6.156
 20
15.9496
 30
0.0
 10
-6.156
 20
15.9496
 30
0.0
 10
-5.1649
 20
15.9496
 30
0.0
 10
-5.1649
 20
15.9496
 30
0.0
  0
SPLINE
  5
61
330
1F
100
AcDbEntity
  8
AXIS
 62
   250
100
AcDbSpline
210
0.0
220
0.0
230
1.0
 70
    11
 71
     3
 72
    48
 73
    44
 74
     0
 42
0.0000000001
 43
0.0000000001
 40
0.0
 40
0.0
 40
0.0
 40
0.0
 40
0.0833333333333333
 40
0.0833333333333333
 40
0.0833333333333333
 40
0.0833333333333333
 40
0.1666666666666667
 40
0.1666666666666667
 40
0.1666666666666667
 40
0.1666666666666667
 40
0.25
 40
0.25
 40
0.25
 40
0.25
 40
0.3333333333333333
 40
0.3333333333333333
 40
0.3333333333333333
 40
0.3333333333333333
 40
0.4166666666666667
 40
0.4166666666666667
 40
0.4166666666666667
 40
0.4166666666666667
 40
0.5
 40
0.5
 40
0.5
 40
0.5
 40
0.5833333333333334
 40
0.5833333333333334
 40
0.5833333333333334
 40
0.5833333333333334
 40
0.6666666666666666
 40
0.6666666666666666
 40
0.6666666666666666
 40
0.6666666666666666
 40
0.75
 40
0.75
 40
0.75
 40
0.75
 40
0.8333333333333334
 40
0.8333333333333334
 40
0.8333333333333334
 40
0.8333333333333334
 40
1.0
 40
1.0
 40
1.0
 40
1.0
 10
-4.1043
 20
15.7111
 30
0.0
 10
-4.1043
 20
15.7111
 30
0.0
 10
-4.1043
 20
16.1946
 30
0.0
 10
-4.1043
 20
16.1946
 30
0.0
 10
-4.1043
 20
16.1946
 30
0.0
 10
-4.1043
 20
16.1946
 30
0.0
 10
-4.9806
 20
16.1946
 30
0.0
 10
-4.9806
 20
16.1946
 30
0.0
 10
-4.9806
 20
16.1946
 30
0.0
 10
-4.9806
 20
16.1946
 30
0.0
 10
-4.9806
 20
16.4223
 30
0.0
 10
-4.9806
 20
16.4223
 30
0.0
 10
-4.9806
 20
16.4223
 30
0.0
 10
-4.9806
 20
16.4223
 30
0.0
 10
-4.0586
 20
17.7313
 30
0.0
 10
-4.0586
 20
17.7313
 30
0.0
 10
-4.0586
 20
17.7313
 30
0.0
 10
-4.0586
 20
17.7313
 30
0.0
 10
-3.8559
 20
17.7313
 30
0.0
 10
-3.8559
 20
17.7313
 30
0.0
 10
-3.8559
 20
17.7313
 30
0.0
 10
-3.8559
 20
17.7313
 30
0.0
 10
-3.8559
 20
16.4223
 30
0.0
 10
-3.8559
 20
16.4223
 30
0.0
 10
-3.8559
 20
16.4223
 30
0.0
 10
-3.8559
 20
16.4223
 30
0.0
 10
-3.5831
 20
16.4223
 30
0.0
 10
-3.5831
 20
16.4223
 30
0.0
 10
-3.5831
 20
16.4223
 30
0.0
 10
-3.5831
 20
16.4223
 30
0.0
 10
-3.5831
 20
16.1946
 30
0.0
 10
-3.5831
 20
16.1946
 30
0.0
 10
-3.5831
 20
16.1946
 30
0.0
 10
-3.5831
 20
16.1946
 30
0.0
 10
-3.8559
 20
16.1946
 30
0.0
 10
-3.8559
 20
16.1946
 30
0.0
 10
-3.8559
 20
16.1946
 30
0.0
 10
-3.8559
 20
16.1946
 30
0.0
 10
-3.8559
 20
15.7111
 30
0.0
 10
-3.8559
 20
15.7111
 30
0.0
 10
-3.8559
 20
15.7111
 30
0.0
 10
-3.8559
 20
15.7111
 30
0.0
 10
-4.1043
 20
15.7111
 30
0.0
 10
-4.1043
 20
15.7111
 30
0.0
  0
SPLINE
  5
62
330
1F
100
AcDbEntity
  8
AXIS
 62
   250
100
AcDbSpline
210
0.0
220
0.0
230
1.0
 70
    11
 71
     3
 72
    16
 73
    12
 74
     0
 42
0.0000000001
 43
0.0000000001
 40
0.0
 40
0.0
 40
0.0
 40
0.0
 40
0.25
 40
0.25
 40
0.25
 40
0.25
 40
0.5
 40
0.5
 40
0.5
 40
0.5
 40
1.0
 40
1.0
 40
1.0
 40
1.0
 10
-4.1043
 20
16.4223
 30
0.0
 10
-4.1043
 20
16.4223
 30
0.0
 10
-4.1043
 20
17.3329
 30
0.0
 10
-4.1043
 20
17.3329
 30
0.0
 10
-4.1043
 20
17.3329
 30
0.0
 10
-4.1043
 20
17.3329
 30
0.0
 10
-4.7364
 20
16.4223
 30
0.0
 10
-4.7364
 20
16.4223
 30
0.0
 10
-4.7364
 20
16.4223
 30
0.0
 10
-4.7364
 20
16.4223
 30
0.0
 10
-4.1043
 20
16.4223
 30
0.0
 10
-4.1043
 20
16.4223
 30
0.0
  0
SPLINE
  5
63
330
1F
100
AcDbEntity
  8
AXIS
 62
   250
100
AcDbSpline
210
0.0
220
0.0
230
1.0
 70
    11
 71
     3
 72
    48
 73
    44
 74
     0
 42
0.0000000001
 43
0.0000000001
 40
0.0
 40
0.0
 40
0.0
 40
0.0
 40
0.0833333333333333
 40
0.0833333333333333
 40
0.0833333333333333
 40
0.0833333333333333
 40
0.1666666666666667
 40
0.1666666666666667
 40
0.1666666666666667
 40
0.1666666666666667
 40
0.25
 40
0.25
 40
0.25
 40
0.25
 40
0.3333333333333333
 40
0.3333333333333333
 40
0.3333333333333333
 40
0.3333333333333333
 40
0.4166666666666667
 40
0.4166666666666667
 40
0.4166666666666667
 40
0.4166666666666667
 40
0.5
 40
0.5
 40
0.5
 40
0.5
 40
0.5833333333333334
 40
0.5833333333333334
 40
0.5833333333333334
 40
0.5833333333333334
 40
0.6666666666666666
 40
0.6666666666666666
 40
0.6666666666666666
 40
0.6666666666666666
 40
0.75
 40
0.75
 40
0.75
 40
0.75
 40
0.8333333333333334
 40
0.8333333333333334
 40
0.8333333333333334
 40
0.8333333333333334
 40
1.0
 40
1.0
 40
1.0
 40
1.0
 10
-3.3131
 20
17.4665
 30
0.0
 10
-3.3131
 20
17.4665
 30
0.0
 10
-3.3131
 20
17.705
 30
0.0
 10
-3.3131
 20
17.705
 30
0.0
 10
-3.3131
 20
17.705
 30
0.0
 10
-3.3131
 20
17.705
 30
0.0
 10
-2.0055
 20
17.705
 30
0.0
 10
-2.0055
 20
17.705
 30
0.0
 10
-2.0055
 20
17.705
 30
0.0
 10
-2.0055
 20
17.705
 30
0.0
 10
-2.0055
 20
17.5121
 30
0.0
 10
-2.0055
 20
17.5121
 30
0.0
 10
-2.0055
 20
17.5121
 30
0.0
 10
-2.1339
 20
17.3753
 30
0.0
 10
-2.2614
 20
17.1932
 30
0.0
 10
-2.3879
 20
16.9665
 30
0.0
 10
-2.3879
 20
16.9665
 30
0.0
 10
-2.514
 20
16.7398
 30
0.0
 10
-2.6118
 20
16.506
 30
0.0
 10
-2.6805
 20
16.2666
 30
0.0
 10
-2.6805
 20
16.2666
 30
0.0
 10
-2.7303
 20
16.0973
 30
0.0
 10
-2.7618
 20
15.9124
 30
0.0
 10
-2.7755
 20
15.7111
 30
0.0
 10
-2.7755
 20
15.7111
 30
0.0
 10
-2.7755
 20
15.7111
 30
0.0
 10
-3.0304
 20
15.7111
 30
0.0
 10
-3.0304
 20
15.7111
 30
0.0
 10
-3.0304
 20
15.7111
 30
0.0
 10
-3.0276
 20
15.8701
 30
0.0
 10
-2.9966
 20
16.062
 30
0.0
 10
-2.9368
 20
16.2873
 30
0.0
 10
-2.9368
 20
16.2873
 30
0.0
 10
-2.8771
 20
16.5121
 30
0.0
 10
-2.7915
 20
16.7294
 30
0.0
 10
-2.68
 20
16.9383
 30
0.0
 10
-2.68
 20
16.9383
 30
0.0
 10
-2.5681
 20
17.1471
 30
0.0
 10
-2.4495
 20
17.3235
 30
0.0
 10
-2.3235
 20
17.4665
 30
0.0
 10
-2.3235
 20
17.4665
 30
0.0
 10
-2.3235
 20
17.4665
 30
0.0
 10
-3.3131
 20
17.4665
 30
0.0
 10
-3.3131
 20
17.4665
 30
0.0
  0
SPLINE
  5
64
330
1F
100
AcDbEntity
  8
AXIS
 62
   250
100
AcDbSpline
210
0.0
220
0.0
230
1.0
 70
    11
 71
     3
 72
    40
 73
    36
 74
     0
 42
0.0000000001
 43
0.0000000001
 40
0.0
 40
0.0
 40
0.0
 40
0.0
 40
0.1
 40
0.1
 40
0.1
 40
0.1
 40
0.2
 40
0.2
 40
0.2
 40
0.2
 40
0.3
 40
0.3
 40
0.3
 40
0.3
 40
0.4
 40
0.4
 40
0.4
 40
0.4
 40
0.5
 40
0.5
 40
0.5
 40
0.5
 40
0.6
 40
0.6
 40
0.6
 40
0.6
 40
0.7
 40
0.7
 40
0.7
 40
0.7
 40
0.8
 40
0.8
 40
0.8
 40
0.8
 40
1.0
 40
1.0
 40
1.0
 40
1.0
 10
-29.9428
 20
-2.9549
 30
0.0
 10
-29.9428
 20
-2.9549
 30
0.0
 10
-29.9428
 20
-3.2028
 30
0.0
 10
-29.9428
 20
-3.2028
 30
0.0
 10
-29.9428
 20
-3.2028
 30
0.0
 10
-29.9428
 20
-3.2028
 30
0.0
 10
-31.5232
 20
-3.2028
 30
0.0
 10
-31.5232
 20
-3.2028
 30
0.0
 10
-31.5232
 20
-3.2028
 30
0.0
 10
-31.4663
 20
-3.2626
 30
0.0
 10
-31.4094
 20
-3.3406
 30
0.0
 10
-31.3525
 20
-3.4375
 30
0.0
 10
-31.3525
 20
-3.4375
 30
0.0
 10
-31.2956
 20
-3.5349
 30
0.0
 10
-31.2528
 20
-3.6219
 30
0.0
 10
-31.2245
 20
-3.6991
 30
0.0
 10
-31.2245
 20
-3.6991
 30
0.0
 10
-31.2245
 20
-3.6991
 30
0.0
 10
-31.464
 20
-3.6991
 30
0.0
 10
-31.464
 20
-3.6991
 30
0.0
 10
-31.464
 20
-3.6991
 30
0.0
 10
-31.5293
 20
-3.5603
 30
0.0
 10
-31.6084
 20
-3.4389
 30
0.0
 10
-31.701
 20
-3.335
 30
0.0
 10
-31.701
 20
-3.335
 30
0.0
 10
-31.7942
 20
-3.2315
 30
0.0
 10
-31.884
 20
-3.1577
 30
0.0
 10
-31.9715
 20
-3.1144
 30
0.0
 10
-31.9715
 20
-3.1144
 30
0.0
 10
-31.9715
 20
-3.1144
 30
0.0
 10
-31.9715
 20
-2.9549
 30
0.0
 10
-31.9715
 20
-2.9549
 30
0.0
 10
-31.9715
 20
-2.9549
 30
0.0
 10
-31.9715
 20
-2.9549
 30
0.0
 10
-29.9428
 20
-2.9549
 30
0.0
 10
-29.9428
 20
-2.9549
 30
0.0
  0
SPLINE
  5
65
330
1F
100
AcDbEntity
  8
AXIS
 62
   250
100
AcDbSpline
210
0.0
220
0.0
230
1.0
 70
    11
 71
     3
 72
    80
 73
    76
 74
     0
 42
0.0000000001
 43
0.0000000001
 40
0.0
 40
0.0
 40
0.0
 40
0.0
 40
0.05
 40
0.05
 40
0.05
 40
0.05
 40
0.1
 40
0.1
 40
0.1
 40
0.1
 40
0.15
 40
0.15
 40
0.15
 40
0.15
 40
0.2
 40
0.2
 40
0.2
 40
0.2
 40
0.25
 40
0.25
 40
0.25
 40
0.25
 40
0.3
 40
0.3
 40
0.3
 40
0.3
 40
0.35
 40
0.35
 40
0.35
 40
0.35
 40
0.4
 40
0.4
 40
0.4
 40
0.4
 40
0.45
 40
0.45
 40
0.45
 40
0.45
 40
0.5
 40
0.5
 40
0.5
 40
0.5
 40
0.55
 40
0.55
 40
0.55
 40
0.55
 40
0.6
 40
0.6
 40
0.6
 40
0.6
 40
0.65
 40
0.65
 40
0.65
 40
0.65
 40
0.7
 40
0.7
 40
0.7
 40
0.7
 40
0.75
 40
0.75
 40
0.75
 40
0.75
 40
0.8
 40
0.8
 40
0.8
 40
0.8
 40
0.85
 40
0.85
 40
0.85
 40
0.85
 40
0.9
 40
0.9
 40
0.9
 40
0.9
 40
1.0
 40
1.0
 40
1.0
 40
1.0
 10
-31.4682
 20
-1.0326
 30
0.0
 10
-31.4682
 20
-1.0326
 30
0.0
 10
-31.4489
 20
-1.279
 30
0.0
 10
-31.4489
 20
-1.279
 30
0.0
 10
-31.4489
 20
-1.279
 30
0.0
 10
-31.5463
 20
-1.3011
 30
0.0
 10
-31.6173
 20
-1.3322
 30
0.0
 10
-31.661
 20
-1.3726
 30
0.0
 10
-31.661
 20
-1.3726
 30
0.0
 10
-31.7321
 20
-1.4399
 30
0.0
 10
-31.7674
 20
-1.5227
 30
0.0
 10
-31.7674
 20
-1.621
 30
0.0
 10
-31.7674
 20
-1.621
 30
0.0
 10
-31.7674
 20
-1.7
 30
0.0
 10
-31.7452
 20
-1.7691
 30
0.0
 10
-31.701
 20
-1.8289
 30
0.0
 10
-31.701
 20
-1.8289
 30
0.0
 10
-31.6441
 20
-1.907
 30
0.0
 10
-31.5609
 20
-1.9686
 30
0.0
 10
-31.4517
 20
-2.0137
 30
0.0
 10
-31.4517
 20
-2.0137
 30
0.0
 10
-31.3426
 20
-2.0584
 30
0.0
 10
-31.1869
 20
-2.0819
 30
0.0
 10
-30.9847
 20
-2.0838
 30
0.0
 10
-30.9847
 20
-2.0838
 30
0.0
 10
-31.0754
 20
-2.0241
 30
0.0
 10
-31.1432
 20
-1.9512
 30
0.0
 10
-31.1874
 20
-1.8646
 30
0.0
 10
-31.1874
 20
-1.8646
 30
0.0
 10
-31.2311
 20
-1.7786
 30
0.0
 10
-31.2532
 20
-1.6878
 30
0.0
 10
-31.2532
 20
-1.5932
 30
0.0
 10
-31.2532
 20
-1.5932
 30
0.0
 10
-31.2532
 20
-1.4277
 30
0.0
 10
-31.1926
 20
-1.287
 30
0.0
 10
-31.0707
 20
-1.1708
 30
0.0
 10
-31.0707
 20
-1.1708
 30
0.0
 10
-30.9489
 20
-1.0547
 30
0.0
 10
-30.7918
 20
-0.9963
 30
0.0
 10
-30.599
 20
-0.9963
 30
0.0
 10
-30.599
 20
-0.9963
 30
0.0
 10
-30.472
 20
-0.9963
 30
0.0
 10
-30.3544
 20
-1.0241
 30
0.0
 10
-30.2452
 20
-1.0787
 30
0.0
 10
-30.2452
 20
-1.0787
 30
0.0
 10
-30.1366
 20
-1.1332
 30
0.0
 10
-30.0529
 20
-1.2085
 30
0.0
 10
-29.995
 20
-1.304
 30
0.0
 10
-29.995
 20
-1.304
 30
0.0
 10
-29.9372
 20
-1.3994
 30
0.0
 10
-29.9085
 20
-1.5076
 30
0.0
 10
-29.9085
 20
-1.629
 30
0.0
 10
-29.9085
 20
-1.629
 30
0.0
 10
-29.9085
 20
-1.8359
 30
0.0
 10
-29.9842
 20
-2.0043
 30
0.0
 10
-30.1366
 20
-2.1346
 30
0.0
 10
-30.1366
 20
-2.1346
 30
0.0
 10
-30.2885
 20
-2.2654
 30
0.0
 10
-30.5392
 20
-2.3303
 30
0.0
 10
-30.8882
 20
-2.3303
 30
0.0
 10
-30.8882
 20
-2.3303
 30
0.0
 10
-31.2786
 20
-2.3303
 30
0.0
 10
-31.5623
 20
-2.2583
 30
0.0
 10
-31.7396
 20
-2.1139
 30
0.0
 10
-31.7396
 20
-2.1139
 30
0.0
 10
-31.8939
 20
-1.9883
 30
0.0
 10
-31.9715
 20
-1.819
 30
0.0
 10
-31.9715
 20
-1.6055
 30
0.0
 10
-31.9715
 20
-1.6055
 30
0.0
 10
-31.9715
 20
-1.4469
 30
0.0
 10
-31.9268
 20
-1.3167
 30
0.0
 10
-31.8374
 20
-1.2151
 30
0.0
 10
-31.8374
 20
-1.2151
 30
0.0
 10
-31.7485
 20
-1.1135
 30
0.0
 10
-31.6253
 20
-1.0528
 30
0.0
 10
-31.4682
 20
-1.0326
 30
0.0
  0
SPLINE
  5
66
330
1F
100
AcDbEntity
  8
AXIS
 62
   250
100
AcDbSpline
210
0.0
220
0.0
230
1.0
 70
    11
 71
     3
 72
    40
 73
    36
 74
     0
 42
0.0000000001
 43
0.0000000001
 40
0.0
 40
0.0
 40
0.0
 40
0.0
 40
0.1
 40
0.1
 40
0.1
 40
0.1
 40
0.2
 40
0.2
 40
0.2
 40
0.2
 40
0.3
 40
0.3
 40
0.3
 40
0.3
 40
0.4
 40
0.4
 40
0.4
 40
0.4
 40
0.5
 40
0.5
 40
0.5
 40
0.5
 40
0.6
 40
0.6
 40
0.6
 40
0.6
 40
0.7
 40
0.7
 40
0.7
 40
0.7
 40
0.8
 40
0.8
 40
0.8
 40
0.8
 40
1.0
 40
1.0
 40
1.0
 40
1.0
 10
-30.5976
 20
-2.0453
 30
0.0
 10
-30.5119
 20
-2.0453
 30
0.0
 10
-30.4301
 20
-2.0269
 30
0.0
 10
-30.352
 20
-1.9907
 30
0.0
 10
-30.352
 20
-1.9907
 30
0.0
 10
-30.2739
 20
-1.9545
 30
0.0
 10
-30.2147
 20
-1.9037
 30
0.0
 10
-30.1738
 20
-1.8388
 30
0.0
 10
-30.1738
 20
-1.8388
 30
0.0
 10
-30.1328
 20
-1.7734
 30
0.0
 10
-30.1121
 20
-1.7047
 30
0.0
 10
-30.1121
 20
-1.6332
 30
0.0
 10
-30.1121
 20
-1.6332
 30
0.0
 10
-30.1121
 20
-1.5283
 30
0.0
 10
-30.1545
 20
-1.4385
 30
0.0
 10
-30.2391
 20
-1.3632
 30
0.0
 10
-30.2391
 20
-1.3632
 30
0.0
 10
-30.3238
 20
-1.288
 30
0.0
 10
-30.4386
 20
-1.2503
 30
0.0
 10
-30.5834
 20
-1.2503
 30
0.0
 10
-30.5834
 20
-1.2503
 30
0.0
 10
-30.7231
 20
-1.2503
 30
0.0
 10
-30.8332
 20
-1.2875
 30
0.0
 10
-30.9136
 20
-1.3618
 30
0.0
 10
-30.9136
 20
-1.3618
 30
0.0
 10
-30.9941
 20
-1.4361
 30
0.0
 10
-31.0341
 20
-1.5297
 30
0.0
 10
-31.0341
 20
-1.6426
 30
0.0
 10
-31.0341
 20
-1.6426
 30
0.0
 10
-31.0341
 20
-1.755
 30
0.0
 10
-30.9941
 20
-1.8501
 30
0.0
 10
-30.9136
 20
-1.9281
 30
0.0
 10
-30.9136
 20
-1.9281
 30
0.0
 10
-30.8332
 20
-2.0062
 30
0.0
 10
-30.7278
 20
-2.0453
 30
0.0
 10
-30.5976
 20
-2.0453
 30
0.0
  0
SPLINE
  5
67
330
1F
100
AcDbEntity
  8
AXIS
 62
   250
100
AcDbSpline
210
0.0
220
0.0
230
1.0
 70
    11
 71
     3
 72
    92
 73
    88
 74
     0
 42
0.0000000001
 43
0.0000000001
 40
0.0
 40
0.0
 40
0.0
 40
0.0
 40
0.0434782608695652
 40
0.0434782608695652
 40
0.0434782608695652
 40
0.0434782608695652
 40
0.0869565217391304
 40
0.0869565217391304
 40
0.0869565217391304
 40
0.0869565217391304
 40
0.1304347826086956
 40
0.1304347826086956
 40
0.1304347826086956
 40
0.1304347826086956
 40
0.1739130434782609
 40
0.1739130434782609
 40
0.1739130434782609
 40
0.1739130434782609
 40
0.2173913043478261
 40
0.2173913043478261
 40
0.2173913043478261
 40
0.2173913043478261
 40
0.2608695652173913
 40
0.2608695652173913
 40
0.2608695652173913
 40
0.2608695652173913
 40
0.3043478260869565
 40
0.3043478260869565
 40
0.3043478260869565
 40
0.3043478260869565
 40
0.3478260869565217
 40
0.3478260869565217
 40
0.3478260869565217
 40
0.3478260869565217
 40
0.391304347826087
 40
0.391304347826087
 40
0.391304347826087
 40
0.391304347826087
 40
0.4347826086956522
 40
0.4347826086956522
 40
0.4347826086956522
 40
0.4347826086956522
 40
0.4782608695652174
 40
0.4782608695652174
 40
0.4782608695652174
 40
0.4782608695652174
 40
0.5217391304347826
 40
0.5217391304347826
 40
0.5217391304347826
 40
0.5217391304347826
 40
0.5652173913043478
 40
0.5652173913043478
 40
0.5652173913043478
 40
0.5652173913043478
 40
0.6086956521739131
 40
0.6086956521739131
 40
0.6086956521739131
 40
0.6086956521739131
 40
0.6521739130434783
 40
0.6521739130434783
 40
0.6521739130434783
 40
0.6521739130434783
 40
0.6956521739130435
 40
0.6956521739130435
 40
0.6956521739130435
 40
0.6956521739130435
 40
0.7391304347826086
 40
0.7391304347826086
 40
0.7391304347826086
 40
0.7391304347826086
 40
0.782608695652174
 40
0.782608695652174
 40
0.782608695652174
 40
0.782608695652174
 40
0.8260869565217391
 40
0.8260869565217391
 40
0.8260869565217391
 40
0.8260869565217391
 40
0.8695652173913043
 40
0.8695652173913043
 40
0.8695652173913043
 40
0.8695652173913043
 40
0.9130434782608695
 40
0.9130434782608695
 40
0.9130434782608695
 40
0.9130434782608695
 40
1.0
 40
1.0
 40
1.0
 40
1.0
 10
-30.472
 20
-0.7499
 30
0.0
 10
-30.472
 20
-0.7499
 30
0.0
 10
-30.4941
 20
-0.4893
 30
0.0
 10
-30.4941
 20
-0.4893
 30
0.0
 10
-30.4941
 20
-0.4893
 30
0.0
 10
-30.3671
 20
-0.47
 30
0.0
 10
-30.2721
 20
-0.4253
 30
0.0
 10
-30.2081
 20
-0.3552
 30
0.0
 10
-30.2081
 20
-0.3552
 30
0.0
 10
-30.1441
 20
-0.2847
 30
0.0
 10
-30.1121
 20
-0.2
 30
0.0
 10
-30.1121
 20
-0.1008
 30
0.0
 10
-30.1121
 20
-0.1008
 30
0.0
 10
-30.1121
 20
0.0187
 30
0.0
 10
-30.1573
 20
0.1198
 30
0.0
 10
-30.2471
 20
0.2021
 30
0.0
 10
-30.2471
 20
0.2021
 30
0.0
 10
-30.3374
 20
0.2849
 30
0.0
 10
-30.4569
 20
0.3263
 30
0.0
 10
-30.6055
 20
0.3263
 30
0.0
 10
-30.6055
 20
0.3263
 30
0.0
 10
-30.7471
 20
0.3263
 30
0.0
 10
-30.8586
 20
0.2868
 30
0.0
 10
-30.9404
 20
0.2073
 30
0.0
 10
-30.9404
 20
0.2073
 30
0.0
 10
-31.0223
 20
0.1278
 30
0.0
 10
-31.0632
 20
0.0239
 30
0.0
 10
-31.0632
 20
-0.105
 30
0.0
 10
-31.0632
 20
-0.105
 30
0.0
 10
-31.0632
 20
-0.185
 30
0.0
 10
-31.0449
 20
-0.2569
 30
0.0
 10
-31.0087
 20
-0.3214
 30
0.0
 10
-31.0087
 20
-0.3214
 30
0.0
 10
-30.9724
 20
-0.3858
 30
0.0
 10
-30.9254
 20
-0.4361
 30
0.0
 10
-30.8675
 20
-0.4728
 30
0.0
 10
-30.8675
 20
-0.4728
 30
0.0
 10
-30.8675
 20
-0.4728
 30
0.0
 10
-30.8976
 20
-0.7057
 30
0.0
 10
-30.8976
 20
-0.7057
 30
0.0
 10
-30.8976
 20
-0.7057
 30
0.0
 10
-30.8976
 20
-0.7057
 30
0.0
 10
-31.9353
 20
-0.51
 30
0.0
 10
-31.9353
 20
-0.51
 30
0.0
 10
-31.9353
 20
-0.51
 30
0.0
 10
-31.9353
 20
-0.51
 30
0.0
 10
-31.9353
 20
0.4947
 30
0.0
 10
-31.9353
 20
0.4947
 30
0.0
 10
-31.9353
 20
0.4947
 30
0.0
 10
-31.9353
 20
0.4947
 30
0.0
 10
-31.6982
 20
0.4947
 30
0.0
 10
-31.6982
 20
0.4947
 30
0.0
 10
-31.6982
 20
0.4947
 30
0.0
 10
-31.6982
 20
0.4947
 30
0.0
 10
-31.6982
 20
-0.3115
 30
0.0
 10
-31.6982
 20
-0.3115
 30
0.0
 10
-31.6982
 20
-0.3115
 30
0.0
 10
-31.6982
 20
-0.3115
 30
0.0
 10
-31.1554
 20
-0.4206
 30
0.0
 10
-31.1554
 20
-0.4206
 30
0.0
 10
-31.1554
 20
-0.4206
 30
0.0
 10
-31.2401
 20
-0.2993
 30
0.0
 10
-31.2824
 20
-0.1718
 30
0.0
 10
-31.2824
 20
-0.0387
 30
0.0
 10
-31.2824
 20
-0.0387
 30
0.0
 10
-31.2824
 20
0.1377
 30
0.0
 10
-31.2213
 20
0.2863
 30
0.0
 10
-31.099
 20
0.4077
 30
0.0
 10
-31.099
 20
0.4077
 30
0.0
 10
-30.9767
 20
0.529
 30
0.0
 10
-30.8196
 20
0.5897
 30
0.0
 10
-30.6277
 20
0.5897
 30
0.0
 10
-30.6277
 20
0.5897
 30
0.0
 10
-30.4447
 20
0.5897
 30
0.0
 10
-30.2866
 20
0.5361
 30
0.0
 10
-30.1535
 20
0.4298
 30
0.0
 10
-30.1535
 20
0.4298
 30
0.0
 10
-29.9903
 20
0.3
 30
0.0
 10
-29.9085
 20
0.1231
 30
0.0
 10
-29.9085
 20
-0.1008
 30
0.0
 10
-29.9085
 20
-0.1008
 30
0.0
 10
-29.9085
 20
-0.2847
 30
0.0
 10
-29.9597
 20
-0.4347
 30
0.0
 10
-30.0627
 20
-0.5509
 30
0.0
 10
-30.0627
 20
-0.5509
 30
0.0
 10
-30.1658
 20
-0.6671
 30
0.0
 10
-30.3022
 20
-0.7334
 30
0.0
 10
-30.472
 20
-0.7499
 30
0.0
  0
SPLINE
  5
68
330
1F
100
AcDbEntity
  8
AXIS
 62
   250
100
AcDbSpline
210
0.0
220
0.0
230
1.0
 70
    11
 71
     3
 72
    44
 73
    40
 74
     0
 42
0.0000000001
 43
0.0000000001
 40
0.0
 40
0.0
 40
0.0
 40
0.0
 40
0.0909090909090909
 40
0.0909090909090909
 40
0.0909090909090909
 40
0.0909090909090909
 40
0.1818181818181818
 40
0.1818181818181818
 40
0.1818181818181818
 40
0.1818181818181818
 40
0.2727272727272727
 40
0.2727272727272727
 40
0.2727272727272727
 40
0.2727272727272727
 40
0.3636363636363636
 40
0.3636363636363636
 40
0.3636363636363636
 40
0.3636363636363636
 40
0.4545454545454545
 40
0.4545454545454545
 40
0.4545454545454545
 40
0.4545454545454545
 40
0.5454545454545454
 40
0.5454545454545454
 40
0.5454545454545454
 40
0.5454545454545454
 40
0.6363636363636364
 40
0.6363636363636364
 40
0.6363636363636364
 40
0.6363636363636364
 40
0.7272727272727273
 40
0.7272727272727273
 40
0.7272727272727273
 40
0.7272727272727273
 40
0.8181818181818182
 40
0.8181818181818182
 40
0.8181818181818182
 40
0.8181818181818182
 40
1.0
 40
1.0
 40
1.0
 40
1.0
 10
9.5759
 20
-1.0344
 30
0.0
 10
9.357
 20
-1.0091
 30
0.0
 10
9.1322
 20
-0.9479
 30
0.0
 10
8.9018
 20
-0.8511
 30
0.0
 10
8.9018
 20
-0.8511
 30
0.0
 10
8.671
 20
-0.754
 30
0.0
 10
8.468
 20
-0.6184
 30
0.0
 10
8.2924
 20
-0.4427
 30
0.0
 10
8.2924
 20
-0.4427
 30
0.0
 10
8.1377
 20
-0.2881
 30
0.0
 10
8.0147
 20
-0.1151
 30
0.0
 10
7.9232
 20
0.0768
 30
0.0
 10
7.9232
 20
0.0768
 30
0.0
 10
7.8174
 20
0.2997
 30
0.0
 10
7.7439
 20
0.5535
 30
0.0
 10
7.703
 20
0.8385
 30
0.0
 10
7.703
 20
0.8385
 30
0.0
 10
7.703
 20
0.8385
 30
0.0
 10
7.8287
 20
0.9642
 30
0.0
 10
7.8287
 20
0.9642
 30
0.0
 10
7.8287
 20
0.9642
 30
0.0
 10
7.8853
 20
0.7507
 30
0.0
 10
7.9298
 20
0.6023
 30
0.0
 10
7.9625
 20
0.5192
 30
0.0
 10
7.9625
 20
0.5192
 30
0.0
 10
8.012
 20
0.3898
 30
0.0
 10
8.0749
 20
0.2651
 30
0.0
 10
8.1493
 20
0.1447
 30
0.0
 10
8.1493
 20
0.1447
 30
0.0
 10
8.2428
 20
-0.0047
 30
0.0
 10
8.351
 20
-0.1407
 30
0.0
 10
8.4737
 20
-0.2634
 30
0.0
 10
8.4737
 20
-0.2634
 30
0.0
 10
8.7864
 20
-0.5761
 30
0.0
 10
9.1954
 20
-0.791
 30
0.0
 10
9.7016
 20
-0.9087
 30
0.0
 10
9.7016
 20
-0.9087
 30
0.0
 10
9.7016
 20
-0.9087
 30
0.0
 10
9.5759
 20
-1.0344
 30
0.0
 10
9.5759
 20
-1.0344
 30
0.0
  0
SPLINE
  5
69
330
1F
100
AcDbEntity
  8
AXIS
 62
   250
100
AcDbSpline
210
0.0
220
0.0
230
1.0
 70
    11
 71
     3
 72
    84
 73
    80
 74
     0
 42
0.0000000001
 43
0.0000000001
 40
0.0
 40
0.0
 40
0.0
 40
0.0
 40
0.0476190476190476
 40
0.0476190476190476
 40
0.0476190476190476
 40
0.0476190476190476
 40
0.0952380952380952
 40
0.0952380952380952
 40
0.0952380952380952
 40
0.0952380952380952
 40
0.1428571428571428
 40
0.1428571428571428
 40
0.1428571428571428
 40
0.1428571428571428
 40
0.1904761904761905
 40
0.1904761904761905
 40
0.1904761904761905
 40
0.1904761904761905
 40
0.2380952380952381
 40
0.2380952380952381
 40
0.2380952380952381
 40
0.2380952380952381
 40
0.2857142857142857
 40
0.2857142857142857
 40
0.2857142857142857
 40
0.2857142857142857
 40
0.3333333333333333
 40
0.3333333333333333
 40
0.3333333333333333
 40
0.3333333333333333
 40
0.3809523809523809
 40
0.3809523809523809
 40
0.3809523809523809
 40
0.3809523809523809
 40
0.4285714285714285
 40
0.4285714285714285
 40
0.4285714285714285
 40
0.4285714285714285
 40
0.4761904761904762
 40
0.4761904761904762
 40
0.4761904761904762
 40
0.4761904761904762
 40
0.5238095238095238
 40
0.5238095238095238
 40
0.5238095238095238
 40
0.5238095238095238
 40
0.5714285714285714
 40
0.5714285714285714
 40
0.5714285714285714
 40
0.5714285714285714
 40
0.6190476190476191
 40
0.6190476190476191
 40
0.6190476190476191
 40
0.6190476190476191
 40
0.6666666666666666
 40
0.6666666666666666
 40
0.6666666666666666
 40
0.6666666666666666
 40
0.7142857142857143
 40
0.7142857142857143
 40
0.7142857142857143
 40
0.7142857142857143
 40
0.7619047619047619
 40
0.7619047619047619
 40
0.7619047619047619
 40
0.7619047619047619
 40
0.8095238095238095
 40
0.8095238095238095
 40
0.8095238095238095
 40
0.8095238095238095
 40
0.8571428571428571
 40
0.8571428571428571
 40
0.8571428571428571
 40
0.8571428571428571
 40
0.9047619047619048
 40
0.9047619047619048
 40
0.9047619047619048
 40
0.9047619047619048
 40
1.0
 40
1.0
 40
1.0
 40
1.0
 10
9.2739
 20
2.0994
 30
0.0
 10
9.2739
 20
2.0994
 30
0.0
 10
9.2543
 20
2.4462
 30
0.0
 10
9.2543
 20
2.4462
 30
0.0
 10
9.2543
 20
2.4462
 30
0.0
 10
9.2543
 20
2.4462
 30
0.0
 10
9.4326
 20
2.4609
 30
0.0
 10
9.4326
 20
2.4609
 30
0.0
 10
9.4326
 20
2.4609
 30
0.0
 10
9.4326
 20
2.4609
 30
0.0
 10
9.4542
 20
2.0967
 30
0.0
 10
9.4542
 20
2.0967
 30
0.0
 10
9.4542
 20
2.0967
 30
0.0
 10
9.5932
 20
2.0694
 30
0.0
 10
9.7036
 20
2.0341
 30
0.0
 10
9.7854
 20
1.9916
 30
0.0
 10
9.7854
 20
1.9916
 30
0.0
 10
9.8933
 20
1.9357
 30
0.0
 10
9.998
 20
1.8569
 30
0.0
 10
10.0991
 20
1.7558
 30
0.0
 10
10.0991
 20
1.7558
 30
0.0
 10
10.2454
 20
1.6095
 30
0.0
 10
10.3462
 20
1.4495
 30
0.0
 10
10.401
 20
1.2762
 30
0.0
 10
10.401
 20
1.2762
 30
0.0
 10
10.4563
 20
1.1025
 30
0.0
 10
10.4599
 20
0.9333
 30
0.0
 10
10.4117
 20
0.768
 30
0.0
 10
10.4117
 20
0.768
 30
0.0
 10
10.3628
 20
0.6027
 30
0.0
 10
10.2787
 20
0.4601
 30
0.0
 10
10.1586
 20
0.34
 30
0.0
 10
10.1586
 20
0.34
 30
0.0
 10
10.0688
 20
0.2502
 30
0.0
 10
9.9751
 20
0.1816
 30
0.0
 10
9.8769
 20
0.1341
 30
0.0
 10
9.8769
 20
0.1341
 30
0.0
 10
9.8015
 20
0.0978
 30
0.0
 10
9.699
 20
0.0699
 30
0.0
 10
9.5689
 20
0.0502
 30
0.0
 10
9.5689
 20
0.0502
 30
0.0
 10
9.5689
 20
0.0502
 30
0.0
 10
9.5886
 20
-0.2967
 30
0.0
 10
9.5886
 20
-0.2967
 30
0.0
 10
9.5886
 20
-0.2967
 30
0.0
 10
9.5886
 20
-0.2967
 30
0.0
 10
9.4103
 20
-0.3113
 30
0.0
 10
9.4103
 20
-0.3113
 30
0.0
 10
9.4103
 20
-0.3113
 30
0.0
 10
9.4103
 20
-0.3113
 30
0.0
 10
9.39
 20
0.0522
 30
0.0
 10
9.39
 20
0.0522
 30
0.0
 10
9.39
 20
0.0522
 30
0.0
 10
9.2294
 20
0.0851
 30
0.0
 10
9.104
 20
0.1254
 30
0.0
 10
9.0142
 20
0.1726
 30
0.0
 10
9.0142
 20
0.1726
 30
0.0
 10
8.9244
 20
0.2198
 30
0.0
 10
8.8309
 20
0.2914
 30
0.0
 10
8.7348
 20
0.3875
 30
0.0
 10
8.7348
 20
0.3875
 30
0.0
 10
8.5882
 20
0.5342
 30
0.0
 10
8.4867
 20
0.6942
 30
0.0
 10
8.4304
 20
0.8674
 30
0.0
 10
8.4304
 20
0.8674
 30
0.0
 10
8.3742
 20
1.0407
 30
0.0
 10
8.3692
 20
1.2093
 30
0.0
 10
8.4158
 20
1.3743
 30
0.0
 10
8.4158
 20
1.3743
 30
0.0
 10
8.4624
 20
1.5386
 30
0.0
 10
8.5502
 20
1.6857
 30
0.0
 10
8.6795
 20
1.815
 30
0.0
 10
8.6795
 20
1.815
 30
0.0
 10
8.7667
 20
1.9022
 30
0.0
 10
8.8542
 20
1.967
 30
0.0
 10
8.9427
 20
2.0089
 30
0.0
 10
8.9427
 20
2.0089
 30
0.0
 10
9.0308
 20
2.0512
 30
0.0
 10
9.1415
 20
2.0814
 30
0.0
 10
9.2739
 20
2.0994
 30
0.0
  0
SPLINE
  5
6A
330
1F
100
AcDbEntity
  8
AXIS
 62
   250
100
AcDbSpline
210
0.0
220
0.0
230
1.0
 70
    11
 71
     3
 72
    32
 73
    28
 74
     0
 42
0.0000000001
 43
0.0000000001
 40
0.0
 40
0.0
 40
0.0
 40
0.0
 40
0.125
 40
0.125
 40
0.125
 40
0.125
 40
0.25
 40
0.25
 40
0.25
 40
0.25
 40
0.375
 40
0.375
 40
0.375
 40
0.375
 40
0.5
 40
0.5
 40
0.5
 40
0.5
 40
0.625
 40
0.625
 40
0.625
 40
0.625
 40
0.75
 40
0.75
 40
0.75
 40
0.75
 40
1.0
 40
1.0
 40
1.0
 40
1.0
 10
9.2885
 20
1.8513
 30
0.0
 10
9.1794
 20
1.8379
 30
0.0
 10
9.093
 20
1.8173
 30
0.0
 10
9.0298
 20
1.7894
 30
0.0
 10
9.0298
 20
1.7894
 30
0.0
 10
8.9666
 20
1.7608
 30
0.0
 10
8.9037
 20
1.7159
 30
0.0
 10
8.8421
 20
1.6544
 30
0.0
 10
8.8421
 20
1.6544
 30
0.0
 10
8.6998
 20
1.512
 30
0.0
 10
8.6307
 20
1.3464
 30
0.0
 10
8.634
 20
1.1568
 30
0.0
 10
8.634
 20
1.1568
 30
0.0
 10
8.6377
 20
0.9675
 30
0.0
 10
8.7351
 20
0.777
 30
0.0
 10
8.927
 20
0.5851
 30
0.0
 10
8.927
 20
0.5851
 30
0.0
 10
9.0022
 20
0.5099
 30
0.0
 10
9.0763
 20
0.4503
 30
0.0
 10
9.1492
 20
0.4061
 30
0.0
 10
9.1492
 20
0.4061
 30
0.0
 10
9.2031
 20
0.3729
 30
0.0
 10
9.2782
 20
0.3409
 30
0.0
 10
9.375
 20
0.3107
 30
0.0
 10
9.375
 20
0.3107
 30
0.0
 10
9.375
 20
0.3107
 30
0.0
 10
9.2885
 20
1.8513
 30
0.0
 10
9.2885
 20
1.8513
 30
0.0
  0
SPLINE
  5
6B
330
1F
100
AcDbEntity
  8
AXIS
 62
   250
100
AcDbSpline
210
0.0
220
0.0
230
1.0
 70
    11
 71
     3
 72
    28
 73
    24
 74
     0
 42
0.0000000001
 43
0.0000000001
 40
0.0
 40
0.0
 40
0.0
 40
0.0
 40
0.1428571428571428
 40
0.1428571428571428
 40
0.1428571428571428
 40
0.1428571428571428
 40
0.2857142857142857
 40
0.2857142857142857
 40
0.2857142857142857
 40
0.2857142857142857
 40
0.4285714285714285
 40
0.4285714285714285
 40
0.4285714285714285
 40
0.4285714285714285
 40
0.5714285714285714
 40
0.5714285714285714
 40
0.5714285714285714
 40
0.5714285714285714
 40
0.7142857142857143
 40
0.7142857142857143
 40
0.7142857142857143
 40
0.7142857142857143
 40
1.0
 40
1.0
 40
1.0
 40
1.0
 10
9.4689
 20
1.8306
 30
0.0
 10
9.4689
 20
1.8306
 30
0.0
 10
9.5553
 20
0.296
 30
0.0
 10
9.5553
 20
0.296
 30
0.0
 10
9.5553
 20
0.296
 30
0.0
 10
9.6461
 20
0.305
 30
0.0
 10
9.7209
 20
0.3226
 30
0.0
 10
9.7795
 20
0.3486
 30
0.0
 10
9.7795
 20
0.3486
 30
0.0
 10
9.8563
 20
0.3821
 30
0.0
 10
9.9268
 20
0.4314
 30
0.0
 10
9.991
 20
0.4956
 30
0.0
 10
9.991
 20
0.4956
 30
0.0
 10
10.1327
 20
0.6373
 30
0.0
 10
10.1996
 20
0.8039
 30
0.0
 10
10.1919
 20
0.9965
 30
0.0
 10
10.1919
 20
0.9965
 30
0.0
 10
10.1839
 20
1.1887
 30
0.0
 10
10.0898
 20
1.3753
 30
0.0
 10
9.9092
 20
1.5559
 30
0.0
 10
9.9092
 20
1.5559
 30
0.0
 10
9.7742
 20
1.6909
 30
0.0
 10
9.6272
 20
1.7828
 30
0.0
 10
9.4689
 20
1.8306
 30
0.0
  0
SPLINE
  5
6C
330
1F
100
AcDbEntity
  8
AXIS
 62
   250
100
AcDbSpline
210
0.0
220
0.0
230
1.0
 70
    11
 71
     3
 72
    40
 73
    36
 74
     0
 42
0.0000000001
 43
0.0000000001
 40
0.0
 40
0.0
 40
0.0
 40
0.0
 40
0.1
 40
0.1
 40
0.1
 40
0.1
 40
0.2
 40
0.2
 40
0.2
 40
0.2
 40
0.3
 40
0.3
 40
0.3
 40
0.3
 40
0.4
 40
0.4
 40
0.4
 40
0.4
 40
0.5
 40
0.5
 40
0.5
 40
0.5
 40
0.6
 40
0.6
 40
0.6
 40
0.6
 40
0.7
 40
0.7
 40
0.7
 40
0.7
 40
0.8
 40
0.8
 40
0.8
 40
0.8
 40
1.0
 40
1.0
 40
1.0
 40
1.0
 10
11.6494
 20
1.8792
 30
0.0
 10
11.6494
 20
1.8792
 30
0.0
 10
11.4741
 20
1.7039
 30
0.0
 10
11.4741
 20
1.7039
 30
0.0
 10
11.4741
 20
1.7039
 30
0.0
 10
11.4741
 20
1.7039
 30
0.0
 10
10.3566
 20
2.8214
 30
0.0
 10
10.3566
 20
2.8214
 30
0.0
 10
10.3566
 20
2.8214
 30
0.0
 10
10.3545
 20
2.7389
 30
0.0
 10
10.3396
 20
2.6435
 30
0.0
 10
10.3113
 20
2.5348
 30
0.0
 10
10.3113
 20
2.5348
 30
0.0
 10
10.2827
 20
2.4257
 30
0.0
 10
10.2514
 20
2.3339
 30
0.0
 10
10.2168
 20
2.2593
 30
0.0
 10
10.2168
 20
2.2593
 30
0.0
 10
10.2168
 20
2.2593
 30
0.0
 10
10.0475
 20
2.4286
 30
0.0
 10
10.0475
 20
2.4286
 30
0.0
 10
10.0475
 20
2.4286
 30
0.0
 10
10.0995
 20
2.573
 30
0.0
 10
10.1294
 20
2.7147
 30
0.0
 10
10.1374
 20
2.8537
 30
0.0
 10
10.1374
 20
2.8537
 30
0.0
 10
10.1446
 20
2.9928
 30
0.0
 10
10.1333
 20
3.1085
 30
0.0
 10
10.1021
 20
3.2009
 30
0.0
 10
10.1021
 20
3.2009
 30
0.0
 10
10.1021
 20
3.2009
 30
0.0
 10
10.2149
 20
3.3137
 30
0.0
 10
10.2149
 20
3.3137
 30
0.0
 10
10.2149
 20
3.3137
 30
0.0
 10
10.2149
 20
3.3137
 30
0.0
 10
11.6494
 20
1.8792
 30
0.0
 10
11.6494
 20
1.8792
 30
0.0
  0
SPLINE
  5
6D
330
1F
100
AcDbEntity
  8
AXIS
 62
   250
100
AcDbSpline
210
0.0
220
0.0
230
1.0
 70
    11
 71
     3
 72
    48
 73
    44
 74
     0
 42
0.0000000001
 43
0.0000000001
 40
0.0
 40
0.0
 40
0.0
 40
0.0
 40
0.0833333333333333
 40
0.0833333333333333
 40
0.0833333333333333
 40
0.0833333333333333
 40
0.1666666666666667
 40
0.1666666666666667
 40
0.1666666666666667
 40
0.1666666666666667
 40
0.25
 40
0.25
 40
0.25
 40
0.25
 40
0.3333333333333333
 40
0.3333333333333333
 40
0.3333333333333333
 40
0.3333333333333333
 40
0.4166666666666667
 40
0.4166666666666667
 40
0.4166666666666667
 40
0.4166666666666667
 40
0.5
 40
0.5
 40
0.5
 40
0.5
 40
0.5833333333333334
 40
0.5833333333333334
 40
0.5833333333333334
 40
0.5833333333333334
 40
0.6666666666666666
 40
0.6666666666666666
 40
0.6666666666666666
 40
0.6666666666666666
 40
0.75
 40
0.75
 40
0.75
 40
0.75
 40
0.8333333333333334
 40
0.8333333333333334
 40
0.8333333333333334
 40
0.8333333333333334
 40
1.0
 40
1.0
 40
1.0
 40
1.0
 10
10.8691
 20
3.5814
 30
0.0
 10
10.8691
 20
3.5814
 30
0.0
 10
10.7004
 20
3.7501
 30
0.0
 10
10.7004
 20
3.7501
 30
0.0
 10
10.7004
 20
3.7501
 30
0.0
 10
10.7004
 20
3.7501
 30
0.0
 10
11.625
 20
4.6747
 30
0.0
 10
11.625
 20
4.6747
 30
0.0
 10
11.625
 20
4.6747
 30
0.0
 10
11.625
 20
4.6747
 30
0.0
 10
11.7614
 20
4.5383
 30
0.0
 10
11.7614
 20
4.5383
 30
0.0
 10
11.7614
 20
4.5383
 30
0.0
 10
11.7674
 20
4.3508
 30
0.0
 10
11.806
 20
4.1318
 30
0.0
 10
11.8768
 20
3.8821
 30
0.0
 10
11.8768
 20
3.8821
 30
0.0
 10
11.948
 20
3.6326
 30
0.0
 10
12.0441
 20
3.3982
 30
0.0
 10
12.1648
 20
3.1803
 30
0.0
 10
12.1648
 20
3.1803
 30
0.0
 10
12.2493
 20
3.0254
 30
0.0
 10
12.3578
 20
2.8723
 30
0.0
 10
12.4905
 20
2.7203
 30
0.0
 10
12.4905
 20
2.7203
 30
0.0
 10
12.4905
 20
2.7203
 30
0.0
 10
12.3102
 20
2.5401
 30
0.0
 10
12.3102
 20
2.5401
 30
0.0
 10
12.3102
 20
2.5401
 30
0.0
 10
12.1998
 20
2.6545
 30
0.0
 10
12.086
 20
2.8121
 30
0.0
 10
11.969
 20
3.0137
 30
0.0
 10
11.969
 20
3.0137
 30
0.0
 10
11.8522
 20
3.2149
 30
0.0
 10
11.7591
 20
3.4291
 30
0.0
 10
11.6902
 20
3.6556
 30
0.0
 10
11.6902
 20
3.6556
 30
0.0
 10
11.6217
 20
3.8824
 30
0.0
 10
11.5808
 20
4.091
 30
0.0
 10
11.5688
 20
4.2812
 30
0.0
 10
11.5688
 20
4.2812
 30
0.0
 10
11.5688
 20
4.2812
 30
0.0
 10
10.8691
 20
3.5814
 30
0.0
 10
10.8691
 20
3.5814
 30
0.0
  0
SPLINE
  5
6E
330
1F
100
AcDbEntity
  8
AXIS
 62
   250
100
AcDbSpline
210
0.0
220
0.0
230
1.0
 70
    11
 71
     3
 72
    44
 73
    40
 74
     0
 42
0.0000000001
 43
0.0000000001
 40
0.0
 40
0.0
 40
0.0
 40
0.0
 40
0.0909090909090909
 40
0.0909090909090909
 40
0.0909090909090909
 40
0.0909090909090909
 40
0.1818181818181818
 40
0.1818181818181818
 40
0.1818181818181818
 40
0.1818181818181818
 40
0.2727272727272727
 40
0.2727272727272727
 40
0.2727272727272727
 40
0.2727272727272727
 40
0.3636363636363636
 40
0.3636363636363636
 40
0.3636363636363636
 40
0.3636363636363636
 40
0.4545454545454545
 40
0.4545454545454545
 40
0.4545454545454545
 40
0.4545454545454545
 40
0.5454545454545454
 40
0.5454545454545454
 40
0.5454545454545454
 40
0.5454545454545454
 40
0.6363636363636364
 40
0.6363636363636364
 40
0.6363636363636364
 40
0.6363636363636364
 40
0.7272727272727273
 40
0.7272727272727273
 40
0.7272727272727273
 40
0.7272727272727273
 40
0.8181818181818182
 40
0.8181818181818182
 40
0.8181818181818182
 40
0.8181818181818182
 40
1.0
 40
1.0
 40
1.0
 40
1.0
 10
13.7923
 20
3.1819
 30
0.0
 10
13.7923
 20
3.1819
 30
0.0
 10
13.6665
 20
3.0562
 30
0.0
 10
13.6665
 20
3.0562
 30
0.0
 10
13.6665
 20
3.0562
 30
0.0
 10
13.5488
 20
3.5624
 30
0.0
 10
13.334
 20
3.9715
 30
0.0
 10
13.0213
 20
4.2842
 30
0.0
 10
13.0213
 20
4.2842
 30
0.0
 10
12.8992
 20
4.4063
 30
0.0
 10
12.7642
 20
4.5133
 30
0.0
 10
12.6158
 20
4.6058
 30
0.0
 10
12.6158
 20
4.6058
 30
0.0
 10
12.4968
 20
4.681
 30
0.0
 10
12.372
 20
4.7438
 30
0.0
 10
12.2431
 20
4.7938
 30
0.0
 10
12.2431
 20
4.7938
 30
0.0
 10
12.1592
 20
4.827
 30
0.0
 10
12.0096
 20
4.8723
 30
0.0
 10
11.7936
 20
4.9291
 30
0.0
 10
11.7936
 20
4.9291
 30
0.0
 10
11.7936
 20
4.9291
 30
0.0
 10
11.9193
 20
5.0548
 30
0.0
 10
11.9193
 20
5.0548
 30
0.0
 10
11.9193
 20
5.0548
 30
0.0
 10
12.2044
 20
5.014
 30
0.0
 10
12.4585
 20
4.9408
 30
0.0
 10
12.6814
 20
4.835
 30
0.0
 10
12.6814
 20
4.835
 30
0.0
 10
12.8729
 20
4.7431
 30
0.0
 10
13.0459
 20
4.6201
 30
0.0
 10
13.2005
 20
4.4655
 30
0.0
 10
13.2005
 20
4.4655
 30
0.0
 10
13.3762
 20
4.2898
 30
0.0
 10
13.5119
 20
4.0869
 30
0.0
 10
13.6087
 20
3.8558
 30
0.0
 10
13.6087
 20
3.8558
 30
0.0
 10
13.7051
 20
3.625
 30
0.0
 10
13.7663
 20
3.4002
 30
0.0
 10
13.7923
 20
3.1819
 30
0.0
  0
SPLINE
  5
6F
330
1F
100
AcDbEntity
  8
AXIS
 62
   250
100
AcDbSpline
210
0.0
220
0.0
230
1.0
 70
    11
 71
     3
 72
    20
 73
    16
 74
     0
 42
0.0000000001
 43
0.0000000001
 40
0.0
 40
0.0
 40
0.0
 40
0.0
 40
0.2
 40
0.2
 40
0.2
 40
0.2
 40
0.4
 40
0.4
 40
0.4
 40
0.4
 40
0.6
 40
0.6
 40
0.6
 40
0.6
 40
1.0
 40
1.0
 40
1.0
 40
1.0
 10
-4.7259
 20
3.7114
 30
0.0
 10
-4.7259
 20
3.7114
 30
0.0
 10
-7.1474
 20
1.8888
 30
0.0
 10
-7.1474
 20
1.8888
 30
0.0
 10
-7.1474
 20
1.8888
 30
0.0
 10
-7.1474
 20
1.8888
 30
0.0
 10
-7.2139
 20
1.9554
 30
0.0
 10
-7.2139
 20
1.9554
 30
0.0
 10
-7.2139
 20
1.9554
 30
0.0
 10
-7.2139
 20
1.9554
 30
0.0
 10
-5.4113
 20
4.3967
 30
0.0
 10
-5.4113
 20
4.3967
 30
0.0
 10
-5.4113
 20
4.3967
 30
0.0
 10
-5.4113
 20
4.3967
 30
0.0
 10
-4.7259
 20
3.7114
 30
0.0
 10
-4.7259
 20
3.7114
 30
0.0
  0
SPLINE
  5
70
330
1F
100
AcDbEntity
  8
AXIS
 62
   250
100
AcDbSpline
210
0.0
220
0.0
230
1.0
 70
    11
 71
     3
 72
    20
 73
    16
 74
     0
 42
0.0000000001
 43
0.0000000001
 40
0.0
 40
0.0
 40
0.0
 40
0.0
 40
0.2
 40
0.2
 40
0.2
 40
0.2
 40
0.4
 40
0.4
 40
0.4
 40
0.4
 40
0.6
 40
0.6
 40
0.6
 40
0.6
 40
1.0
 40
1.0
 40
1.0
 40
1.0
 10
-16.9252
 20
-7.1139
 30
0.0
 10
-16.9252
 20
-7.1139
 30
0.0
 10
-14.5042
 20
-5.2917
 30
0.0
 10
-14.5042
 20
-5.2917
 30
0.0
 10
-14.5042
 20
-5.2917
 30
0.0
 10
-14.5042
 20
-5.2917
 30
0.0
 10
-14.4377
 20
-5.3582
 30
0.0
 10
-14.4377
 20
-5.3582
 30
0.0
 10
-14.4377
 20
-5.3582
 30
0.0
 10
-14.4377
 20
-5.3582
 30
0.0
 10
-16.24
 20
-7.7991
 30
0.0
 10
-16.24
 20
-7.7991
 30
0.0
 10
-16.24
 20
-7.7991
 30
0.0
 10
-16.24
 20
-7.7991
 30
0.0
 10
-16.9252
 20
-7.1139
 30
0.0
 10
-16.9252
 20
-7.1139
 30
0.0
  0
SPLINE
  5
71
330
1F
100
AcDbEntity
  8
AXIS
 62
   250
100
AcDbSpline
210
0.0
220
0.0
230
1.0
 70
    24
 71
     3
 72
     8
 73
     4
 74
     0
 42
0.0000000001
 43
0.0000000001
 40
0.0
 40
0.0
 40
0.0
 40
0.0
 40
1.0
 40
1.0
 40
1.0
 40
1.0
 10
-1.0592
 20
8.0603
 30
0.0
 10
-1.0592
 20
8.0603
 30
0.0
 10
-17.5784
 20
-8.4589
 30
0.0
 10
-17.5784
 20
-8.4589
 30
0.0
  0
SPLINE
  5
72
330
1F
100
AcDbEntity
  8
AXIS
 62
   250
100
AcDbSpline
210
0.0
220
0.0
230
1.0
 70
    11
 71
     3
 72
    44
 73
    40
 74
     0
 42
0.0000000001
 43
0.0000000001
 40
0.0
 40
0.0
 40
0.0
 40
0.0
 40
0.0909090909090909
 40
0.0909090909090909
 40
0.0909090909090909
 40
0.0909090909090909
 40
0.1818181818181818
 40
0.1818181818181818
 40
0.1818181818181818
 40
0.1818181818181818
 40
0.2727272727272727
 40
0.2727272727272727
 40
0.2727272727272727
 40
0.2727272727272727
 40
0.3636363636363636
 40
0.3636363636363636
 40
0.3636363636363636
 40
0.3636363636363636
 40
0.4545454545454545
 40
0.4545454545454545
 40
0.4545454545454545
 40
0.4545454545454545
 40
0.5454545454545454
 40
0.5454545454545454
 40
0.5454545454545454
 40
0.5454545454545454
 40
0.6363636363636364
 40
0.6363636363636364
 40
0.6363636363636364
 40
0.6363636363636364
 40
0.7272727272727273
 40
0.7272727272727273
 40
0.7272727272727273
 40
0.7272727272727273
 40
0.8181818181818182
 40
0.8181818181818182
 40
0.8181818181818182
 40
0.8181818181818182
 40
1.0
 40
1.0
 40
1.0
 40
1.0
 10
-4.9746
 20
4.9187
 30
0.0
 10
-5.1935
 20
4.944
 30
0.0
 10
-5.4183
 20
5.0052
 30
0.0
 10
-5.6487
 20
5.102
 30
0.0
 10
-5.6487
 20
5.102
 30
0.0
 10
-5.8795
 20
5.1991
 30
0.0
 10
-6.0825
 20
5.3347
 30
0.0
 10
-6.2581
 20
5.5104
 30
0.0
 10
-6.2581
 20
5.5104
 30
0.0
 10
-6.4128
 20
5.665
 30
0.0
 10
-6.5358
 20
5.838
 30
0.0
 10
-6.6273
 20
6.0299
 30
0.0
 10
-6.6273
 20
6.0299
 30
0.0
 10
-6.7331
 20
6.2528
 30
0.0
 10
-6.8066
 20
6.5066
 30
0.0
 10
-6.8475
 20
6.7916
 30
0.0
 10
-6.8475
 20
6.7916
 30
0.0
 10
-6.8475
 20
6.7916
 30
0.0
 10
-6.7218
 20
6.9173
 30
0.0
 10
-6.7218
 20
6.9173
 30
0.0
 10
-6.7218
 20
6.9173
 30
0.0
 10
-6.6652
 20
6.7038
 30
0.0
 10
-6.6207
 20
6.5554
 30
0.0
 10
-6.588
 20
6.4723
 30
0.0
 10
-6.588
 20
6.4723
 30
0.0
 10
-6.5385
 20
6.3429
 30
0.0
 10
-6.4756
 20
6.2182
 30
0.0
 10
-6.4012
 20
6.0978
 30
0.0
 10
-6.4012
 20
6.0978
 30
0.0
 10
-6.3077
 20
5.9484
 30
0.0
 10
-6.1995
 20
5.8124
 30
0.0
 10
-6.0768
 20
5.6897
 30
0.0
 10
-6.0768
 20
5.6897
 30
0.0
 10
-5.7641
 20
5.377
 30
0.0
 10
-5.3551
 20
5.1621
 30
0.0
 10
-4.8489
 20
5.0444
 30
0.0
 10
-4.8489
 20
5.0444
 30
0.0
 10
-4.8489
 20
5.0444
 30
0.0
 10
-4.9746
 20
4.9187
 30
0.0
 10
-4.9746
 20
4.9187
 30
0.0
  0
SPLINE
  5
73
330
1F
100
AcDbEntity
  8
AXIS
 62
   250
100
AcDbSpline
210
0.0
220
0.0
230
1.0
 70
    11
 71
     3
 72
    84
 73
    80
 74
     0
 42
0.0000000001
 43
0.0000000001
 40
0.0
 40
0.0
 40
0.0
 40
0.0
 40
0.0476190476190476
 40
0.0476190476190476
 40
0.0476190476190476
 40
0.0476190476190476
 40
0.0952380952380952
 40
0.0952380952380952
 40
0.0952380952380952
 40
0.0952380952380952
 40
0.1428571428571428
 40
0.1428571428571428
 40
0.1428571428571428
 40
0.1428571428571428
 40
0.1904761904761905
 40
0.1904761904761905
 40
0.1904761904761905
 40
0.1904761904761905
 40
0.2380952380952381
 40
0.2380952380952381
 40
0.2380952380952381
 40
0.2380952380952381
 40
0.2857142857142857
 40
0.2857142857142857
 40
0.2857142857142857
 40
0.2857142857142857
 40
0.3333333333333333
 40
0.3333333333333333
 40
0.3333333333333333
 40
0.3333333333333333
 40
0.3809523809523809
 40
0.3809523809523809
 40
0.3809523809523809
 40
0.3809523809523809
 40
0.4285714285714285
 40
0.4285714285714285
 40
0.4285714285714285
 40
0.4285714285714285
 40
0.4761904761904762
 40
0.4761904761904762
 40
0.4761904761904762
 40
0.4761904761904762
 40
0.5238095238095238
 40
0.5238095238095238
 40
0.5238095238095238
 40
0.5238095238095238
 40
0.5714285714285714
 40
0.5714285714285714
 40
0.5714285714285714
 40
0.5714285714285714
 40
0.6190476190476191
 40
0.6190476190476191
 40
0.6190476190476191
 40
0.6190476190476191
 40
0.6666666666666666
 40
0.6666666666666666
 40
0.6666666666666666
 40
0.6666666666666666
 40
0.7142857142857143
 40
0.7142857142857143
 40
0.7142857142857143
 40
0.7142857142857143
 40
0.7619047619047619
 40
0.7619047619047619
 40
0.7619047619047619
 40
0.7619047619047619
 40
0.8095238095238095
 40
0.8095238095238095
 40
0.8095238095238095
 40
0.8095238095238095
 40
0.8571428571428571
 40
0.8571428571428571
 40
0.8571428571428571
 40
0.8571428571428571
 40
0.9047619047619048
 40
0.9047619047619048
 40
0.9047619047619048
 40
0.9047619047619048
 40
1.0
 40
1.0
 40
1.0
 40
1.0
 10
-5.2766
 20
8.0525
 30
0.0
 10
-5.2766
 20
8.0525
 30
0.0
 10
-5.2962
 20
8.3993
 30
0.0
 10
-5.2962
 20
8.3993
 30
0.0
 10
-5.2962
 20
8.3993
 30
0.0
 10
-5.2962
 20
8.3993
 30
0.0
 10
-5.1179
 20
8.414
 30
0.0
 10
-5.1179
 20
8.414
 30
0.0
 10
-5.1179
 20
8.414
 30
0.0
 10
-5.1179
 20
8.414
 30
0.0
 10
-5.0963
 20
8.0498
 30
0.0
 10
-5.0963
 20
8.0498
 30
0.0
 10
-5.0963
 20
8.0498
 30
0.0
 10
-4.9573
 20
8.0225
 30
0.0
 10
-4.8469
 20
7.9872
 30
0.0
 10
-4.7651
 20
7.9447
 30
0.0
 10
-4.7651
 20
7.9447
 30
0.0
 10
-4.6572
 20
7.8888
 30
0.0
 10
-4.5525
 20
7.81
 30
0.0
 10
-4.4514
 20
7.7089
 30
0.0
 10
-4.4514
 20
7.7089
 30
0.0
 10
-4.3051
 20
7.5626
 30
0.0
 10
-4.2043
 20
7.4026
 30
0.0
 10
-4.1495
 20
7.2293
 30
0.0
 10
-4.1495
 20
7.2293
 30
0.0
 10
-4.0942
 20
7.0556
 30
0.0
 10
-4.0906
 20
6.8864
 30
0.0
 10
-4.1388
 20
6.7211
 30
0.0
 10
-4.1388
 20
6.7211
 30
0.0
 10
-4.1877
 20
6.5558
 30
0.0
 10
-4.2718
 20
6.4132
 30
0.0
 10
-4.3919
 20
6.2931
 30
0.0
 10
-4.3919
 20
6.2931
 30
0.0
 10
-4.4817
 20
6.2033
 30
0.0
 10
-4.5754
 20
6.1347
 30
0.0
 10
-4.6736
 20
6.0872
 30
0.0
 10
-4.6736
 20
6.0872
 30
0.0
 10
-4.749
 20
6.0509
 30
0.0
 10
-4.8515
 20
6.023
 30
0.0
 10
-4.9816
 20
6.0033
 30
0.0
 10
-4.9816
 20
6.0033
 30
0.0
 10
-4.9816
 20
6.0033
 30
0.0
 10
-4.9619
 20
5.6564
 30
0.0
 10
-4.9619
 20
5.6564
 30
0.0
 10
-4.9619
 20
5.6564
 30
0.0
 10
-4.9619
 20
5.6564
 30
0.0
 10
-5.1402
 20
5.6418
 30
0.0
 10
-5.1402
 20
5.6418
 30
0.0
 10
-5.1402
 20
5.6418
 30
0.0
 10
-5.1402
 20
5.6418
 30
0.0
 10
-5.1605
 20
6.0053
 30
0.0
 10
-5.1605
 20
6.0053
 30
0.0
 10
-5.1605
 20
6.0053
 30
0.0
 10
-5.3211
 20
6.0382
 30
0.0
 10
-5.4465
 20
6.0785
 30
0.0
 10
-5.5363
 20
6.1257
 30
0.0
 10
-5.5363
 20
6.1257
 30
0.0
 10
-5.6261
 20
6.1729
 30
0.0
 10
-5.7196
 20
6.2445
 30
0.0
 10
-5.8157
 20
6.3406
 30
0.0
 10
-5.8157
 20
6.3406
 30
0.0
 10
-5.9623
 20
6.4873
 30
0.0
 10
-6.0638
 20
6.6473
 30
0.0
 10
-6.1201
 20
6.8205
 30
0.0
 10
-6.1201
 20
6.8205
 30
0.0
 10
-6.1763
 20
6.9938
 30
0.0
 10
-6.1813
 20
7.1624
 30
0.0
 10
-6.1347
 20
7.3274
 30
0.0
 10
-6.1347
 20
7.3274
 30
0.0
 10
-6.0881
 20
7.4917
 30
0.0
 10
-6.0003
 20
7.6388
 30
0.0
 10
-5.871
 20
7.7681
 30
0.0
 10
-5.871
 20
7.7681
 30
0.0
 10
-5.7838
 20
7.8553
 30
0.0
 10
-5.6963
 20
7.9201
 30
0.0
 10
-5.6078
 20
7.962
 30
0.0
 10
-5.6078
 20
7.962
 30
0.0
 10
-5.5197
 20
8.0043
 30
0.0
 10
-5.409
 20
8.0345
 30
0.0
 10
-5.2766
 20
8.0525
 30
0.0
  0
SPLINE
  5
74
330
1F
100
AcDbEntity
  8
AXIS
 62
   250
100
AcDbSpline
210
0.0
220
0.0
230
1.0
 70
    11
 71
     3
 72
    32
 73
    28
 74
     0
 42
0.0000000001
 43
0.0000000001
 40
0.0
 40
0.0
 40
0.0
 40
0.0
 40
0.125
 40
0.125
 40
0.125
 40
0.125
 40
0.25
 40
0.25
 40
0.25
 40
0.25
 40
0.375
 40
0.375
 40
0.375
 40
0.375
 40
0.5
 40
0.5
 40
0.5
 40
0.5
 40
0.625
 40
0.625
 40
0.625
 40
0.625
 40
0.75
 40
0.75
 40
0.75
 40
0.75
 40
1.0
 40
1.0
 40
1.0
 40
1.0
 10
-5.262
 20
7.8044
 30
0.0
 10
-5.3711
 20
7.791
 30
0.0
 10
-5.4575
 20
7.7704
 30
0.0
 10
-5.5207
 20
7.7425
 30
0.0
 10
-5.5207
 20
7.7425
 30
0.0
 10
-5.5839
 20
7.7139
 30
0.0
 10
-5.6468
 20
7.669
 30
0.0
 10
-5.7084
 20
7.6075
 30
0.0
 10
-5.7084
 20
7.6075
 30
0.0
 10
-5.8507
 20
7.4651
 30
0.0
 10
-5.9198
 20
7.2995
 30
0.0
 10
-5.9165
 20
7.1099
 30
0.0
 10
-5.9165
 20
7.1099
 30
0.0
 10
-5.9128
 20
6.9206
 30
0.0
 10
-5.8154
 20
6.7301
 30
0.0
 10
-5.6235
 20
6.5382
 30
0.0
 10
-5.6235
 20
6.5382
 30
0.0
 10
-5.5483
 20
6.463
 30
0.0
 10
-5.4742
 20
6.4034
 30
0.0
 10
-5.4013
 20
6.3592
 30
0.0
 10
-5.4013
 20
6.3592
 30
0.0
 10
-5.3474
 20
6.326
 30
0.0
 10
-5.2723
 20
6.294
 30
0.0
 10
-5.1755
 20
6.2638
 30
0.0
 10
-5.1755
 20
6.2638
 30
0.0
 10
-5.1755
 20
6.2638
 30
0.0
 10
-5.262
 20
7.8044
 30
0.0
 10
-5.262
 20
7.8044
 30
0.0
  0
SPLINE
  5
75
330
1F
100
AcDbEntity
  8
AXIS
 62
   250
100
AcDbSpline
210
0.0
220
0.0
230
1.0
 70
    11
 71
     3
 72
    28
 73
    24
 74
     0
 42
0.0000000001
 43
0.0000000001
 40
0.0
 40
0.0
 40
0.0
 40
0.0
 40
0.1428571428571428
 40
0.1428571428571428
 40
0.1428571428571428
 40
0.1428571428571428
 40
0.2857142857142857
 40
0.2857142857142857
 40
0.2857142857142857
 40
0.2857142857142857
 40
0.4285714285714285
 40
0.4285714285714285
 40
0.4285714285714285
 40
0.4285714285714285
 40
0.5714285714285714
 40
0.5714285714285714
 40
0.5714285714285714
 40
0.5714285714285714
 40
0.7142857142857143
 40
0.7142857142857143
 40
0.7142857142857143
 40
0.7142857142857143
 40
1.0
 40
1.0
 40
1.0
 40
1.0
 10
-5.0816
 20
7.7837
 30
0.0
 10
-5.0816
 20
7.7837
 30
0.0
 10
-4.9952
 20
6.2491
 30
0.0
 10
-4.9952
 20
6.2491
 30
0.0
 10
-4.9952
 20
6.2491
 30
0.0
 10
-4.9044
 20
6.2581
 30
0.0
 10
-4.8296
 20
6.2757
 30
0.0
 10
-4.771
 20
6.3017
 30
0.0
 10
-4.771
 20
6.3017
 30
0.0
 10
-4.6942
 20
6.3352
 30
0.0
 10
-4.6237
 20
6.3845
 30
0.0
 10
-4.5595
 20
6.4487
 30
0.0
 10
-4.5595
 20
6.4487
 30
0.0
 10
-4.4178
 20
6.5904
 30
0.0
 10
-4.3509
 20
6.757
 30
0.0
 10
-4.3586
 20
6.9496
 30
0.0
 10
-4.3586
 20
6.9496
 30
0.0
 10
-4.3666
 20
7.1418
 30
0.0
 10
-4.4607
 20
7.3284
 30
0.0
 10
-4.6413
 20
7.509
 30
0.0
 10
-4.6413
 20
7.509
 30
0.0
 10
-4.7763
 20
7.644
 30
0.0
 10
-4.9233
 20
7.7359
 30
0.0
 10
-5.0816
 20
7.7837
 30
0.0
  0
SPLINE
  5
76
330
1F
100
AcDbEntity
  8
AXIS
 62
   250
100
AcDbSpline
210
0.0
220
0.0
230
1.0
 70
    11
 71
     3
 72
    80
 73
    76
 74
     0
 42
0.0000000001
 43
0.0000000001
 40
0.0
 40
0.0
 40
0.0
 40
0.0
 40
0.05
 40
0.05
 40
0.05
 40
0.05
 40
0.1
 40
0.1
 40
0.1
 40
0.1
 40
0.15
 40
0.15
 40
0.15
 40
0.15
 40
0.2
 40
0.2
 40
0.2
 40
0.2
 40
0.25
 40
0.25
 40
0.25
 40
0.25
 40
0.3
 40
0.3
 40
0.3
 40
0.3
 40
0.35
 40
0.35
 40
0.35
 40
0.35
 40
0.4
 40
0.4
 40
0.4
 40
0.4
 40
0.45
 40
0.45
 40
0.45
 40
0.45
 40
0.5
 40
0.5
 40
0.5
 40
0.5
 40
0.55
 40
0.55
 40
0.55
 40
0.55
 40
0.6
 40
0.6
 40
0.6
 40
0.6
 40
0.65
 40
0.65
 40
0.65
 40
0.65
 40
0.7
 40
0.7
 40
0.7
 40
0.7
 40
0.75
 40
0.75
 40
0.75
 40
0.75
 40
0.8
 40
0.8
 40
0.8
 40
0.8
 40
0.85
 40
0.85
 40
0.85
 40
0.85
 40
0.9
 40
0.9
 40
0.9
 40
0.9
 40
1.0
 40
1.0
 40
1.0
 40
1.0
 10
-3.7304
 20
9.1603
 30
0.0
 10
-3.7304
 20
9.1603
 30
0.0
 10
-3.8909
 20
8.9725
 30
0.0
 10
-3.8909
 20
8.9725
 30
0.0
 10
-3.8909
 20
8.9725
 30
0.0
 10
-3.9754
 20
9.0257
 30
0.0
 10
-4.0476
 20
9.0539
 30
0.0
 10
-4.1071
 20
9.0562
 30
0.0
 10
-4.1071
 20
9.0562
 30
0.0
 10
-4.205
 20
9.0589
 30
0.0
 10
-4.2885
 20
9.0253
 30
0.0
 10
-4.358
 20
8.9558
 30
0.0
 10
-4.358
 20
8.9558
 30
0.0
 10
-4.4138
 20
8.9
 30
0.0
 10
-4.447
 20
8.8354
 30
0.0
 10
-4.458
 20
8.7619
 30
0.0
 10
-4.458
 20
8.7619
 30
0.0
 10
-4.473
 20
8.6664
 30
0.0
 10
-4.4578
 20
8.564
 30
0.0
 10
-4.4124
 20
8.4549
 30
0.0
 10
-4.4124
 20
8.4549
 30
0.0
 10
-4.3669
 20
8.3462
 30
0.0
 10
-4.2734
 20
8.2195
 30
0.0
 10
-4.1318
 20
8.0751
 30
0.0
 10
-4.1318
 20
8.0751
 30
0.0
 10
-4.1537
 20
8.1815
 30
0.0
 10
-4.1501
 20
8.281
 30
0.0
 10
-4.1201
 20
8.3735
 30
0.0
 10
-4.1201
 20
8.3735
 30
0.0
 10
-4.0902
 20
8.4652
 30
0.0
 10
-4.0416
 20
8.545
 30
0.0
 10
-3.9747
 20
8.6119
 30
0.0
 10
-3.9747
 20
8.6119
 30
0.0
 10
-3.8577
 20
8.7289
 30
0.0
 10
-3.7154
 20
8.7856
 30
0.0
 10
-3.547
 20
8.7815
 30
0.0
 10
-3.547
 20
8.7815
 30
0.0
 10
-3.3788
 20
8.7775
 30
0.0
 10
-3.2264
 20
8.7077
 30
0.0
 10
-3.0901
 20
8.5714
 30
0.0
 10
-3.0901
 20
8.5714
 30
0.0
 10
-3.0003
 20
8.4816
 30
0.0
 10
-2.9368
 20
8.3788
 30
0.0
 10
-2.8982
 20
8.2629
 30
0.0
 10
-2.8982
 20
8.2629
 30
0.0
 10
-2.8599
 20
8.1476
 30
0.0
 10
-2.854
 20
8.0352
 30
0.0
 10
-2.8806
 20
7.9267
 30
0.0
 10
-2.8806
 20
7.9267
 30
0.0
 10
-2.9071
 20
7.8184
 30
0.0
 10
-2.9634
 20
7.7216
 30
0.0
 10
-3.0492
 20
7.6357
 30
0.0
 10
-3.0492
 20
7.6357
 30
0.0
 10
-3.1955
 20
7.4894
 30
0.0
 10
-3.3681
 20
7.4239
 30
0.0
 10
-3.568
 20
7.4395
 30
0.0
 10
-3.568
 20
7.4395
 30
0.0
 10
-3.7679
 20
7.4544
 30
0.0
 10
-3.9911
 20
7.5858
 30
0.0
 10
-4.2379
 20
7.8326
 30
0.0
 10
-4.2379
 20
7.8326
 30
0.0
 10
-4.5139
 20
8.1087
 30
0.0
 10
-4.6636
 20
8.3602
 30
0.0
 10
-4.6869
 20
8.5876
 30
0.0
 10
-4.6869
 20
8.5876
 30
0.0
 10
-4.7072
 20
8.7856
 30
0.0
 10
-4.6423
 20
8.9602
 30
0.0
 10
-4.4913
 20
9.1111
 30
0.0
 10
-4.4913
 20
9.1111
 30
0.0
 10
-4.3792
 20
9.2233
 30
0.0
 10
-4.2555
 20
9.2837
 30
0.0
 10
-4.1205
 20
9.2924
 30
0.0
 10
-4.1205
 20
9.2924
 30
0.0
 10
-3.9858
 20
9.3013
 30
0.0
 10
-3.8557
 20
9.2571
 30
0.0
 10
-3.7304
 20
9.1603
 30
0.0
  0
SPLINE
  5
77
330
1F
100
AcDbEntity
  8
AXIS
 62
   250
100
AcDbSpline
210
0.0
220
0.0
230
1.0
 70
    11
 71
     3
 72
    40
 73
    36
 74
     0
 42
0.0000000001
 43
0.0000000001
 40
0.0
 40
0.0
 40
0.0
 40
0.0
 40
0.1
 40
0.1
 40
0.1
 40
0.1
 40
0.2
 40
0.2
 40
0.2
 40
0.2
 40
0.3
 40
0.3
 40
0.3
 40
0.3
 40
0.4
 40
0.4
 40
0.4
 40
0.4
 40
0.5
 40
0.5
 40
0.5
 40
0.5
 40
0.6
 40
0.6
 40
0.6
 40
0.6
 40
0.7
 40
0.7
 40
0.7
 40
0.7
 40
0.8
 40
0.8
 40
0.8
 40
0.8
 40
1.0
 40
1.0
 40
1.0
 40
1.0
 10
-3.8308
 20
7.8286
 30
0.0
 10
-3.7702
 20
7.768
 30
0.0
 10
-3.6994
 20
7.7232
 30
0.0
 10
-3.6186
 20
7.6936
 30
0.0
 10
-3.6186
 20
7.6936
 30
0.0
 10
-3.5377
 20
7.664
 30
0.0
 10
-3.46
 20
7.658
 30
0.0
 10
-3.3852
 20
7.675
 30
0.0
 10
-3.3852
 20
7.675
 30
0.0
 10
-3.3099
 20
7.6922
 30
0.0
 10
-3.2467
 20
7.7262
 30
0.0
 10
-3.1961
 20
7.7767
 30
0.0
 10
-3.1961
 20
7.7767
 30
0.0
 10
-3.122
 20
7.8509
 30
0.0
 10
-3.0884
 20
7.9444
 30
0.0
 10
-3.095
 20
8.0575
 30
0.0
 10
-3.095
 20
8.0575
 30
0.0
 10
-3.1017
 20
8.1705
 30
0.0
 10
-3.1563
 20
8.2784
 30
0.0
 10
-3.2586
 20
8.3807
 30
0.0
 10
-3.2586
 20
8.3807
 30
0.0
 10
-3.3574
 20
8.4795
 30
0.0
 10
-3.4616
 20
8.5311
 30
0.0
 10
-3.571
 20
8.5354
 30
0.0
 10
-3.571
 20
8.5354
 30
0.0
 10
-3.6804
 20
8.5398
 30
0.0
 10
-3.7749
 20
8.5019
 30
0.0
 10
-3.8547
 20
8.422
 30
0.0
 10
-3.8547
 20
8.422
 30
0.0
 10
-3.9342
 20
8.3426
 30
0.0
 10
-3.9732
 20
8.247
 30
0.0
 10
-3.9714
 20
8.135
 30
0.0
 10
-3.9714
 20
8.135
 30
0.0
 10
-3.9698
 20
8.0229
 30
0.0
 10
-3.9229
 20
7.9207
 30
0.0
 10
-3.8308
 20
7.8286
 30
0.0
  0
SPLINE
  5
78
330
1F
100
AcDbEntity
  8
AXIS
 62
   250
100
AcDbSpline
210
0.0
220
0.0
230
1.0
 70
    11
 71
     3
 72
    92
 73
    88
 74
     0
 42
0.0000000001
 43
0.0000000001
 40
0.0
 40
0.0
 40
0.0
 40
0.0
 40
0.0434782608695652
 40
0.0434782608695652
 40
0.0434782608695652
 40
0.0434782608695652
 40
0.0869565217391304
 40
0.0869565217391304
 40
0.0869565217391304
 40
0.0869565217391304
 40
0.1304347826086956
 40
0.1304347826086956
 40
0.1304347826086956
 40
0.1304347826086956
 40
0.1739130434782609
 40
0.1739130434782609
 40
0.1739130434782609
 40
0.1739130434782609
 40
0.2173913043478261
 40
0.2173913043478261
 40
0.2173913043478261
 40
0.2173913043478261
 40
0.2608695652173913
 40
0.2608695652173913
 40
0.2608695652173913
 40
0.2608695652173913
 40
0.3043478260869565
 40
0.3043478260869565
 40
0.3043478260869565
 40
0.3043478260869565
 40
0.3478260869565217
 40
0.3478260869565217
 40
0.3478260869565217
 40
0.3478260869565217
 40
0.391304347826087
 40
0.391304347826087
 40
0.391304347826087
 40
0.391304347826087
 40
0.4347826086956522
 40
0.4347826086956522
 40
0.4347826086956522
 40
0.4347826086956522
 40
0.4782608695652174
 40
0.4782608695652174
 40
0.4782608695652174
 40
0.4782608695652174
 40
0.5217391304347826
 40
0.5217391304347826
 40
0.5217391304347826
 40
0.5217391304347826
 40
0.5652173913043478
 40
0.5652173913043478
 40
0.5652173913043478
 40
0.5652173913043478
 40
0.6086956521739131
 40
0.6086956521739131
 40
0.6086956521739131
 40
0.6086956521739131
 40
0.6521739130434783
 40
0.6521739130434783
 40
0.6521739130434783
 40
0.6521739130434783
 40
0.6956521739130435
 40
0.6956521739130435
 40
0.6956521739130435
 40
0.6956521739130435
 40
0.7391304347826086
 40
0.7391304347826086
 40
0.7391304347826086
 40
0.7391304347826086
 40
0.782608695652174
 40
0.782608695652174
 40
0.782608695652174
 40
0.782608695652174
 40
0.8260869565217391
 40
0.8260869565217391
 40
0.8260869565217391
 40
0.8260869565217391
 40
0.8695652173913043
 40
0.8695652173913043
 40
0.8695652173913043
 40
0.8695652173913043
 40
0.9130434782608695
 40
0.9130434782608695
 40
0.9130434782608695
 40
0.9130434782608695
 40
1.0
 40
1.0
 40
1.0
 40
1.0
 10
-1.6985
 20
9.3723
 30
0.0
 10
-1.6985
 20
9.3723
 30
0.0
 10
-1.5298
 20
9.2036
 30
0.0
 10
-1.5298
 20
9.2036
 30
0.0
 10
-1.5298
 20
9.2036
 30
0.0
 10
-1.5298
 20
9.2036
 30
0.0
 10
-2.4741
 20
8.2593
 30
0.0
 10
-2.4741
 20
8.2593
 30
0.0
 10
-2.4741
 20
8.2593
 30
0.0
 10
-2.5177
 20
8.3002
 30
0.0
 10
-2.5516
 20
8.3474
 30
0.0
 10
-2.5756
 20
8.4014
 30
0.0
 10
-2.5756
 20
8.4014
 30
0.0
 10
-2.6161
 20
8.4899
 30
0.0
 10
-2.6408
 20
8.5916
 30
0.0
 10
-2.6504
 20
8.707
 30
0.0
 10
-2.6504
 20
8.707
 30
0.0
 10
-2.6594
 20
8.8225
 30
0.0
 10
-2.655
 20
8.9711
 30
0.0
 10
-2.637
 20
9.1527
 30
0.0
 10
-2.637
 20
9.1527
 30
0.0
 10
-2.6092
 20
9.4354
 30
0.0
 10
-2.6048
 20
9.6413
 30
0.0
 10
-2.6248
 20
9.7704
 30
0.0
 10
-2.6248
 20
9.7704
 30
0.0
 10
-2.6445
 20
9.899
 30
0.0
 10
-2.6877
 20
9.9968
 30
0.0
 10
-2.7538
 20
10.063
 30
0.0
 10
-2.7538
 20
10.063
 30
0.0
 10
-2.8234
 20
10.1325
 30
0.0
 10
-2.9069
 20
10.1661
 30
0.0
 10
-3.0042
 20
10.1645
 30
0.0
 10
-3.0042
 20
10.1645
 30
0.0
 10
-3.1017
 20
10.1622
 30
0.0
 10
-3.1905
 20
10.1212
 30
0.0
 10
-3.2703
 20
10.0414
 30
0.0
 10
-3.2703
 20
10.0414
 30
0.0
 10
-3.3548
 20
9.9569
 30
0.0
 10
-3.3971
 20
9.8641
 30
0.0
 10
-3.3967
 20
9.7626
 30
0.0
 10
-3.3967
 20
9.7626
 30
0.0
 10
-3.397
 20
9.6612
 30
0.0
 10
-3.3525
 20
9.5655
 30
0.0
 10
-3.2637
 20
9.4754
 30
0.0
 10
-3.2637
 20
9.4754
 30
0.0
 10
-3.2637
 20
9.4754
 30
0.0
 10
-3.4622
 20
9.3134
 30
0.0
 10
-3.4622
 20
9.3134
 30
0.0
 10
-3.4622
 20
9.3134
 30
0.0
 10
-3.5846
 20
9.4604
 30
0.0
 10
-3.6406
 20
9.6093
 30
0.0
 10
-3.6305
 20
9.7604
 30
0.0
 10
-3.6305
 20
9.7604
 30
0.0
 10
-3.6205
 20
9.9114
 30
0.0
 10
-3.5474
 20
10.055
 30
0.0
 10
-3.4117
 20
10.1907
 30
0.0
 10
-3.4117
 20
10.1907
 30
0.0
 10
-3.2747
 20
10.3278
 30
0.0
 10
-3.128
 20
10.398
 30
0.0
 10
-2.9723
 20
10.402
 30
0.0
 10
-2.9723
 20
10.402
 30
0.0
 10
-2.816
 20
10.4059
 30
0.0
 10
-2.6819
 20
10.3517
 30
0.0
 10
-2.5695
 20
10.2393
 30
0.0
 10
-2.5695
 20
10.2393
 30
0.0
 10
-2.5123
 20
10.1821
 30
0.0
 10
-2.4678
 20
10.1142
 30
0.0
 10
-2.4362
 20
10.0354
 30
0.0
 10
-2.4362
 20
10.0354
 30
0.0
 10
-2.4043
 20
9.957
 30
0.0
 10
-2.385
 20
9.8598
 30
0.0
 10
-2.3783
 20
9.7448
 30
0.0
 10
-2.3783
 20
9.7448
 30
0.0
 10
-2.3713
 20
9.6293
 30
0.0
 10
-2.3777
 20
9.4553
 30
0.0
 10
-2.3973
 20
9.2229
 30
0.0
 10
-2.3973
 20
9.2229
 30
0.0
 10
-2.4139
 20
9.0293
 30
0.0
 10
-2.4216
 20
8.9019
 30
0.0
 10
-2.4199
 20
8.8404
 30
0.0
 10
-2.4199
 20
8.8404
 30
0.0
 10
-2.4185
 20
8.7792
 30
0.0
 10
-2.4115
 20
8.723
 30
0.0
 10
-2.3993
 20
8.6714
 30
0.0
 10
-2.3993
 20
8.6714
 30
0.0
 10
-2.3993
 20
8.6714
 30
0.0
 10
-1.6985
 20
9.3723
 30
0.0
 10
-1.6985
 20
9.3723
 30
0.0
  0
SPLINE
  5
79
330
1F
100
AcDbEntity
  8
AXIS
 62
   250
100
AcDbSpline
210
0.0
220
0.0
230
1.0
 70
    11
 71
     3
 72
    44
 73
    40
 74
     0
 42
0.0000000001
 43
0.0000000001
 40
0.0
 40
0.0
 40
0.0
 40
0.0
 40
0.0909090909090909
 40
0.0909090909090909
 40
0.0909090909090909
 40
0.0909090909090909
 40
0.1818181818181818
 40
0.1818181818181818
 40
0.1818181818181818
 40
0.1818181818181818
 40
0.2727272727272727
 40
0.2727272727272727
 40
0.2727272727272727
 40
0.2727272727272727
 40
0.3636363636363636
 40
0.3636363636363636
 40
0.3636363636363636
 40
0.3636363636363636
 40
0.4545454545454545
 40
0.4545454545454545
 40
0.4545454545454545
 40
0.4545454545454545
 40
0.5454545454545454
 40
0.5454545454545454
 40
0.5454545454545454
 40
0.5454545454545454
 40
0.6363636363636364
 40
0.6363636363636364
 40
0.6363636363636364
 40
0.6363636363636364
 40
0.7272727272727273
 40
0.7272727272727273
 40
0.7272727272727273
 40
0.7272727272727273
 40
0.8181818181818182
 40
0.8181818181818182
 40
0.8181818181818182
 40
0.8181818181818182
 40
1.0
 40
1.0
 40
1.0
 40
1.0
 10
-0.7582
 20
9.135
 30
0.0
 10
-0.7582
 20
9.135
 30
0.0
 10
-0.884
 20
9.0093
 30
0.0
 10
-0.884
 20
9.0093
 30
0.0
 10
-0.884
 20
9.0093
 30
0.0
 10
-1.0017
 20
9.5155
 30
0.0
 10
-1.2165
 20
9.9246
 30
0.0
 10
-1.5292
 20
10.2373
 30
0.0
 10
-1.5292
 20
10.2373
 30
0.0
 10
-1.6513
 20
10.3594
 30
0.0
 10
-1.7863
 20
10.4664
 30
0.0
 10
-1.9347
 20
10.5589
 30
0.0
 10
-1.9347
 20
10.5589
 30
0.0
 10
-2.0537
 20
10.6341
 30
0.0
 10
-2.1785
 20
10.6969
 30
0.0
 10
-2.3074
 20
10.7469
 30
0.0
 10
-2.3074
 20
10.7469
 30
0.0
 10
-2.3913
 20
10.7801
 30
0.0
 10
-2.5409
 20
10.8254
 30
0.0
 10
-2.7569
 20
10.8822
 30
0.0
 10
-2.7569
 20
10.8822
 30
0.0
 10
-2.7569
 20
10.8822
 30
0.0
 10
-2.6312
 20
11.0079
 30
0.0
 10
-2.6312
 20
11.0079
 30
0.0
 10
-2.6312
 20
11.0079
 30
0.0
 10
-2.3461
 20
10.9671
 30
0.0
 10
-2.092
 20
10.8939
 30
0.0
 10
-1.8691
 20
10.7881
 30
0.0
 10
-1.8691
 20
10.7881
 30
0.0
 10
-1.6776
 20
10.6962
 30
0.0
 10
-1.5046
 20
10.5732
 30
0.0
 10
-1.35
 20
10.4186
 30
0.0
 10
-1.35
 20
10.4186
 30
0.0
 10
-1.1743
 20
10.2429
 30
0.0
 10
-1.0386
 20
10.04
 30
0.0
 10
-0.9418
 20
9.8089
 30
0.0
 10
-0.9418
 20
9.8089
 30
0.0
 10
-0.8454
 20
9.5781
 30
0.0
 10
-0.7842
 20
9.3533
 30
0.0
 10
-0.7582
 20
9.135
 30
0.0
  0
SPLINE
  5
7A
330
1F
100
AcDbEntity
  8
AXIS
 62
   250
100
AcDbSpline
210
0.0
220
0.0
230
1.0
 70
    24
 71
     3
 72
     8
 73
     4
 74
     0
 42
0.0000000001
 43
0.0000000001
 40
0.0
 40
0.0
 40
0.0
 40
0.0
 40
1.0
 40
1.0
 40
1.0
 40
1.0
 10
24.3713
 20
-15.3602
 30
0.0
 10
24.3713
 20
-15.3602
 30
0.0
 10
25.1808
 20
-15.3602
 30
0.0
 10
25.1808
 20
-15.3602
 30
0.0
  0
SPLINE
  5
7B
330
1F
100
AcDbEntity
  8
AXIS
 62
   250
100
AcDbSpline
210
0.0
220
0.0
230
1.0
 70
    24
 71
     3
 72
     8
 73
     4
 74
     0
 42
0.0000000001
 43
0.0000000001
 40
0.0
 40
0.0
 40
0.0
 40
0.0
 40
1.0
 40
1.0
 40
1.0
 40
1.0
 10
24.857
 20
-14.5507
 30
0.0
 10
24.857
 20
-14.5507
 30
0.0
 10
24.3713
 20
-14.5507
 30
0.0
 10
24.3713
 20
-14.5507
 30
0.0
  0
SPLINE
  5
7C
330
1F
100
AcDbEntity
  8
AXIS
 62
   250
100
AcDbSpline
210
0.0
220
0.0
230
1.0
 70
    24
 71
     3
 72
     8
 73
     4
 74
     0
 42
0.0000000001
 43
0.0000000001
 40
0.0
 40
0.0
 40
0.0
 40
0.0
 40
1.0
 40
1.0
 40
1.0
 40
1.0
 10
22.5676
 20
-12.365
 30
0.0
 10
22.5676
 20
-12.365
 30
0.0
 10
24.3713
 20
-12.365
 30
0.0
 10
24.3713
 20
-12.365
 30
0.0
  0
SPLINE
  5
7D
330
1F
100
AcDbEntity
  8
AXIS
 62
   250
100
AcDbSpline
210
0.0
220
0.0
230
1.0
 70
    24
 71
     3
 72
     8
 73
     4
 74
     0
 42
0.0000000001
 43
0.0000000001
 40
0.0
 40
0.0
 40
0.0
 40
0.0
 40
1.0
 40
1.0
 40
1.0
 40
1.0
 10
25.1808
 20
-6.6983
 30
0.0
 10
25.1808
 20
-6.6983
 30
0.0
 10
27.6961
 20
-6.6983
 30
0.0
 10
27.6961
 20
-6.6983
 30
0.0
  0
SPLINE
  5
7E
330
1F
100
AcDbEntity
  8
AXIS
 62
   250
100
AcDbSpline
210
0.0
220
0.0
230
1.0
 70
    24
 71
     3
 72
     8
 73
     4
 74
     0
 42
0.0000000001
 43
0.0000000001
 40
0.0
 40
0.0
 40
0.0
 40
0.0
 40
1.0
 40
1.0
 40
1.0
 40
1.0
 10
25.1808
 20
-4.1079
 30
0.0
 10
25.1808
 20
-4.1079
 30
0.0
 10
27.6961
 20
-4.1079
 30
0.0
 10
27.6961
 20
-4.1079
 30
0.0
  0
SPLINE
  5
7F
330
1F
100
AcDbEntity
  8
AXIS
 62
   250
100
AcDbSpline
210
0.0
220
0.0
230
1.0
 70
    24
 71
     3
 72
     8
 73
     4
 74
     0
 42
0.0000000001
 43
0.0000000001
 40
0.0
 40
0.0
 40
0.0
 40
0.0
 40
1.0
 40
1.0
 40
1.0
 40
1.0
 10
22.2503
 20
-12.0412
 30
0.0
 10
22.2503
 20
-12.0412
 30
0.0
 10
22.2503
 20
8.035
 30
0.0
 10
22.2503
 20
8.035
 30
0.0
  0
SPLINE
  5
80
330
1F
100
AcDbEntity
  8
AXIS
 62
   250
100
AcDbSpline
210
0.0
220
0.0
230
1.0
 70
    24
 71
     3
 72
     8
 73
     4
 74
     0
 42
0.0000000001
 43
0.0000000001
 40
0.0
 40
0.0
 40
0.0
 40
0.0
 40
1.0
 40
1.0
 40
1.0
 40
1.0
 10
27.777
 20
-4.1888
 30
0.0
 10
27.777
 20
-4.1888
 30
0.0
 10
27.6961
 20
-4.1079
 30
0.0
 10
27.6961
 20
-4.1079
 30
0.0
  0
SPLINE
  5
81
330
1F
100
AcDbEntity
  8
AXIS
 62
   250
100
AcDbSpline
210
0.0
220
0.0
230
1.0
 70
    24
 71
     3
 72
     8
 73
     4
 74
     0
 42
0.0000000001
 43
0.0000000001
 40
0.0
 40
0.0
 40
0.0
 40
0.0
 40
1.0
 40
1.0
 40
1.0
 40
1.0
 10
24.3713
 20
-15.3602
 30
0.0
 10
24.3713
 20
-15.3602
 30
0.0
 10
24.3713
 20
11.3541
 30
0.0
 10
24.3713
 20
11.3541
 30
0.0
  0
SPLINE
  5
82
330
1F
100
AcDbEntity
  8
AXIS
 62
   250
100
AcDbSpline
210
0.0
220
0.0
230
1.0
 70
    24
 71
     3
 72
     8
 73
     4
 74
     0
 42
0.0000000001
 43
0.0000000001
 40
0.0
 40
0.0
 40
0.0
 40
0.0
 40
1.0
 40
1.0
 40
1.0
 40
1.0
 10
24.857
 20
11.3541
 30
0.0
 10
24.857
 20
11.3541
 30
0.0
 10
24.857
 20
-15.3602
 30
0.0
 10
24.857
 20
-15.3602
 30
0.0
  0
SPLINE
  5
83
330
1F
100
AcDbEntity
  8
AXIS
 62
   250
100
AcDbSpline
210
0.0
220
0.0
230
1.0
 70
    24
 71
     3
 72
     8
 73
     4
 74
     0
 42
0.0000000001
 43
0.0000000001
 40
0.0
 40
0.0
 40
0.0
 40
0.0
 40
1.0
 40
1.0
 40
1.0
 40
1.0
 10
25.1808
 20
11.3541
 30
0.0
 10
25.1808
 20
11.3541
 30
0.0
 10
25.1808
 20
-15.3602
 30
0.0
 10
25.1808
 20
-15.3602
 30
0.0
  0
SPLINE
  5
84
330
1F
100
AcDbEntity
  8
AXIS
 62
   250
100
AcDbSpline
210
0.0
220
0.0
230
1.0
 70
    24
 71
     3
 72
     8
 73
     4
 74
     0
 42
0.0000000001
 43
0.0000000001
 40
0.0
 40
0.0
 40
0.0
 40
0.0
 40
1.0
 40
1.0
 40
1.0
 40
1.0
 10
27.6961
 20
-4.1079
 30
0.0
 10
27.6961
 20
-4.1079
 30
0.0
 10
27.6961
 20
-6.6983
 30
0.0
 10
27.6961
 20
-6.6983
 30
0.0
  0
SPLINE
  5
85
330
1F
100
AcDbEntity
  8
AXIS
 62
   250
100
AcDbSpline
210
0.0
220
0.0
230
1.0
 70
    24
 71
     3
 72
     8
 73
     4
 74
     0
 42
0.0000000001
 43
0.0000000001
 40
0.0
 40
0.0
 40
0.0
 40
0.0
 40
1.0
 40
1.0
 40
1.0
 40
1.0
 10
27.777
 20
-4.1888
 30
0.0
 10
27.777
 20
-4.1888
 30
0.0
 10
27.777
 20
-6.6174
 30
0.0
 10
27.777
 20
-6.6174
 30
0.0
  0
SPLINE
  5
86
330
1F
100
AcDbEntity
  8
AXIS
 62
   250
100
AcDbSpline
210
0.0
220
0.0
230
1.0
 70
    24
 71
     3
 72
     8
 73
     4
 74
     0
 42
0.0000000001
 43
0.0000000001
 40
0.0
 40
0.0
 40
0.0
 40
0.0
 40
1.0
 40
1.0
 40
1.0
 40
1.0
 10
27.777
 20
-6.6174
 30
0.0
 10
27.777
 20
-6.6174
 30
0.0
 10
27.6961
 20
-6.6983
 30
0.0
 10
27.6961
 20
-6.6983
 30
0.0
  0
SPLINE
  5
87
330
1F
100
AcDbEntity
  8
AXIS
 62
   250
100
AcDbSpline
210
0.0
220
0.0
230
1.0
 70
    24
 71
     3
 72
     8
 73
     4
 74
     0
 42
0.0000000001
 43
0.0000000001
 40
0.0
 40
0.0
 40
0.0
 40
0.0
 40
1.0
 40
1.0
 40
1.0
 40
1.0
 10
22.5741
 20
8.3588
 30
0.0
 10
22.5741
 20
8.3588
 30
0.0
 10
24.3713
 20
8.3588
 30
0.0
 10
24.3713
 20
8.3588
 30
0.0
  0
SPLINE
  5
88
330
1F
100
AcDbEntity
  8
AXIS
 62
   250
100
AcDbSpline
210
0.0
220
0.0
230
1.0
 70
    24
 71
     3
 72
     8
 73
     4
 74
     0
 42
0.0000000001
 43
0.0000000001
 40
0.0
 40
0.0
 40
0.0
 40
0.0
 40
1.0
 40
1.0
 40
1.0
 40
1.0
 10
24.3713
 20
11.3541
 30
0.0
 10
24.3713
 20
11.3541
 30
0.0
 10
25.1808
 20
11.3541
 30
0.0
 10
25.1808
 20
11.3541
 30
0.0
  0
SPLINE
  5
89
330
1F
100
AcDbEntity
  8
AXIS
 62
   250
100
AcDbSpline
210
0.0
220
0.0
230
1.0
 70
     8
 71
     3
 72
     8
 73
     4
 74
     0
 42
0.0000000001
 43
0.0000000001
 40
0.0
 40
0.0
 40
0.0
 40
0.0
 40
1.0
 40
1.0
 40
1.0
 40
1.0
 10
22.2503
 20
-12.0412
 30
0.0
 10
22.2503
 20
-12.22
 30
0.0
 10
22.3953
 20
-12.365
 30
0.0
 10
22.5741
 20
-12.365
 30
0.0
  0
SPLINE
  5
8A
330
1F
100
AcDbEntity
  8
AXIS
 62
   250
100
AcDbSpline
210
0.0
220
0.0
230
1.0
 70
     8
 71
     3
 72
     8
 73
     4
 74
     0
 42
0.0000000001
 43
0.0000000001
 40
0.0
 40
0.0
 40
0.0
 40
0.0
 40
1.0
 40
1.0
 40
1.0
 40
1.0
 10
24.3713
 20
-12.3658
 30
0.0
 10
24.3659
 20
-12.3653
 30
0.0
 10
24.3605
 20
-12.365
 30
0.0
 10
24.3551
 20
-12.365
 30
0.0
  0
SPLINE
  5
8B
330
1F
100
AcDbEntity
  8
AXIS
 62
   250
100
AcDbSpline
210
0.0
220
0.0
230
1.0
 70
     8
 71
     3
 72
     8
 73
     4
 74
     0
 42
0.0000000001
 43
0.0000000001
 40
0.0
 40
0.0
 40
0.0
 40
0.0
 40
1.0
 40
1.0
 40
1.0
 40
1.0
 10
22.5741
 20
8.3588
 30
0.0
 10
22.3953
 20
8.3588
 30
0.0
 10
22.2503
 20
8.2139
 30
0.0
 10
22.2503
 20
8.035
 30
0.0
  0
SPLINE
  5
8C
330
1F
100
AcDbEntity
  8
AXIS
 62
   250
100
AcDbSpline
210
0.0
220
0.0
230
1.0
 70
     8
 71
     3
 72
     8
 73
     4
 74
     0
 42
0.0000000001
 43
0.0000000001
 40
0.0
 40
0.0
 40
0.0
 40
0.0
 40
1.0
 40
1.0
 40
1.0
 40
1.0
 10
24.3551
 20
8.3588
 30
0.0
 10
24.3605
 20
8.3588
 30
0.0
 10
24.3659
 20
8.3591
 30
0.0
 10
24.3713
 20
8.3596
 30
0.0
  0
SPLINE
  5
8D
330
1F
100
AcDbEntity
  8
AXIS
 62
   250
100
AcDbSpline
210
0.0
220
0.0
230
1.0
 70
    24
 71
     3
 72
     8
 73
     4
 74
     0
 42
0.0000000001
 43
0.0000000001
 40
0.0
 40
0.0
 40
0.0
 40
0.0
 40
1.0
 40
1.0
 40
1.0
 40
1.0
 10
-24.5363
 20
11.9868
 30
0.0
 10
-24.5363
 20
11.9868
 30
0.0
 10
-24.5363
 20
-15.3098
 30
0.0
 10
-24.5363
 20
-15.3098
 30
0.0
  0
SPLINE
  5
8E
330
1F
100
AcDbEntity
  8
AXIS
 62
   250
100
AcDbSpline
210
0.0
220
0.0
230
1.0
 70
    24
 71
     3
 72
     8
 73
     4
 74
     0
 42
0.0000000001
 43
0.0000000001
 40
0.0
 40
0.0
 40
0.0
 40
0.0
 40
1.0
 40
1.0
 40
1.0
 40
1.0
 10
-24.5363
 20
-15.3098
 30
0.0
 10
-24.5363
 20
-15.3098
 30
0.0
 10
16.3257
 20
-15.3098
 30
0.0
 10
16.3257
 20
-15.3098
 30
0.0
  0
SPLINE
  5
8F
330
1F
100
AcDbEntity
  8
AXIS
 62
   250
100
AcDbSpline
210
0.0
220
0.0
230
1.0
 70
    24
 71
     3
 72
     8
 73
     4
 74
     0
 42
0.0000000001
 43
0.0000000001
 40
0.0
 40
0.0
 40
0.0
 40
0.0
 40
1.0
 40
1.0
 40
1.0
 40
1.0
 10
-13.8947
 20
-4.377
 30
0.0
 10
-13.8947
 20
-4.377
 30
0.0
 10
-13.8947
 20
-4.4994
 30
0.0
 10
-13.8947
 20
-4.4994
 30
0.0
  0
SPLINE
  5
90
330
1F
100
AcDbEntity
  8
AXIS
 62
   250
100
AcDbSpline
210
0.0
220
0.0
230
1.0
 70
    24
 71
     3
 72
     8
 73
     4
 74
     0
 42
0.0000000001
 43
0.0000000001
 40
0.0
 40
0.0
 40
0.0
 40
0.0
 40
1.0
 40
1.0
 40
1.0
 40
1.0
 10
-13.8947
 20
1.054
 30
0.0
 10
-13.8947
 20
1.054
 30
0.0
 10
-13.8947
 20
1.1764
 30
0.0
 10
-13.8947
 20
1.1764
 30
0.0
  0
SPLINE
  5
91
330
1F
100
AcDbEntity
  8
AXIS
 62
   250
100
AcDbSpline
210
0.0
220
0.0
230
1.0
 70
    24
 71
     3
 72
     8
 73
     4
 74
     0
 42
0.0000000001
 43
0.0000000001
 40
0.0
 40
0.0
 40
0.0
 40
0.0
 40
1.0
 40
1.0
 40
1.0
 40
1.0
 10
-13.4996
 20
-4.8658
 30
0.0
 10
-13.4996
 20
-4.8658
 30
0.0
 10
-13.4997
 20
-4.7575
 30
0.0
 10
-13.4997
 20
-4.7575
 30
0.0
  0
SPLINE
  5
92
330
1F
100
AcDbEntity
  8
AXIS
 62
   250
100
AcDbSpline
210
0.0
220
0.0
230
1.0
 70
    24
 71
     3
 72
     8
 73
     4
 74
     0
 42
0.0000000001
 43
0.0000000001
 40
0.0
 40
0.0
 40
0.0
 40
0.0
 40
1.0
 40
1.0
 40
1.0
 40
1.0
 10
-13.5465
 20
-4.8264
 30
0.0
 10
-13.5465
 20
-4.8264
 30
0.0
 10
-13.5465
 20
-4.7173
 30
0.0
 10
-13.5465
 20
-4.7173
 30
0.0
  0
SPLINE
  5
93
330
1F
100
AcDbEntity
  8
AXIS
 62
   250
100
AcDbSpline
210
0.0
220
0.0
230
1.0
 70
    24
 71
     3
 72
     8
 73
     4
 74
     0
 42
0.0000000001
 43
0.0000000001
 40
0.0
 40
0.0
 40
0.0
 40
0.0
 40
1.0
 40
1.0
 40
1.0
 40
1.0
 10
-13.5061
 20
1.4291
 30
0.0
 10
-13.5061
 20
1.4291
 30
0.0
 10
-13.5061
 20
1.5374
 30
0.0
 10
-13.5061
 20
1.5374
 30
0.0
  0
SPLINE
  5
94
330
1F
100
AcDbEntity
  8
AXIS
 62
   250
100
AcDbSpline
210
0.0
220
0.0
230
1.0
 70
    24
 71
     3
 72
     8
 73
     4
 74
     0
 42
0.0000000001
 43
0.0000000001
 40
0.0
 40
0.0
 40
0.0
 40
0.0
 40
1.0
 40
1.0
 40
1.0
 40
1.0
 10
-12.2115
 20
2.2554
 30
0.0
 10
-12.2115
 20
2.2554
 30
0.0
 10
-12.2115
 20
2.1665
 30
0.0
 10
-12.2115
 20
2.1665
 30
0.0
  0
SPLINE
  5
95
330
1F
100
AcDbEntity
  8
AXIS
 62
   250
100
AcDbSpline
210
0.0
220
0.0
230
1.0
 70
    24
 71
     3
 72
     8
 73
     4
 74
     0
 42
0.0000000001
 43
0.0000000001
 40
0.0
 40
0.0
 40
0.0
 40
0.0
 40
1.0
 40
1.0
 40
1.0
 40
1.0
 10
-11.0689
 20
-5.7922
 30
0.0
 10
-11.0689
 20
-5.7922
 30
0.0
 10
-11.0695
 20
-5.7078
 30
0.0
 10
-11.0695
 20
-5.7078
 30
0.0
  0
SPLINE
  5
96
330
1F
100
AcDbEntity
  8
AXIS
 62
   250
100
AcDbSpline
210
0.0
220
0.0
230
1.0
 70
    24
 71
     3
 72
     8
 73
     4
 74
     0
 42
0.0000000001
 43
0.0000000001
 40
0.0
 40
0.0
 40
0.0
 40
0.0
 40
1.0
 40
1.0
 40
1.0
 40
1.0
 10
-11.0824
 20
2.3844
 30
0.0
 10
-11.0824
 20
2.3844
 30
0.0
 10
-11.0824
 20
2.4683
 30
0.0
 10
-11.0824
 20
2.4683
 30
0.0
  0
SPLINE
  5
97
330
1F
100
AcDbEntity
  8
AXIS
 62
   250
100
AcDbSpline
210
0.0
220
0.0
230
1.0
 70
    24
 71
     3
 72
     8
 73
     4
 74
     0
 42
0.0000000001
 43
0.0000000001
 40
0.0
 40
0.0
 40
0.0
 40
0.0
 40
1.0
 40
1.0
 40
1.0
 40
1.0
 10
-11.0414
 20
-5.7089
 30
0.0
 10
-11.0414
 20
-5.7089
 30
0.0
 10
-11.0414
 20
-5.7942
 30
0.0
 10
-11.0414
 20
-5.7942
 30
0.0
  0
SPLINE
  5
98
330
1F
100
AcDbEntity
  8
AXIS
 62
   250
100
AcDbSpline
210
0.0
220
0.0
230
1.0
 70
    24
 71
     3
 72
     8
 73
     4
 74
     0
 42
0.0000000001
 43
0.0000000001
 40
0.0
 40
0.0
 40
0.0
 40
0.0
 40
1.0
 40
1.0
 40
1.0
 40
1.0
 10
-10.7082
 20
-5.7079
 30
0.0
 10
-10.7082
 20
-5.7079
 30
0.0
 10
-10.7082
 20
-5.7923
 30
0.0
 10
-10.7082
 20
-5.7923
 30
0.0
  0
SPLINE
  5
99
330
1F
100
AcDbEntity
  8
AXIS
 62
   250
100
AcDbSpline
210
0.0
220
0.0
230
1.0
 70
    24
 71
     3
 72
     8
 73
     4
 74
     0
 42
0.0000000001
 43
0.0000000001
 40
0.0
 40
0.0
 40
0.0
 40
0.0
 40
1.0
 40
1.0
 40
1.0
 40
1.0
 10
-10.6937
 20
2.3844
 30
0.0
 10
-10.6937
 20
2.3844
 30
0.0
 10
-10.6937
 20
2.4683
 30
0.0
 10
-10.6937
 20
2.4683
 30
0.0
  0
SPLINE
  5
9A
330
1F
100
AcDbEntity
  8
AXIS
 62
   250
100
AcDbSpline
210
0.0
220
0.0
230
1.0
 70
    24
 71
     3
 72
     8
 73
     4
 74
     0
 42
0.0000000001
 43
0.0000000001
 40
0.0
 40
0.0
 40
0.0
 40
0.0
 40
1.0
 40
1.0
 40
1.0
 40
1.0
 10
-10.6801
 20
-5.7068
 30
0.0
 10
-10.6801
 20
-5.7068
 30
0.0
 10
-10.6806
 20
-5.7904
 30
0.0
 10
-10.6806
 20
-5.7904
 30
0.0
  0
SPLINE
  5
9B
330
1F
100
AcDbEntity
  8
AXIS
 62
   250
100
AcDbSpline
210
0.0
220
0.0
230
1.0
 70
    24
 71
     3
 72
     8
 73
     4
 74
     0
 42
0.0000000001
 43
0.0000000001
 40
0.0
 40
0.0
 40
0.0
 40
0.0
 40
1.0
 40
1.0
 40
1.0
 40
1.0
 10
-9.151
 20
-5.4126
 30
0.0
 10
-9.151
 20
-5.4126
 30
0.0
 10
-9.151
 20
-5.4018
 30
0.0
 10
-9.151
 20
-5.4018
 30
0.0
  0
SPLINE
  5
9C
330
1F
100
AcDbEntity
  8
AXIS
 62
   250
100
AcDbSpline
210
0.0
220
0.0
230
1.0
 70
    24
 71
     3
 72
     8
 73
     4
 74
     0
 42
0.0000000001
 43
0.0000000001
 40
0.0
 40
0.0
 40
0.0
 40
0.0
 40
1.0
 40
1.0
 40
1.0
 40
1.0
 10
-9.151
 20
-5.4018
 30
0.0
 10
-9.151
 20
-5.4018
 30
0.0
 10
-9.1609
 20
-5.3919
 30
0.0
 10
-9.1609
 20
-5.3919
 30
0.0
  0
SPLINE
  5
9D
330
1F
100
AcDbEntity
  8
AXIS
 62
   250
100
AcDbSpline
210
0.0
220
0.0
230
1.0
 70
    24
 71
     3
 72
     8
 73
     4
 74
     0
 42
0.0000000001
 43
0.0000000001
 40
0.0
 40
0.0
 40
0.0
 40
0.0
 40
1.0
 40
1.0
 40
1.0
 40
1.0
 10
-8.27
 20
1.4291
 30
0.0
 10
-8.27
 20
1.4291
 30
0.0
 10
-8.27
 20
1.5374
 30
0.0
 10
-8.27
 20
1.5374
 30
0.0
  0
SPLINE
  5
9E
330
1F
100
AcDbEntity
  8
AXIS
 62
   250
100
AcDbSpline
210
0.0
220
0.0
230
1.0
 70
    24
 71
     3
 72
     8
 73
     4
 74
     0
 42
0.0000000001
 43
0.0000000001
 40
0.0
 40
0.0
 40
0.0
 40
0.0
 40
1.0
 40
1.0
 40
1.0
 40
1.0
 10
-7.8814
 20
1.054
 30
0.0
 10
-7.8814
 20
1.054
 30
0.0
 10
-7.8814
 20
1.1764
 30
0.0
 10
-7.8814
 20
1.1764
 30
0.0
  0
SPLINE
  5
9F
330
1F
100
AcDbEntity
  8
AXIS
 62
   250
100
AcDbSpline
210
0.0
220
0.0
230
1.0
 70
    24
 71
     3
 72
     8
 73
     4
 74
     0
 42
0.0000000001
 43
0.0000000001
 40
0.0
 40
0.0
 40
0.0
 40
0.0
 40
1.0
 40
1.0
 40
1.0
 40
1.0
 10
-9.8763
 20
-5.6713
 30
0.0
 10
-9.8763
 20
-5.6713
 30
0.0
 10
-10.301
 20
-5.6713
 30
0.0
 10
-10.301
 20
-5.6713
 30
0.0
  0
SPLINE
  5
A0
330
1F
100
AcDbEntity
  8
AXIS
 62
   250
100
AcDbSpline
210
0.0
220
0.0
230
1.0
 70
    24
 71
     3
 72
     8
 73
     4
 74
     0
 42
0.0000000001
 43
0.0000000001
 40
0.0
 40
0.0
 40
0.0
 40
0.0
 40
1.0
 40
1.0
 40
1.0
 40
1.0
 10
-9.727
 20
-5.6285
 30
0.0
 10
-9.727
 20
-5.6285
 30
0.0
 10
-10.0678
 20
-5.6285
 30
0.0
 10
-10.0678
 20
-5.6285
 30
0.0
  0
SPLINE
  5
A1
330
1F
100
AcDbEntity
  8
AXIS
 62
   250
100
AcDbSpline
210
0.0
220
0.0
230
1.0
 70
    24
 71
     3
 72
     8
 73
     4
 74
     0
 42
0.0000000001
 43
0.0000000001
 40
0.0
 40
0.0
 40
0.0
 40
0.0
 40
1.0
 40
1.0
 40
1.0
 40
1.0
 10
-9.3325
 20
-5.4018
 30
0.0
 10
-9.3325
 20
-5.4018
 30
0.0
 10
-9.151
 20
-5.4018
 30
0.0
 10
-9.151
 20
-5.4018
 30
0.0
  0
SPLINE
  5
A2
330
1F
100
AcDbEntity
  8
AXIS
 62
   250
100
AcDbSpline
210
0.0
220
0.0
230
1.0
 70
    24
 71
     3
 72
     8
 73
     4
 74
     0
 42
0.0000000001
 43
0.0000000001
 40
0.0
 40
0.0
 40
0.0
 40
0.0
 40
1.0
 40
1.0
 40
1.0
 40
1.0
 10
-9.3097
 20
-5.3919
 30
0.0
 10
-9.3097
 20
-5.3919
 30
0.0
 10
-9.1609
 20
-5.3919
 30
0.0
 10
-9.1609
 20
-5.3919
 30
0.0
  0
SPLINE
  5
A3
330
1F
100
AcDbEntity
  8
AXIS
 62
   250
100
AcDbSpline
210
0.0
220
0.0
230
1.0
 70
    24
 71
     3
 72
     8
 73
     4
 74
     0
 42
0.0000000001
 43
0.0000000001
 40
0.0
 40
0.0
 40
0.0
 40
0.0
 40
1.0
 40
1.0
 40
1.0
 40
1.0
 10
-15.0229
 20
-1.6337
 30
0.0
 10
-15.0229
 20
-1.6337
 30
0.0
 10
-14.9401
 20
-1.6337
 30
0.0
 10
-14.9401
 20
-1.6337
 30
0.0
  0
SPLINE
  5
A4
330
1F
100
AcDbEntity
  8
AXIS
 62
   250
100
AcDbSpline
210
0.0
220
0.0
230
1.0
 70
    24
 71
     3
 72
     8
 73
     4
 74
     0
 42
0.0000000001
 43
0.0000000001
 40
0.0
 40
0.0
 40
0.0
 40
0.0
 40
1.0
 40
1.0
 40
1.0
 40
1.0
 10
-6.836
 20
-1.6337
 30
0.0
 10
-6.836
 20
-1.6337
 30
0.0
 10
-6.7532
 20
-1.6337
 30
0.0
 10
-6.7532
 20
-1.6337
 30
0.0
  0
SPLINE
  5
A5
330
1F
100
AcDbEntity
  8
AXIS
 62
   250
100
AcDbSpline
210
0.0
220
0.0
230
1.0
 70
    24
 71
     3
 72
     8
 73
     4
 74
     0
 42
0.0000000001
 43
0.0000000001
 40
0.0
 40
0.0
 40
0.0
 40
0.0
 40
1.0
 40
1.0
 40
1.0
 40
1.0
 10
-6.7756
 20
-1.2461
 30
0.0
 10
-6.7756
 20
-1.2461
 30
0.0
 10
-6.859
 20
-1.2461
 30
0.0
 10
-6.859
 20
-1.2461
 30
0.0
  0
SPLINE
  5
A6
330
1F
100
AcDbEntity
  8
AXIS
 62
   250
100
AcDbSpline
210
0.0
220
0.0
230
1.0
 70
    24
 71
     3
 72
     8
 73
     4
 74
     0
 42
0.0000000001
 43
0.0000000001
 40
0.0
 40
0.0
 40
0.0
 40
0.0
 40
1.0
 40
1.0
 40
1.0
 40
1.0
 10
-14.9172
 20
-1.2461
 30
0.0
 10
-14.9172
 20
-1.2461
 30
0.0
 10
-15.0005
 20
-1.2461
 30
0.0
 10
-15.0005
 20
-1.2461
 30
0.0
  0
SPLINE
  5
A7
330
1F
100
AcDbEntity
  8
AXIS
 62
   250
100
AcDbSpline
210
0.0
220
0.0
230
1.0
 70
    24
 71
     3
 72
     8
 73
     4
 74
     0
 42
0.0000000001
 43
0.0000000001
 40
0.0
 40
0.0
 40
0.0
 40
0.0
 40
1.0
 40
1.0
 40
1.0
 40
1.0
 10
-9.0076
 20
1.9258
 30
0.0
 10
-9.0076
 20
1.9258
 30
0.0
 10
-8.8306
 20
1.9258
 30
0.0
 10
-8.8306
 20
1.9258
 30
0.0
  0
SPLINE
  5
A8
330
1F
100
AcDbEntity
  8
AXIS
 62
   250
100
AcDbSpline
210
0.0
220
0.0
230
1.0
 70
    24
 71
     3
 72
     8
 73
     4
 74
     0
 42
0.0000000001
 43
0.0000000001
 40
0.0
 40
0.0
 40
0.0
 40
0.0
 40
1.0
 40
1.0
 40
1.0
 40
1.0
 10
-12.0136
 20
2.3157
 30
0.0
 10
-12.0136
 20
2.3157
 30
0.0
 10
-11.6544
 20
2.3157
 30
0.0
 10
-11.6544
 20
2.3157
 30
0.0
  0
SPLINE
  5
A9
330
1F
100
AcDbEntity
  8
AXIS
 62
   250
100
AcDbSpline
210
0.0
220
0.0
230
1.0
 70
    24
 71
     3
 72
     8
 73
     4
 74
     0
 42
0.0000000001
 43
0.0000000001
 40
0.0
 40
0.0
 40
0.0
 40
0.0
 40
1.0
 40
1.0
 40
1.0
 40
1.0
 10
-10.1217
 20
2.3157
 30
0.0
 10
-10.1217
 20
2.3157
 30
0.0
 10
-9.7626
 20
2.3157
 30
0.0
 10
-9.7626
 20
2.3157
 30
0.0
  0
SPLINE
  5
AA
330
1F
100
AcDbEntity
  8
AXIS
 62
   250
100
AcDbSpline
210
0.0
220
0.0
230
1.0
 70
    24
 71
     3
 72
     8
 73
     4
 74
     0
 42
0.0000000001
 43
0.0000000001
 40
0.0
 40
0.0
 40
0.0
 40
0.0
 40
1.0
 40
1.0
 40
1.0
 40
1.0
 10
7.4135
 20
-5.5264
 30
0.0
 10
7.4135
 20
-5.5264
 30
0.0
 10
7.4135
 20
-5.7323
 30
0.0
 10
7.4135
 20
-5.7323
 30
0.0
  0
SPLINE
  5
AB
330
1F
100
AcDbEntity
  8
AXIS
 62
   250
100
AcDbSpline
210
0.0
220
0.0
230
1.0
 70
    24
 71
     3
 72
     8
 73
     4
 74
     0
 42
0.0000000001
 43
0.0000000001
 40
0.0
 40
0.0
 40
0.0
 40
0.0
 40
1.0
 40
1.0
 40
1.0
 40
1.0
 10
16.3257
 20
11.9868
 30
0.0
 10
16.3257
 20
11.9868
 30
0.0
 10
-24.5363
 20
11.9868
 30
0.0
 10
-24.5363
 20
11.9868
 30
0.0
  0
SPLINE
  5
AC
330
1F
100
AcDbEntity
  8
AXIS
 62
   250
100
AcDbSpline
210
0.0
220
0.0
230
1.0
 70
    24
 71
     3
 72
     8
 73
     4
 74
     0
 42
0.0000000001
 43
0.0000000001
 40
0.0
 40
0.0
 40
0.0
 40
0.0
 40
1.0
 40
1.0
 40
1.0
 40
1.0
 10
16.3257
 20
-15.3098
 30
0.0
 10
16.3257
 20
-15.3098
 30
0.0
 10
16.3257
 20
11.9868
 30
0.0
 10
16.3257
 20
11.9868
 30
0.0
  0
SPLINE
  5
AD
330
1F
100
AcDbEntity
  8
AXIS
 62
   250
100
AcDbSpline
210
0.0
220
0.0
230
1.0
 70
    11
 71
     3
 72
    20
 73
    16
 74
     0
 42
0.0000000001
 43
0.0000000001
 40
0.0
 40
0.0
 40
0.0
 40
0.0
 40
0.2
 40
0.2
 40
0.2
 40
0.2
 40
0.4
 40
0.4
 40
0.4
 40
0.4
 40
0.6
 40
0.6
 40
0.6
 40
0.6
 40
1.0
 40
1.0
 40
1.0
 40
1.0
 10
-5.7596
 20
-1.6615
 30
0.0
 10
-5.7596
 20
1.1709
 30
0.0
 10
-8.0557
 20
3.4669
 30
0.0
 10
-10.8881
 20
3.4669
 30
0.0
 10
-10.8881
 20
3.4669
 30
0.0
 10
-13.7204
 20
3.4669
 30
0.0
 10
-16.0165
 20
1.1709
 30
0.0
 10
-16.0165
 20
-1.6615
 30
0.0
 10
-16.0165
 20
-1.6615
 30
0.0
 10
-16.0165
 20
-4.4938
 30
0.0
 10
-13.7204
 20
-6.7899
 30
0.0
 10
-10.8881
 20
-6.7899
 30
0.0
 10
-10.8881
 20
-6.7899
 30
0.0
 10
-8.0557
 20
-6.7899
 30
0.0
 10
-5.7596
 20
-4.4938
 30
0.0
 10
-5.7596
 20
-1.6615
 30
0.0
  0
SPLINE
  5
AE
330
1F
100
AcDbEntity
  8
AXIS
 62
   250
100
AcDbSpline
210
0.0
220
0.0
230
1.0
 70
    11
 71
     3
 72
    20
 73
    16
 74
     0
 42
0.0000000001
 43
0.0000000001
 40
0.0
 40
0.0
 40
0.0
 40
0.0
 40
0.2
 40
0.2
 40
0.2
 40
0.2
 40
0.4
 40
0.4
 40
0.4
 40
0.4
 40
0.6
 40
0.6
 40
0.6
 40
0.6
 40
1.0
 40
1.0
 40
1.0
 40
1.0
 10
-5.7762
 20
-1.6615
 30
0.0
 10
-5.7762
 20
1.1617
 30
0.0
 10
-8.0648
 20
3.4504
 30
0.0
 10
-10.8881
 20
3.4504
 30
0.0
 10
-10.8881
 20
3.4504
 30
0.0
 10
-13.7113
 20
3.4504
 30
0.0
 10
-16.0
 20
1.1617
 30
0.0
 10
-16.0
 20
-1.6615
 30
0.0
 10
-16.0
 20
-1.6615
 30
0.0
 10
-16.0
 20
-4.4847
 30
0.0
 10
-13.7113
 20
-6.7734
 30
0.0
 10
-10.8881
 20
-6.7734
 30
0.0
 10
-10.8881
 20
-6.7734
 30
0.0
 10
-8.0648
 20
-6.7734
 30
0.0
 10
-5.7762
 20
-4.4847
 30
0.0
 10
-5.7762
 20
-1.6615
 30
0.0
  0
SPLINE
  5
AF
330
1F
100
AcDbEntity
  8
AXIS
 62
   250
100
AcDbSpline
210
0.0
220
0.0
230
1.0
 70
    11
 71
     3
 72
    20
 73
    16
 74
     0
 42
0.0000000001
 43
0.0000000001
 40
0.0
 40
0.0
 40
0.0
 40
0.0
 40
0.2
 40
0.2
 40
0.2
 40
0.2
 40
0.4
 40
0.4
 40
0.4
 40
0.4
 40
0.6
 40
0.6
 40
0.6
 40
0.6
 40
1.0
 40
1.0
 40
1.0
 40
1.0
 10
-6.7522
 20
-1.6615
 30
0.0
 10
-6.7522
 20
0.6227
 30
0.0
 10
-8.6039
 20
2.4743
 30
0.0
 10
-10.8881
 20
2.4743
 30
0.0
 10
-10.8881
 20
2.4743
 30
0.0
 10
-13.1722
 20
2.4743
 30
0.0
 10
-15.0239
 20
0.6227
 30
0.0
 10
-15.0239
 20
-1.6615
 30
0.0
 10
-15.0239
 20
-1.6615
 30
0.0
 10
-15.0239
 20
-3.9457
 30
0.0
 10
-13.1722
 20
-5.7973
 30
0.0
 10
-10.8881
 20
-5.7973
 30
0.0
 10
-10.8881
 20
-5.7973
 30
0.0
 10
-8.6039
 20
-5.7973
 30
0.0
 10
-6.7522
 20
-3.9457
 30
0.0
 10
-6.7522
 20
-1.6615
 30
0.0
  0
SPLINE
  5
B0
330
1F
100
AcDbEntity
  8
AXIS
 62
   250
100
AcDbSpline
210
0.0
220
0.0
230
1.0
 70
    11
 71
     3
 72
    20
 73
    16
 74
     0
 42
0.0000000001
 43
0.0000000001
 40
0.0
 40
0.0
 40
0.0
 40
0.0
 40
0.2
 40
0.2
 40
0.2
 40
0.2
 40
0.4
 40
0.4
 40
0.4
 40
0.4
 40
0.6
 40
0.6
 40
0.6
 40
0.6
 40
1.0
 40
1.0
 40
1.0
 40
1.0
 10
-6.8349
 20
-1.6615
 30
0.0
 10
-6.8349
 20
0.577
 30
0.0
 10
-8.6496
 20
2.3916
 30
0.0
 10
-10.8881
 20
2.3916
 30
0.0
 10
-10.8881
 20
2.3916
 30
0.0
 10
-13.1265
 20
2.3916
 30
0.0
 10
-14.9412
 20
0.577
 30
0.0
 10
-14.9412
 20
-1.6615
 30
0.0
 10
-14.9412
 20
-1.6615
 30
0.0
 10
-14.9412
 20
-3.9
 30
0.0
 10
-13.1265
 20
-5.7146
 30
0.0
 10
-10.8881
 20
-5.7146
 30
0.0
 10
-10.8881
 20
-5.7146
 30
0.0
 10
-8.6496
 20
-5.7146
 30
0.0
 10
-6.8349
 20
-3.9
 30
0.0
 10
-6.8349
 20
-1.6615
 30
0.0
  0
SPLINE
  5
B1
330
1F
100
AcDbEntity
  8
AXIS
 62
   250
100
AcDbSpline
210
0.0
220
0.0
230
1.0
 70
    11
 71
     3
 72
    20
 73
    16
 74
     0
 42
0.0000000001
 43
0.0000000001
 40
0.0
 40
0.0
 40
0.0
 40
0.0
 40
0.2
 40
0.2
 40
0.2
 40
0.2
 40
0.4
 40
0.4
 40
0.4
 40
0.4
 40
0.6
 40
0.6
 40
0.6
 40
0.6
 40
1.0
 40
1.0
 40
1.0
 40
1.0
 10
7.5412
 20
-5.1521
 30
0.0
 10
7.5412
 20
-4.3847
 30
0.0
 10
6.9191
 20
-3.7625
 30
0.0
 10
6.1516
 20
-3.7625
 30
0.0
 10
6.1516
 20
-3.7625
 30
0.0
 10
5.3841
 20
-3.7625
 30
0.0
 10
4.7619
 20
-4.3847
 30
0.0
 10
4.7619
 20
-5.1521
 30
0.0
 10
4.7619
 20
-5.1521
 30
0.0
 10
4.7619
 20
-5.9196
 30
0.0
 10
5.3841
 20
-6.5418
 30
0.0
 10
6.1516
 20
-6.5418
 30
0.0
 10
6.1516
 20
-6.5418
 30
0.0
 10
6.9191
 20
-6.5418
 30
0.0
 10
7.5412
 20
-5.9196
 30
0.0
 10
7.5412
 20
-5.1521
 30
0.0
  0
SPLINE
  5
B2
330
1F
100
AcDbEntity
  8
AXIS
 62
   250
100
AcDbSpline
210
0.0
220
0.0
230
1.0
 70
    11
 71
     3
 72
    20
 73
    16
 74
     0
 42
0.0000000001
 43
0.0000000001
 40
0.0
 40
0.0
 40
0.0
 40
0.0
 40
0.2
 40
0.2
 40
0.2
 40
0.2
 40
0.4
 40
0.4
 40
0.4
 40
0.4
 40
0.6
 40
0.6
 40
0.6
 40
0.6
 40
1.0
 40
1.0
 40
1.0
 40
1.0
 10
7.475
 20
-5.1356
 30
0.0
 10
7.475
 20
-4.4047
 30
0.0
 10
6.8825
 20
-3.8121
 30
0.0
 10
6.1516
 20
-3.8121
 30
0.0
 10
6.1516
 20
-3.8121
 30
0.0
 10
5.4206
 20
-3.8121
 30
0.0
 10
4.8281
 20
-4.4047
 30
0.0
 10
4.8281
 20
-5.1356
 30
0.0
 10
4.8281
 20
-5.1356
 30
0.0
 10
4.8281
 20
-5.8665
 30
0.0
 10
5.4206
 20
-6.4591
 30
0.0
 10
6.1516
 20
-6.4591
 30
0.0
 10
6.1516
 20
-6.4591
 30
0.0
 10
6.8825
 20
-6.4591
 30
0.0
 10
7.475
 20
-5.8665
 30
0.0
 10
7.475
 20
-5.1356
 30
0.0
  0
SPLINE
  5
B3
330
1F
100
AcDbEntity
  8
AXIS
 62
   250
100
AcDbSpline
210
0.0
220
0.0
230
1.0
 70
    11
 71
     3
 72
    20
 73
    16
 74
     0
 42
0.0000000001
 43
0.0000000001
 40
0.0
 40
0.0
 40
0.0
 40
0.0
 40
0.2
 40
0.2
 40
0.2
 40
0.2
 40
0.4
 40
0.4
 40
0.4
 40
0.4
 40
0.6
 40
0.6
 40
0.6
 40
0.6
 40
1.0
 40
1.0
 40
1.0
 40
1.0
 10
7.3923
 20
-5.1356
 30
0.0
 10
7.3923
 20
-4.4503
 30
0.0
 10
6.8368
 20
-3.8949
 30
0.0
 10
6.1516
 20
-3.8949
 30
0.0
 10
6.1516
 20
-3.8949
 30
0.0
 10
5.4663
 20
-3.8949
 30
0.0
 10
4.9108
 20
-4.4503
 30
0.0
 10
4.9108
 20
-5.1356
 30
0.0
 10
4.9108
 20
-5.1356
 30
0.0
 10
4.9108
 20
-5.8208
 30
0.0
 10
5.4663
 20
-6.3764
 30
0.0
 10
6.1516
 20
-6.3764
 30
0.0
 10
6.1516
 20
-6.3764
 30
0.0
 10
6.8368
 20
-6.3764
 30
0.0
 10
7.3923
 20
-5.8208
 30
0.0
 10
7.3923
 20
-5.1356
 30
0.0
  0
SPLINE
  5
B4
330
1F
100
AcDbEntity
  8
AXIS
 62
   250
100
AcDbSpline
210
0.0
220
0.0
230
1.0
 70
     8
 71
     3
 72
    64
 73
    60
 74
     0
 42
0.0000000001
 43
0.0000000001
 40
0.0
 40
0.0
 40
0.0
 40
0.0
 40
0.0625
 40
0.0625
 40
0.0625
 40
0.0625
 40
0.125
 40
0.125
 40
0.125
 40
0.125
 40
0.1875
 40
0.1875
 40
0.1875
 40
0.1875
 40
0.25
 40
0.25
 40
0.25
 40
0.25
 40
0.3125
 40
0.3125
 40
0.3125
 40
0.3125
 40
0.375
 40
0.375
 40
0.375
 40
0.375
 40
0.4375
 40
0.4375
 40
0.4375
 40
0.4375
 40
0.5
 40
0.5
 40
0.5
 40
0.5
 40
0.5625
 40
0.5625
 40
0.5625
 40
0.5625
 40
0.625
 40
0.625
 40
0.625
 40
0.625
 40
0.6875
 40
0.6875
 40
0.6875
 40
0.6875
 40
0.75
 40
0.75
 40
0.75
 40
0.75
 40
0.8125
 40
0.8125
 40
0.8125
 40
0.8125
 40
0.875
 40
0.875
 40
0.875
 40
0.875
 40
1.0
 40
1.0
 40
1.0
 40
1.0
 10
-9.1609
 20
-5.3919
 30
0.0
 10
-9.1609
 20
-5.3919
 30
0.0
 10
-9.1613
 20
-5.3913
 30
0.0
 10
-9.1613
 20
-5.3913
 30
0.0
 10
-9.1613
 20
-5.3913
 30
0.0
 10
-9.1613
 20
-5.3913
 30
0.0
 10
-9.1617
 20
-5.3902
 30
0.0
 10
-9.1617
 20
-5.3902
 30
0.0
 10
-9.1617
 20
-5.3902
 30
0.0
 10
-9.1617
 20
-5.3902
 30
0.0
 10
-9.1624
 20
-5.3867
 30
0.0
 10
-9.1624
 20
-5.3867
 30
0.0
 10
-9.1624
 20
-5.3867
 30
0.0
 10
-9.1624
 20
-5.3867
 30
0.0
 10
-9.1632
 20
-5.3814
 30
0.0
 10
-9.1632
 20
-5.3814
 30
0.0
 10
-9.1632
 20
-5.3814
 30
0.0
 10
-9.1632
 20
-5.3814
 30
0.0
 10
-9.1633
 20
-5.3806
 30
0.0
 10
-9.1633
 20
-5.3806
 30
0.0
 10
-9.1633
 20
-5.3806
 30
0.0
 10
-9.1633
 20
-5.3806
 30
0.0
 10
-9.1639
 20
-5.3743
 30
0.0
 10
-9.1639
 20
-5.3743
 30
0.0
 10
-9.1639
 20
-5.3743
 30
0.0
 10
-9.1639
 20
-5.3743
 30
0.0
 10
-9.1641
 20
-5.3718
 30
0.0
 10
-9.1641
 20
-5.3718
 30
0.0
 10
-9.1641
 20
-5.3718
 30
0.0
 10
-9.1641
 20
-5.3718
 30
0.0
 10
-9.1646
 20
-5.3656
 30
0.0
 10
-9.1646
 20
-5.3656
 30
0.0
 10
-9.1646
 20
-5.3656
 30
0.0
 10
-9.1646
 20
-5.3656
 30
0.0
 10
-9.1649
 20
-5.3614
 30
0.0
 10
-9.1649
 20
-5.3614
 30
0.0
 10
-9.1649
 20
-5.3614
 30
0.0
 10
-9.1649
 20
-5.3614
 30
0.0
 10
-9.1652
 20
-5.3552
 30
0.0
 10
-9.1652
 20
-5.3552
 30
0.0
 10
-9.1652
 20
-5.3552
 30
0.0
 10
-9.1652
 20
-5.3552
 30
0.0
 10
-9.1656
 20
-5.3494
 30
0.0
 10
-9.1656
 20
-5.3494
 30
0.0
 10
-9.1656
 20
-5.3494
 30
0.0
 10
-9.1656
 20
-5.3494
 30
0.0
 10
-9.1659
 20
-5.3432
 30
0.0
 10
-9.1659
 20
-5.3432
 30
0.0
 10
-9.1659
 20
-5.3432
 30
0.0
 10
-9.1659
 20
-5.3432
 30
0.0
 10
-9.1659
 20
-5.3422
 30
0.0
 10
-9.1659
 20
-5.3422
 30
0.0
 10
-9.1659
 20
-5.3422
 30
0.0
 10
-9.1659
 20
-5.3422
 30
0.0
 10
-9.1662
 20
-5.3359
 30
0.0
 10
-9.1662
 20
-5.3359
 30
0.0
 10
-9.1662
 20
-5.3359
 30
0.0
 10
-9.1662
 20
-5.3359
 30
0.0
 10
-9.1665
 20
-5.3297
 30
0.0
 10
-9.1665
 20
-5.3297
 30
0.0
  0
SPLINE
  5
B5
330
1F
100
AcDbEntity
  8
AXIS
 62
   250
100
AcDbSpline
210
0.0
220
0.0
230
1.0
 70
    24
 71
     3
 72
     8
 73
     4
 74
     0
 42
0.0000000001
 43
0.0000000001
 40
0.0
 40
0.0
 40
0.0
 40
0.0
 40
1.0
 40
1.0
 40
1.0
 40
1.0
 10
-14.8918
 20
-2.6885
 30
0.0
 10
-14.8918
 20
-2.6885
 30
0.0
 10
-14.806
 20
-2.6885
 30
0.0
 10
-14.806
 20
-2.6885
 30
0.0
  0
SPLINE
  5
B6
330
1F
100
AcDbEntity
  8
AXIS
 62
   250
100
AcDbSpline
210
0.0
220
0.0
230
1.0
 70
    24
 71
     3
 72
     8
 73
     4
 74
     0
 42
0.0000000001
 43
0.0000000001
 40
0.0
 40
0.0
 40
0.0
 40
0.0
 40
1.0
 40
1.0
 40
1.0
 40
1.0
 10
-6.9701
 20
-2.6885
 30
0.0
 10
-6.9701
 20
-2.6885
 30
0.0
 10
-6.8843
 20
-2.6885
 30
0.0
 10
-6.8843
 20
-2.6885
 30
0.0
  0
ENDSEC
  0
SECTION
  2
OBJECTS
  0
DICTIONARY
  5
C
330
0
100
AcDbDictionary
  3
ACAD_GROUP
350
D
  3
ACAD_LAYOUT
350
1A
  3
ACAD_MATERIAL
350
3B
  3
ACAD_MLEADERSTYLE
350
D9
  3
ACAD_MLINESTYLE
350
17
  3
ACAD_PLOTSETTINGS
350
19
  3
ACAD_VISUALSTYLE
350
2A
  3
ACDBHEADERROUNDTRIPXREC
350
B7
  3
ACDBVARIABLEDICTIONARY
350
D7
  0
DICTIONARY
  5
D
102
{ACAD_REACTORS
330
C
102
}
330
C
100
AcDbDictionary
  0
DICTIONARY
  5
1A
102
{ACAD_REACTORS
330
C
102
}
330
C
100
AcDbDictionary
  0
DICTIONARY
  5
3B
102
{ACAD_REACTORS
330
C
102
}
330
C
100
AcDbDictionary
  3
BYBLOCK
350
3D
  3
BYLAYER
350
3C
  3
GLOBAL
350
3E
  0
DICTIONARY
  5
D9
102
{ACAD_REACTORS
330
C
102
}
330
C
100
AcDbDictionary
  0
DICTIONARY
  5
17
102
{ACAD_REACTORS
330
C
102
}
330
C
100
AcDbDictionary
  3
STANDARD
350
18
  0
DICTIONARY
  5
19
102
{ACAD_REACTORS
330
C
102
}
330
C
100
AcDbDictionary
  0
DICTIONARY
  5
2A
102
{ACAD_REACTORS
330
C
102
}
330
C
100
AcDbDictionary
  3
2DWIREFRAME
350
2F
  3
3D_HIDDEN
350
31
  3
3DWIREFRAME
350
30
  3
BASIC
350
32
  3
BRIGHTEN
350
36
  3
COLORCHANGE
350
3A
  3
CONCEPTUAL
350
34
  3
DIM
350
35
  3
FACEPATTERN
350
39
  3
FLAT
350
2B
  3
FLATWITHEDGES
350
2C
  3
GOURAUD
350
2D
  3
GOURAUDWITHEDGES
350
2E
  3
LINEPATTERN
350
38
  3
REALISTIC
350
33
  3
THICKEN
350
37
  0
DICTIONARY
  5
B7
102
{ACAD_REACTORS
330
C
102
}
330
C
100
AcDbDictionary
  3
CEPSNTYPE
350
C0
  3
DIMSTYLEDATA
350
D6
  3
FINGERPRINTGUID
350
C1
  3
HYPERLINKBASE
350
BA
  3
INSUNITS
350
BF
  3
LAYOUTDICT
350
BC
  3
LWETCUNION
350
BE
  3
PLOTSETDICT
350
BD
  3
PSVPSCALE
350
C3
  3
PUCSBASE
350
C6
  3
PUCSORGBACK
350
CC
  3
PUCSORGBOTTOM
350
C8
  3
PUCSORGFRONT
350
CB
  3
PUCSORGLEFT
350
C9
  3
PUCSORGRIGHT
350
CA
  3
PUCSORGTOP
350
C7
  3
PUCSORTHOREF
350
C4
  3
PUCSORTHOVIEW
350
C5
  3
STYLESHEET
350
BB
  3
TSTACKALIGN
350
B8
  3
TSTACKSIZE
350
B9
  3
UCSBASE
350
CF
  3
UCSORGBACK
350
D5
  3
UCSORGBOTTOM
350
D1
  3
UCSORGFRONT
350
D4
  3
UCSORGLEFT
350
D2
  3
UCSORGRIGHT
350
D3
  3
UCSORGTOP
350
D0
  3
UCSORTHOREF
350
CD
  3
UCSORTHOVIEW
350
CE
  3
VERSIONGUID
350
C2
  0
DICTIONARY
  5
D7
102
{ACAD_REACTORS
330
C
102
}
330
C
100
AcDbDictionary
  3
DIMASSOC
350
DA
  3
HIDETEXT
350
DB
  0
MATERIAL
  5
3D
102
{ACAD_REACTORS
330
3B
102
}
102
{ACAD_XDICTIONARY
360
DE
102
}
330
3B
100
AcDbMaterial
  1
ByBlock
  0
MATERIAL
  5
3C
102
{ACAD_REACTORS
330
3B
102
}
102
{ACAD_XDICTIONARY
360
DC
102
}
330
3B
100
AcDbMaterial
  1
ByLayer
  0
MATERIAL
  5
3E
102
{ACAD_REACTORS
330
3B
102
}
102
{ACAD_XDICTIONARY
360
E0
102
}
330
3B
100
AcDbMaterial
  1
Global
  0
MLINESTYLE
  5
18
102
{ACAD_REACTORS
330
17
102
}
330
17
100
AcDbMlineStyle
  2
Standard
 70
     0
  3

 62
   256
 51
90.0
 52
90.0
 71
     2
 49
0.5
 62
   256
  6
BYLAYER
 49
-0.5
 62
   256
  6
BYLAYER
  0
ACAD_PROXY_OBJECT
  5
2F
102
{ACAD_REACTORS
330
2A
102
}
330
2A
100
AcDbProxyObject
 90
      499
 91
      501
 93
      436
310
42CC9915DA5C99599C985B595049028333333333333E3BF0000000000000FB0107901411070040501600405405064090741402480A0340
1001
ACAD
1000
AcDbSavedByObjectVersion
1070
     0
  0
ACAD_PROXY_OBJECT
  5
31
102
{ACAD_REACTORS
330
2A
102
}
330
2A
100
AcDbProxyObject
 90
      499
 91
      501
 93
      500
310
424CD108121A5919195B90640502408333333333333E3BF0000000000000FB01079024090700405020000000000001110200405405064090740C02480A0340
1001
ACAD
1000
AcDbSavedByObjectVersion
1070
     0
  0
ACAD_PROXY_OBJECT
  5
30
102
{ACAD_REACTORS
330
2A
102
}
330
2A
100
AcDbProxyObject
 90
      499
 91
      501
 93
      436
310
42CCD915DA5C99599C985B595059028333333333333E3BF0000000000000FB0107901411070040501600405405064090741402480A0340
1001
ACAD
1000
AcDbSavedByObjectVersion
1070
     0
  0
ACAD_PROXY_OBJECT
  5
32
102
{ACAD_REACTORS
330
2A
102
}
330
2A
100
AcDbProxyObject
 90
      499
 91
      501
 93
      388
310
4150985CDA58D07406404333333333333E3BF0000000000000FB0107A41107004050150841D405064090741402480A0350
1001
ACAD
1000
AcDbSavedByObjectVersion
1070
     0
  0
ACAD_PROXY_OBJECT
  5
36
102
{ACAD_REACTORS
330
2A
102
}
330
2A
100
AcDbProxyObject
 90
      499
 91
      501
 93
      428
310
42109C9A59DA1D195B90C409028333333333333E3BF0000000000000FB010790141107004050150841D405064090741402480A029950
1001
ACAD
1000
AcDbSavedByObjectVersion
1070
     0
  0
ACAD_PROXY_OBJECT
  5
3A
102
{ACAD_REACTORS
330
2A
102
}
330
2A
100
AcDbProxyObject
 90
      499
 91
      501
 93
      452
310
42D0DBDB1BDC90DA185B99D95104090240C333333333333E3BF0000000000000FB0108901411070040501508421405064090741402480A0350
1001
ACAD
1000
AcDbSavedByObjectVersion
1070
     0
  0
ACAD_PROXY_OBJECT
  5
34
102
{ACAD_REACTORS
330
2A
102
}
330
2A
100
AcDbProxyObject
 90
      499
 91
      501
 93
      500
310
4290DBDB98D95C1D1D585B10940D028333333333333E3BF0000000000000FB0107902409070040501000000000000111010841D405064090740C02480A0340
1001
ACAD
1000
AcDbSavedByObjectVersion
1070
     0
  0
ACAD_PROXY_OBJECT
  5
35
102
{ACAD_REACTORS
330
2A
102
}
330
2A
100
AcDbProxyObject
 90
      499
 91
      501
 93
      412
310
40D11A5B50B409028333333333333E3BF0000000000000FB010790141107004050150841D405064090741402480A02677FFFFFD0
1001
ACAD
1000
AcDbSavedByObjectVersion
1070
     0
  0
ACAD_PROXY_OBJECT
  5
39
102
{ACAD_REACTORS
330
2A
102
}
330
2A
100
AcDbProxyObject
 90
      499
 91
      501
 93
      444
310
42D19858D95C185D1D195C9B90F409028333333333333E3BF0000000000000FB010790141107004050150841D405064090741402480A0350
1001
ACAD
1000
AcDbSavedByObjectVersion
1070
     0
  0
ACAD_PROXY_OBJECT
  5
2B
102
{ACAD_REACTORS
330
2A
102
}
330
2A
100
AcDbProxyObject
 90
      499
 91
      501
 93
      388
310
41119B185D240901404333333333333E3BF0000000000000F9010740A41107004050150841D405064090741402480A1B50
1001
ACAD
1000
AcDbSavedByObjectVersion
1070
     0
  0
ACAD_PROXY_OBJECT
  5
2C
102
{ACAD_REACTORS
330
2A
102
}
330
2A
100
AcDbProxyObject
 90
      499
 91
      501
 93
      476
310
43519B185D15DA5D1A115919D95CD0140901404333333333333E3BF0000000000000F9010740901411070040501600405405064090741402480A1B50
1001
ACAD
1000
AcDbSavedByObjectVersion
1070
     0
  0
ACAD_PROXY_OBJECT
  5
2D
102
{ACAD_REACTORS
330
2A
102
}
330
2A
100
AcDbProxyObject
 90
      499
 91
      501
 93
      412
310
41D1DBDD5C985D5910240902404333333333333E3BF0000000000000F9010740A411070040501641D405064090741402480A1B50
1001
ACAD
1000
AcDbSavedByObjectVersion
1070
     0
  0
ACAD_PROXY_OBJECT
  5
2E
102
{ACAD_REACTORS
330
2A
102
}
330
2A
100
AcDbProxyObject
 90
      499
 91
      501
 93
      500
310
4411DBDD5C985D5915DA5D1A115919D95CD0340902404333333333333E3BF0000000000000F9010740901411070040501600405405064090741402480A1B50
1001
ACAD
1000
AcDbSavedByObjectVersion
1070
     0
  0
ACAD_PROXY_OBJECT
  5
38
102
{ACAD_REACTORS
330
2A
102
}
330
2A
100
AcDbProxyObject
 90
      499
 91
      501
 93
      444
310
42D31A5B995C185D1D195C9B90E409028333333333333E3BF0000000000000FB010790141107004050750841D405064090741402483A0350
1001
ACAD
1000
AcDbSavedByObjectVersion
1070
     0
  0
ACAD_PROXY_OBJECT
  5
33
102
{ACAD_REACTORS
330
2A
102
}
330
2A
100
AcDbProxyObject
 90
      499
 91
      501
 93
      420
310
425499585B1A5CDD1A58D08409028333333333333E3BF0000000000000FB01079019070040501508421405064090741402480A1B40
1001
ACAD
1000
AcDbSavedByObjectVersion
1070
     0
  0
ACAD_PROXY_OBJECT
  5
37
102
{ACAD_REACTORS
330
2A
102
}
330
2A
100
AcDbProxyObject
 90
      499
 91
      501
 93
      412
310
41D51A1A58DAD95B90D409028333333333333E3BF0000000000000FB010790141107004050150C41D405064090741402480A0350
1001
ACAD
1000
AcDbSavedByObjectVersion
1070
     0
  0
XRECORD
  5
C0
102
{ACAD_REACTORS
330
B7
102
}
330
B7
100
AcDbXrecord
 90
        0
  0
XRECORD
  5
D6
102
{ACAD_REACTORS
330
B7
102
}
330
B7
100
AcDbXrecord
1000
DSTYLE
1002
{
1070
   340
340
11
1002
}
  0
XRECORD
  5
C1
102
{ACAD_REACTORS
330
B7
102
}
330
B7
100
AcDbXrecord
  1
{04E42457-999E-4F4E-98FF-418A9A5DE567}
  0
XRECORD
  5
BA
102
{ACAD_REACTORS
330
B7
102
}
330
B7
100
AcDbXrecord
  1

  0
XRECORD
  5
BF
102
{ACAD_REACTORS
330
B7
102
}
330
B7
100
AcDbXrecord
 90
        4
  0
XRECORD
  5
BC
102
{ACAD_REACTORS
330
B7
102
}
330
B7
100
AcDbXrecord
340
1A
  0
XRECORD
  5
BE
102
{ACAD_REACTORS
330
B7
102
}
330
B7
100
AcDbXrecord
 90
    10781
  0
XRECORD
  5
BD
102
{ACAD_REACTORS
330
B7
102
}
330
B7
100
AcDbXrecord
340
19
  0
XRECORD
  5
C3
102
{ACAD_REACTORS
330
B7
102
}
330
B7
100
AcDbXrecord
 40
0.0
  0
XRECORD
  5
C6
102
{ACAD_REACTORS
330
B7
102
}
330
B7
100
AcDbXrecord
340
0
  0
XRECORD
  5
CC
102
{ACAD_REACTORS
330
B7
102
}
330
B7
100
AcDbXrecord
 10
0.0
 20
0.0
 30
0.0
  0
XRECORD
  5
C8
102
{ACAD_REACTORS
330
B7
102
}
330
B7
100
AcDbXrecord
 10
0.0
 20
0.0
 30
0.0
  0
XRECORD
  5
CB
102
{ACAD_REACTORS
330
B7
102
}
330
B7
100
AcDbXrecord
 10
0.0
 20
0.0
 30
0.0
  0
XRECORD
  5
C9
102
{ACAD_REACTORS
330
B7
102
}
330
B7
100
AcDbXrecord
 10
0.0
 20
0.0
 30
0.0
  0
XRECORD
  5
CA
102
{ACAD_REACTORS
330
B7
102
}
330
B7
100
AcDbXrecord
 10
0.0
 20
0.0
 30
0.0
  0
XRECORD
  5
C7
102
{ACAD_REACTORS
330
B7
102
}
330
B7
100
AcDbXrecord
 10
0.0
 20
0.0
 30
0.0
  0
XRECORD
  5
C4
102
{ACAD_REACTORS
330
B7
102
}
330
B7
100
AcDbXrecord
340
0
  0
XRECORD
  5
C5
102
{ACAD_REACTORS
330
B7
102
}
330
B7
100
AcDbXrecord
 70
     0
  0
XRECORD
  5
BB
102
{ACAD_REACTORS
330
B7
102
}
330
B7
100
AcDbXrecord
  1

  0
XRECORD
  5
B8
102
{ACAD_REACTORS
330
B7
102
}
330
B7
100
AcDbXrecord
 90
        1
  0
XRECORD
  5
B9
102
{ACAD_REACTORS
330
B7
102
}
330
B7
100
AcDbXrecord
 90
       70
  0
XRECORD
  5
CF
102
{ACAD_REACTORS
330
B7
102
}
330
B7
100
AcDbXrecord
340
0
  0
XRECORD
  5
D5
102
{ACAD_REACTORS
330
B7
102
}
330
B7
100
AcDbXrecord
 10
0.0
 20
0.0
 30
0.0
  0
XRECORD
  5
D1
102
{ACAD_REACTORS
330
B7
102
}
330
B7
100
AcDbXrecord
 10
0.0
 20
0.0
 30
0.0
  0
XRECORD
  5
D4
102
{ACAD_REACTORS
330
B7
102
}
330
B7
100
AcDbXrecord
 10
0.0
 20
0.0
 30
0.0
  0
XRECORD
  5
D2
102
{ACAD_REACTORS
330
B7
102
}
330
B7
100
AcDbXrecord
 10
0.0
 20
0.0
 30
0.0
  0
XRECORD
  5
D3
102
{ACAD_REACTORS
330
B7
102
}
330
B7
100
AcDbXrecord
 10
0.0
 20
0.0
 30
0.0
  0
XRECORD
  5
D0
102
{ACAD_REACTORS
330
B7
102
}
330
B7
100
AcDbXrecord
 10
0.0
 20
0.0
 30
0.0
  0
XRECORD
  5
CD
102
{ACAD_REACTORS
330
B7
102
}
330
B7
100
AcDbXrecord
340
0
  0
XRECORD
  5
CE
102
{ACAD_REACTORS
330
B7
102
}
330
B7
100
AcDbXrecord
 70
     0
  0
XRECORD
  5
C2
102
{ACAD_REACTORS
330
B7
102
}
330
B7
100
AcDbXrecord
  1
{FAEB1C32-E019-11D5-929B-00C0DF256EC4}
  0
DICTIONARYVAR
  5
DA
102
{ACAD_REACTORS
330
D7
102
}
330
D7
100
DictionaryVariables
280
     0
  1
2
  0
DICTIONARYVAR
  5
DB
102
{ACAD_REACTORS
330
D7
102
}
330
D7
100
DictionaryVariables
280
     0
  1
1
  0
DICTIONARY
  5
DE
330
3D
100
AcDbDictionary
280
     1
  3
ACAD_XREC_ROUNDTRIP
360
DF
  0
DICTIONARY
  5
DC
330
3C
100
AcDbDictionary
280
     1
  3
ACAD_XREC_ROUNDTRIP
360
DD
  0
DICTIONARY
  5
E0
330
3E
100
AcDbDictionary
280
     1
  3
ACAD_XREC_ROUNDTRIP
360
E1
  0
XRECORD
  5
DF
102
{ACAD_REACTORS
330
DE
102
}
330
DE
100
AcDbXrecord
102
MATERIAL
148
0.0
149
0.0
149
0.0
 93
        0
 94
      127
282
     0
 72
     1
 77
     1
171
     1
175
     1
179
     1
273
     0
  0
XRECORD
  5
DD
102
{ACAD_REACTORS
330
DC
102
}
330
DC
100
AcDbXrecord
102
MATERIAL
148
0.0
149
0.0
149
0.0
 93
        0
 94
      127
282
     0
 72
     1
 77
     1
171
     1
175
     1
179
     1
273
     0
  0
XRECORD
  5
E1
102
{ACAD_REACTORS
330
E0
102
}
330
E0
100
AcDbXrecord
102
MATERIAL
148
0.0
149
0.0
149
0.0
 93
        0
 94
      127
282
     0
 72
     1
 77
     1
171
     1
175
     1
179
     1
273
     0
  0
ENDSEC
  0
EOF
